999
NT  : 16.0 - 919
  0
SECTION
  2
HEADER
  9
$ACADVER
  1
AC1006
  9
$INSBASE
 10
0.000000000
 20
0.000000000
  9
$EXTMIN
 10
-41.050665020
 20
-10.366193520
  9
$EXTMAX
 10
41.372140182
 20
25.621663802
  9
$LIMMIN
 10
-41.050665020
 20
-10.366193520
  9
$LIMMAX
 10
41.372140182
 20
25.621663802
  9
$AUNITS
 70
     2
  9
$ANGBASE
 50
0.000
  9
$ANGDIR
 70
     0
  0
ENDSEC
  0
SECTION
  2
TABLES
  0
TABLE
  2
LTYPE
 70
     8
  0
LTYPE
  2
PUNKT
 70
    64
  3
..............
 72
    65
 73
     2
 40
1.500
 49
0.700
 49
-0.800
  0
LTYPE
  2
GESTRICHELT
 70
    64
  3
-- -- -- -- --
 72
    65
 73
     7
 40
2.800
 49
0.900
 49
0.000
 49
0.900
 49
0.000
 49
0.200
 49
0.000
 49
-0.800
  0
LTYPE
  2
STRICHPUNKT
 70
    64
  3
--.--.--.--.--
 72
    65
 73
     4
 40
8.800
 49
5.500
 49
-1.300
 49
0.700
 49
-1.300
  0
LTYPE
  2
STRICHPUNKT
 70
    64
  3
--.--.--.--.--
 72
    65
 73
     4
 40
8.800
 49
5.500
 49
-1.300
 49
0.700
 49
-1.300
  0
LTYPE
  2
STRICHPUNKT
 70
    64
  3
--.--.--.--.--
 72
    65
 73
     4
 40
8.800
 49
5.500
 49
-1.300
 49
0.700
 49
-1.300
  0
LTYPE
  2
PHANTOM
 70
    64
  3
--..--..--..--
 72
    65
 73
     6
 40
14.200
 49
7.000
 49
-1.800
 49
0.900
 49
-1.800
 49
0.900
 49
-1.800
  0
LTYPE
  2
PHANTOM
 70
    64
  3
--..--..--..--
 72
    65
 73
     6
 40
14.200
 49
7.000
 49
-1.800
 49
0.900
 49
-1.800
 49
0.900
 49
-1.800
  0
LTYPE
  2
PHANTOM
 70
    64
  3
--..--..--..--
 72
    65
 73
     6
 40
14.200
 49
7.000
 49
-1.800
 49
0.900
 49
-1.800
 49
0.900
 49
-1.800
  0
ENDTAB
  0
ENDSEC
  0
SECTION
  2
BLOCKS
  0
ENDSEC
  0
SECTION
  2
ENTITIES
  0
LINE
  8
ZAPFEN
  6
CONTINUOUS
 62
     4
 10
-13.800000005
 20
-2.000000000
 11
0.000000000
 21
-2.000000000
  0
LINE
  8
AUFNAHME
  6
CONTINUOUS
 62
     7
 10
0.000000000
 20
-2.000000000
 11
1.499999747
 21
-2.000000000
  0
ARC
  8
AUFNAHME
  6
CONTINUOUS
 62
     7
 10
3.000000000
 20
-7.524999905
 40
5.725000000
 50
90.000000000
 51
105.189286737
  0
LINE
  8
ZAPFEN
  6
CONTINUOUS
 62
     4
 10
-14.000000000
 20
-1.799999874
 11
-13.800000005
 21
-2.000000000
  0
LINE
  8
AUFNAHME
  6
CONTINUOUS
 62
     7
 10
3.000000924
 20
-1.799999874
 11
14.307106346
 21
-1.609583058
  0
LINE
  8
AUFNAHME
  6
CONTINUOUS
 62
     7
 10
14.307106346
 20
1.609583247
 11
11.064194575
 21
1.664195305
  0
LINE
  8
ZAPFEN
  6
CONTINUOUS
 62
     4
 10
-13.800000005
 20
1.600000054
 11
-13.800000005
 21
-2.000000000
  0
LINE
  8
AUFNAHME
  6
CONTINUOUS
 62
     7
 10
1.499999747
 20
1.600000054
 11
0.000000000
 21
1.600000054
  0
LINE
  8
ZAPFEN
  6
CONTINUOUS
 62
     4
 10
0.000000000
 20
1.600000054
 11
-14.000000000
 21
1.600000054
  0
LINE
  8
AUFNAHME
  6
CONTINUOUS
 62
     7
 10
1.499999747
 20
-2.000000000
 11
1.499999747
 21
1.600000054
  0
LINE
  8
AUFNAHME
  6
CONTINUOUS
 62
     7
 10
3.000000924
 20
1.600000054
 11
1.499999747
 21
1.600000054
  0
LINE
  8
ZAPFEN
  6
CONTINUOUS
 62
     4
 10
-14.000000000
 20
-1.799999874
 11
-14.000000000
 21
1.600000054
  0
ARC
  8
AUFNAHME
  6
CONTINUOUS
 62
     7
 10
14.142484463
 20
-4.553130388
 40
6.164911980
 50
88.469846704
 51
91.756167243
  0
ARC
  8
AUFNAHME
  6
CONTINUOUS
 62
     7
 10
14.072827438
 20
0.000000095
 40
1.613300927
 50
94.239841634
 51
-94.239841634
  0
ARC
  8
AUFNAHME
  6
CONTINUOUS
 62
     7
 10
14.138632656
 20
2.600224351
 40
4.213177162
 50
-92.517729994
 51
-87.708283953
  0
LINE
  8
AUFNAHME
  6
CONTINUOUS
 62
     7
 10
14.876159340
 20
-1.599999865
 11
14.307106346
 21
-1.609583058
  0
LINE
  8
AUFNAHME
  6
CONTINUOUS
 62
     7
 10
14.835130855
 20
1.600691096
 11
14.848212212
 21
1.598720767
  0
LINE
  8
AUFNAHME
  6
CONTINUOUS
 62
     7
 10
14.848212212
 20
1.598720767
 11
14.876159340
 21
1.594775335
  0
LINE
  8
AUFNAHME
  6
CONTINUOUS
 62
     7
 10
14.307106346
 20
1.609583247
 11
14.835130855
 21
1.600691096
  0
LINE
  8
AUFNAHME
  6
CONTINUOUS
 62
     7
 10
11.000000372
 20
1.600000054
 11
3.000000924
 21
1.600000054
  0
LINE
  8
AUFNAHME
  6
CONTINUOUS
 62
     7
 10
11.064194575
 20
1.664195305
 11
11.061611086
 21
1.661611816
  0
LINE
  8
AUFNAHME
  6
CONTINUOUS
 62
     7
 10
11.061611086
 20
1.661611816
 11
11.040989742
 21
1.640990704
  0
LINE
  8
AUFNAHME
  6
CONTINUOUS
 62
     7
 10
11.040989742
 20
1.640990704
 11
11.000000372
 21
1.600000054
  0
LINE
  8
AUFNAHME
  6
CONTINUOUS
 62
     7
 10
15.092771932
 20
1.800911945
 11
15.151588678
 21
1.862733254
  0
LINE
  8
AUFNAHME
  6
CONTINUOUS
 62
     7
 10
15.151588678
 20
1.862733254
 11
15.961150140
 21
1.948731464
  0
ARC
  8
AUFNAHME
  6
CONTINUOUS
 62
     7
 10
15.950024302
 20
1.900011513
 40
0.049974172
 50
3.338825843
 51
77.136344937
  0
LINE
  8
AUFNAHME
  6
CONTINUOUS
 62
     7
 10
16.000463128
 20
1.907532315
 11
15.859406874
 21
-0.305397428
  0
LINE
  8
AUFNAHME
  6
CONTINUOUS
 62
     7
 10
14.876159340
 20
-1.599999865
 11
15.816640541
 21
-1.599999865
  0
LINE
  8
AUFNAHME
  6
CONTINUOUS
 62
     7
 10
15.839731753
 20
-1.159424333
 11
14.835130855
 21
1.600691096
  0
LINE
  8
AUFNAHME
  6
CONTINUOUS
 62
     7
 10
15.839731753
 20
-1.159424333
 11
15.816640541
 21
-1.599999865
  0
ARC
  8
AUFNAHME
  6
CONTINUOUS
 62
     7
 10
13.155512447
 20
3.619745290
 40
2.657278504
 50
-49.644952193
 51
-43.194115190
  0
ARC
  8
AUFNAHME
  6
CONTINUOUS
 62
     7
 10
28.187717580
 20
-1.125562326
 40
12.355563032
 50
176.193895293
 51
177.225911418
  0
ARC
  8
AUFNAHME
  6
CONTINUOUS
 62
     7
 10
28.187717580
 20
-1.125562326
 40
12.355198937
 50
177.225911418
 51
179.614601147
  0
ARC
  8
AUFNAHME
  6
CONTINUOUS
 62
     7
 10
16.992804922
 20
-1.050267607
 40
1.160033074
 50
179.614168467
 51
-176.324067178
  0
ARC
  8
AUFNAHME
  6
CONTINUOUS
 62
     7
 10
16.060065058
 20
-1.110191762
 40
0.225370269
 50
-176.324067178
 51
-167.404434970
  0
LINE
  8
AUFNAHME
  6
CONTINUOUS
 62
     7
 10
3.000000924
 20
-1.799999874
 11
3.000000924
 21
1.600000054
  0
LINE
  8
AUFNAHME
  6
CONTINUOUS
 62
     7
 10
13.953553945
 20
-1.608885730
 11
13.953553945
 21
1.608885920
  0
LINE
  8
AUFNAHME
  6
CONTINUOUS
 62
     7
 10
14.307106346
 20
1.609583247
 11
14.307106346
 21
-1.609583058
  0
LINE
  8
AUFNAHME
  6
CONTINUOUS
 62
     7
 10
15.859406874
 20
-0.305397428
 11
15.092771932
 21
1.800911945
  0
LINE
  8
ZAPFEN
  6
STRICHPUNKT
 62
     4
 10
-14.813996941
 20
0.000000000
 11
17.367300635
 21
0.000000000
  0
LINE
  8
MASS
  6
CONTINUOUS
 62
     4
 10
-14.000000000
 20
-12.013371151
 11
-14.000000000
 21
-1.799999874
  0
LINE
  8
MASS
  6
CONTINUOUS
 62
     4
 10
-14.000000000
 20
-10.013371151
 11
-10.499999990
 21
-9.563371230
  0
LINE
  8
MASS
  6
CONTINUOUS
 62
     4
 10
-10.499999990
 20
-9.563371230
 11
-10.500000010
 21
-10.463371230
  0
LINE
  8
MASS
  6
CONTINUOUS
 62
     4
 10
-10.500000010
 20
-10.463371230
 11
-14.000000000
 21
-10.013371151
  0
LINE
  8
MASS
  6
CONTINUOUS
 62
     4
 10
0.000000000
 20
-12.013371468
 11
0.000000000
 21
-2.000000000
  0
LINE
  8
MASS
  6
CONTINUOUS
 62
     4
 10
0.000000000
 20
-10.013371468
 11
-3.500000010
 21
-10.463371388
  0
LINE
  8
MASS
  6
CONTINUOUS
 62
     4
 10
-3.500000010
 20
-10.463371388
 11
-3.499999990
 21
-9.563371388
  0
LINE
  8
MASS
  6
CONTINUOUS
 62
     4
 10
-3.499999990
 20
-9.563371388
 11
0.000000000
 21
-10.013371468
  0
LINE
  8
MASS
  6
CONTINUOUS
 62
     4
 10
-10.500000000
 20
-10.013371230
 11
-3.500000000
 21
-10.013371388
  0
TEXT
  8
MASS
  6
CONTINUOUS
 62
     4
 10
-8.281875123
 20
-8.513371280
 40
3.500000000
  1
14
 50
359.999998704
 41
1.000
 51
0.000000000
  7
STANDARD
  0
LINE
  8
MASS
  6
CONTINUOUS
 62
     4
 10
0.000000000
 20
-12.013371468
 11
0.000000000
 21
-2.000000000
  0
LINE
  8
MASS
  6
CONTINUOUS
 62
     4
 10
0.000000000
 20
-10.013371468
 11
3.499999990
 21
-9.563371389
  0
LINE
  8
MASS
  6
CONTINUOUS
 62
     4
 10
3.499999990
 20
-9.563371389
 11
3.500000010
 21
-10.463371389
  0
LINE
  8
MASS
  6
CONTINUOUS
 62
     4
 10
3.500000010
 20
-10.463371389
 11
0.000000000
 21
-10.013371468
  0
LINE
  8
MASS
  6
CONTINUOUS
 62
     4
 10
15.999913648
 20
-12.013371109
 11
15.999913648
 21
1.902922035
  0
LINE
  8
MASS
  6
CONTINUOUS
 62
     4
 10
15.999913648
 20
-10.013371109
 11
12.499913658
 21
-10.463371188
  0
LINE
  8
MASS
  6
CONTINUOUS
 62
     4
 10
12.499913658
 20
-10.463371188
 11
12.499913638
 21
-9.563371188
  0
LINE
  8
MASS
  6
CONTINUOUS
 62
     4
 10
12.499913638
 20
-9.563371188
 11
15.999913648
 21
-10.013371109
  0
LINE
  8
MASS
  6
CONTINUOUS
 62
     4
 10
3.500000000
 20
-10.013371389
 11
12.499913648
 21
-10.013371188
  0
TEXT
  8
MASS
  6
CONTINUOUS
 62
     4
 10
6.772769111
 20
-8.513371316
 40
3.500000000
  1
16
 50
0.000001284
 41
1.000
 51
0.000000000
  7
STANDARD
  0
LINE
  8
MASS
  6
CONTINUOUS
 62
     4
 10
3.000000924
 20
9.029059560
 11
3.000000924
 21
1.600000054
  0
LINE
  8
MASS
  6
CONTINUOUS
 62
     4
 10
3.000000924
 20
7.029059560
 11
6.500000917
 21
7.479059616
  0
LINE
  8
MASS
  6
CONTINUOUS
 62
     4
 10
6.500000917
 20
7.479059616
 11
6.500000931
 21
6.579059616
  0
LINE
  8
MASS
  6
CONTINUOUS
 62
     4
 10
6.500000931
 20
6.579059616
 11
3.000000924
 21
7.029059560
  0
LINE
  8
MASS
  6
CONTINUOUS
 62
     4
 10
15.999913648
 20
9.029059769
 11
15.999913648
 21
1.902922035
  0
LINE
  8
MASS
  6
CONTINUOUS
 62
     4
 10
15.999913648
 20
7.029059769
 11
12.499913655
 21
6.579059712
  0
LINE
  8
MASS
  6
CONTINUOUS
 62
     4
 10
12.499913655
 20
6.579059712
 11
12.499913641
 21
7.479059712
  0
LINE
  8
MASS
  6
CONTINUOUS
 62
     4
 10
12.499913641
 20
7.479059712
 11
15.999913648
 21
7.029059769
  0
LINE
  8
MASS
  6
CONTINUOUS
 62
     4
 10
6.500000924
 20
7.029059616
 11
12.499913648
 21
7.029059712
  0
TEXT
  8
MASS
  6
CONTINUOUS
 62
     4
 10
8.409488366
 20
8.529059647
 40
3.500000000
  1
13
 50
0.000000920
 41
1.000
 51
0.000000000
  7
STANDARD
  0
LINE
  8
MASS
  6
CONTINUOUS
 62
     4
 10
-22.099227490
 20
-2.000000363
 11
-13.800000005
 21
-2.000000000
  0
LINE
  8
MASS
  6
CONTINUOUS
 62
     4
 10
-20.099227490
 20
-2.000000275
 11
-20.549227643
 21
1.499999705
  0
LINE
  8
MASS
  6
CONTINUOUS
 62
     4
 10
-20.549227643
 20
1.499999705
 11
-19.649227643
 21
1.499999744
  0
LINE
  8
MASS
  6
CONTINUOUS
 62
     4
 10
-19.649227643
 20
1.499999744
 11
-20.099227490
 21
-2.000000275
  0
LINE
  8
MASS
  6
CONTINUOUS
 62
     4
 10
-20.099227643
 20
1.499999725
 11
-20.099227665
 21
1.999999813
  0
TEXT
  8
MASS
  6
CONTINUOUS
 62
     4
 10
-21.744675368
 20
6.807284573
 40
3.500000000
  1
4
 50
90.000002504
 41
1.000
 51
0.000000000
  7
STANDARD
  0
CIRCLE
  8
MASS
  6
CONTINUOUS
 62
     4
 10
-22.994675269
 20
4.557284519
 40
1.250000000
  0
LINE
  8
MASS
  6
CONTINUOUS
 62
     4
 10
-21.744675215
 20
3.307284573
 11
-24.244675324
 21
5.807284464
  0
LINE
  8
MASS
  6
CONTINUOUS
 62
     4
 10
27.566150228
 20
1.948731972
 11
15.961150140
 21
1.948731464
  0
LINE
  8
MASS
  6
CONTINUOUS
 62
     4
 10
25.566150228
 20
1.948731884
 11
26.016150075
 21
5.448731904
  0
LINE
  8
MASS
  6
CONTINUOUS
 62
     4
 10
26.016150075
 20
5.448731904
 11
25.116150075
 21
5.448731864
  0
LINE
  8
MASS
  6
CONTINUOUS
 62
     4
 10
25.116150075
 20
5.448731864
 11
25.566150228
 21
1.948731884
  0
LINE
  8
MASS
  6
CONTINUOUS
 62
     4
 10
25.566150075
 20
5.448731884
 11
25.566149208
 21
25.268841671
  0
LINE
  8
MASS
  6
CONTINUOUS
 62
     4
 10
25.566150398
 20
-1.948731167
 11
25.566150228
 21
1.948731884
  0
TEXT
  8
MASS
  6
CONTINUOUS
 62
     4
 10
23.690974743
 20
10.328841589
 40
3.500000000
  1
3.9
 50
90.000002504
 41
1.000
 51
0.000000000
  7
STANDARD
  0
CIRCLE
  8
MASS
  6
CONTINUOUS
 62
     4
 10
22.440974841
 20
8.078841535
 40
1.250000000
  0
LINE
  8
MASS
  6
CONTINUOUS
 62
     4
 10
23.690974896
 20
6.828841589
 11
21.190974787
 21
9.328841480
  0
TEXT
  8
MASS
  6
CONTINUOUS
 62
     4
 10
23.690974510
 20
15.650404089
 40
3.500000000
  1
-5.0
 50
90.000002504
 41
1.000
 51
0.000000000
  7
STANDARD
  0
TEXT
  8
MASS
  6
CONTINUOUS
 62
     4
 10
-13.717280792
 20
2.997712576
 40
3.500000000
  1
615.546
 50
0.000000000
 41
1.000
 51
0.000000000
  7
STANDARD
  0
ENDSEC
  0
EOF
