999
NT  : 16.0 - 919
  0
SECTION
  2
HEADER
  9
$ACADVER
  1
AC1006
  9
$INSBASE
 10
0.000000000
 20
0.000000000
  9
$EXTMIN
 10
-36.710881306
 20
-9.848281584
  9
$EXTMAX
 10
46.822397345
 20
26.624436207
  9
$LIMMIN
 10
-36.710881306
 20
-9.848281584
  9
$LIMMAX
 10
46.822397345
 20
26.624436207
  9
$AUNITS
 70
     2
  9
$ANGBASE
 50
0.000
  9
$ANGDIR
 70
     0
  0
ENDSEC
  0
SECTION
  2
TABLES
  0
TABLE
  2
LTYPE
 70
     8
  0
LTYPE
  2
PUNKT
 70
    64
  3
..............
 72
    65
 73
     2
 40
1.500
 49
0.700
 49
-0.800
  0
LTYPE
  2
GESTRICHELT
 70
    64
  3
-- -- -- -- --
 72
    65
 73
     7
 40
2.800
 49
0.900
 49
0.000
 49
0.900
 49
0.000
 49
0.200
 49
0.000
 49
-0.800
  0
LTYPE
  2
STRICHPUNKT
 70
    64
  3
--.--.--.--.--
 72
    65
 73
     4
 40
8.800
 49
5.500
 49
-1.300
 49
0.700
 49
-1.300
  0
LTYPE
  2
STRICHPUNKT
 70
    64
  3
--.--.--.--.--
 72
    65
 73
     4
 40
8.800
 49
5.500
 49
-1.300
 49
0.700
 49
-1.300
  0
LTYPE
  2
STRICHPUNKT
 70
    64
  3
--.--.--.--.--
 72
    65
 73
     4
 40
8.800
 49
5.500
 49
-1.300
 49
0.700
 49
-1.300
  0
LTYPE
  2
PHANTOM
 70
    64
  3
--..--..--..--
 72
    65
 73
     6
 40
14.200
 49
7.000
 49
-1.800
 49
0.900
 49
-1.800
 49
0.900
 49
-1.800
  0
LTYPE
  2
PHANTOM
 70
    64
  3
--..--..--..--
 72
    65
 73
     6
 40
14.200
 49
7.000
 49
-1.800
 49
0.900
 49
-1.800
 49
0.900
 49
-1.800
  0
LTYPE
  2
PHANTOM
 70
    64
  3
--..--..--..--
 72
    65
 73
     6
 40
14.200
 49
7.000
 49
-1.800
 49
0.900
 49
-1.800
 49
0.900
 49
-1.800
  0
ENDTAB
  0
ENDSEC
  0
SECTION
  2
BLOCKS
  0
ENDSEC
  0
SECTION
  2
ENTITIES
  0
LINE
  8
ZAPFEN
  6
CONTINUOUS
 62
     4
 10
-14.000000000
 20
-1.800000000
 11
-13.800000000
 21
-2.000000000
  0
ARC
  8
AUFNAHME
  6
CONTINUOUS
 62
     7
 10
6.000000000
 20
-6.114285714
 40
4.814285714
 50
90.000000000
 51
121.284492914
  0
ARC
  8
AUFNAHME
  6
CONTINUOUS
 62
     7
 10
6.000000000
 20
6.114285714
 40
4.814285714
 50
-110.333862571
 51
-90.000000000
  0
LINE
  8
ZAPFEN
  6
CONTINUOUS
 62
     4
 10
-13.800000000
 20
-2.000000000
 11
0.000000000
 21
-2.000000000
  0
LINE
  8
AUFNAHME
  6
CONTINUOUS
 62
     7
 10
0.000000000
 20
-2.000000000
 11
3.500000000
 21
-2.000000000
  0
LINE
  8
AUFNAHME
  6
CONTINUOUS
 62
     7
 10
6.000000000
 20
-1.300000000
 11
14.707106781
 21
-1.155246141
  0
LINE
  8
AUFNAHME
  6
CONTINUOUS
 62
     7
 10
14.707106781
 20
1.155246141
 11
6.000000000
 21
1.300000000
  0
LINE
  8
ZAPFEN
  6
CONTINUOUS
 62
     4
 10
-14.000000000
 20
-1.800000000
 11
-14.000000000
 21
1.600000000
  0
LINE
  8
ZAPFEN
  6
CONTINUOUS
 62
     4
 10
-14.000000000
 20
1.600000000
 11
0.000000000
 21
1.600000000
  0
LINE
  8
ZAPFEN
  6
CONTINUOUS
 62
     4
 10
-13.800000000
 20
1.600000000
 11
-13.800000000
 21
-2.000000000
  0
LINE
  8
AUFNAHME
  6
CONTINUOUS
 62
     7
 10
4.327106869
 20
1.600000000
 11
3.500000000
 21
1.600000000
  0
LINE
  8
AUFNAHME
  6
CONTINUOUS
 62
     7
 10
3.500000000
 20
-2.000000000
 11
3.500000000
 21
1.600000000
  0
LINE
  8
AUFNAHME
  6
CONTINUOUS
 62
     7
 10
3.500000000
 20
1.600000000
 11
0.000000000
 21
1.600000000
  0
LINE
  8
AUFNAHME
  6
CONTINUOUS
 62
     7
 10
14.707106781
 20
1.155246141
 11
15.022668023
 21
1.150000000
  0
ARC
  8
AUFNAHME
  6
CONTINUOUS
 62
     7
 10
14.572498014
 20
-3.238376818
 40
4.395684500
 50
88.245160634
 51
92.855026492
  0
ARC
  8
AUFNAHME
  6
CONTINUOUS
 62
     7
 10
14.480731704
 20
0.000000000
 40
1.158851332
 50
96.300624812
 51
-96.300624812
  0
ARC
  8
AUFNAHME
  6
CONTINUOUS
 62
     7
 10
14.559329115
 20
1.866793532
 40
3.025650677
 50
-93.899719350
 51
-87.200467775
  0
LINE
  8
AUFNAHME
  6
CONTINUOUS
 62
     7
 10
15.022668023
 20
-1.150000000
 11
14.707106781
 21
-1.155246141
  0
LINE
  8
AUFNAHME
  6
CONTINUOUS
 62
     7
 10
15.233876849
 20
1.346643223
 11
15.259914270
 21
1.374240402
  0
LINE
  8
AUFNAHME
  6
CONTINUOUS
 62
     7
 10
15.259914270
 20
1.374240402
 11
15.961140009
 21
1.448730256
  0
ARC
  8
AUFNAHME
  6
CONTINUOUS
 62
     7
 10
15.950031956
 20
1.400013282
 40
0.049967313
 50
3.355984260
 51
77.155466341
  0
LINE
  8
AUFNAHME
  6
CONTINUOUS
 62
     7
 10
16.000463364
 20
1.407532220
 11
15.882915529
 21
-0.436575893
  0
ARC
  8
AUFNAHME
  6
CONTINUOUS
 62
     7
 10
13.873263460
 20
2.604505539
 40
1.852966919
 50
-51.448799673
 51
-42.752820928
  0
LINE
  8
AUFNAHME
  6
CONTINUOUS
 62
     7
 10
15.022668023
 20
1.150000000
 11
15.028057900
 21
1.155389877
  0
LINE
  8
AUFNAHME
  6
CONTINUOUS
 62
     7
 10
15.866519707
 20
-1.148265007
 11
15.028057900
 21
1.155389877
  0
ARC
  8
AUFNAHME
  6
CONTINUOUS
 62
     7
 10
26.156508544
 20
-1.120046648
 40
10.296302527
 50
176.193895293
 51
177.225911418
  0
ARC
  8
AUFNAHME
  6
CONTINUOUS
 62
     7
 10
26.156508544
 20
-1.120046648
 40
10.295999114
 50
177.225911418
 51
179.614601147
  0
ARC
  8
AUFNAHME
  6
CONTINUOUS
 62
     7
 10
16.827414663
 20
-1.057301048
 40
0.966694228
 50
179.614168467
 51
-176.324067178
  0
ARC
  8
AUFNAHME
  6
CONTINUOUS
 62
     7
 10
16.050131442
 20
-1.107237844
 40
0.187808557
 50
-176.324067178
 51
-167.404434970
  0
LINE
  8
AUFNAHME
  6
CONTINUOUS
 62
     7
 10
15.022668023
 20
-1.150000000
 11
15.866519707
 21
-1.148265007
  0
LINE
  8
AUFNAHME
  6
CONTINUOUS
 62
     7
 10
15.866519707
 20
-1.148265007
 11
15.866428780
 21
-1.150000000
  0
LINE
  8
AUFNAHME
  6
CONTINUOUS
 62
     7
 10
6.000000000
 20
-1.300000000
 11
6.000000000
 21
1.300000000
  0
LINE
  8
AUFNAHME
  6
CONTINUOUS
 62
     7
 10
14.353553391
 20
-1.151851590
 11
14.353553391
 21
1.151851590
  0
LINE
  8
AUFNAHME
  6
CONTINUOUS
 62
     7
 10
14.707106781
 20
1.155246141
 11
14.707106781
 21
-1.155246141
  0
LINE
  8
AUFNAHME
  6
CONTINUOUS
 62
     7
 10
15.882915529
 20
-0.436575893
 11
15.233876849
 21
1.346643223
  0
LINE
  8
ZAPFEN
  6
STRICHPUNKT
 62
     4
 10
-14.756621061
 20
0.000000000
 11
17.190989565
 21
0.000000000
  0
LINE
  8
MASS
  6
CONTINUOUS
 62
     4
 10
-14.000000000
 20
-11.490705776
 11
-14.000000000
 21
-1.800000000
  0
LINE
  8
MASS
  6
CONTINUOUS
 62
     4
 10
-14.000000000
 20
-9.490705776
 11
-10.499999994
 21
-9.040705824
  0
LINE
  8
MASS
  6
CONTINUOUS
 62
     4
 10
-10.499999994
 20
-9.040705824
 11
-10.500000006
 21
-9.940705824
  0
LINE
  8
MASS
  6
CONTINUOUS
 62
     4
 10
-10.500000006
 20
-9.940705824
 11
-14.000000000
 21
-9.490705776
  0
LINE
  8
MASS
  6
CONTINUOUS
 62
     4
 10
0.000000000
 20
-11.490705967
 11
0.000000000
 21
-2.000000000
  0
LINE
  8
MASS
  6
CONTINUOUS
 62
     4
 10
0.000000000
 20
-9.490705967
 11
-3.500000006
 21
-9.940705919
  0
LINE
  8
MASS
  6
CONTINUOUS
 62
     4
 10
-3.500000006
 20
-9.940705919
 11
-3.499999994
 21
-9.040705919
  0
LINE
  8
MASS
  6
CONTINUOUS
 62
     4
 10
-3.499999994
 20
-9.040705919
 11
0.000000000
 21
-9.490705967
  0
LINE
  8
MASS
  6
CONTINUOUS
 62
     4
 10
-10.500000000
 20
-9.490705824
 11
-3.500000000
 21
-9.490705919
  0
TEXT
  8
MASS
  6
CONTINUOUS
 62
     4
 10
-8.281875136
 20
-7.990705854
 40
3.500000000
  1
14
 50
359.999999219
 41
1.000
 51
0.000000000
  7
STANDARD
  0
LINE
  8
MASS
  6
CONTINUOUS
 62
     4
 10
0.000000000
 20
-11.456339836
 11
0.000000000
 21
-2.000000000
  0
LINE
  8
MASS
  6
CONTINUOUS
 62
     4
 10
0.000000000
 20
-9.456339836
 11
3.500000014
 21
-9.006339945
  0
LINE
  8
MASS
  6
CONTINUOUS
 62
     4
 10
3.500000014
 20
-9.006339945
 11
3.499999986
 21
-9.906339945
  0
LINE
  8
MASS
  6
CONTINUOUS
 62
     4
 10
3.499999986
 20
-9.906339945
 11
0.000000000
 21
-9.456339836
  0
LINE
  8
MASS
  6
CONTINUOUS
 62
     4
 10
15.999913580
 20
-11.456340335
 11
15.999913580
 21
1.402938343
  0
LINE
  8
MASS
  6
CONTINUOUS
 62
     4
 10
15.999913580
 20
-9.456340335
 11
12.499913566
 21
-9.906340226
  0
LINE
  8
MASS
  6
CONTINUOUS
 62
     4
 10
12.499913566
 20
-9.906340226
 11
12.499913594
 21
-9.006340226
  0
LINE
  8
MASS
  6
CONTINUOUS
 62
     4
 10
12.499913594
 20
-9.006340226
 11
15.999913580
 21
-9.456340335
  0
LINE
  8
MASS
  6
CONTINUOUS
 62
     4
 10
3.500000000
 20
-9.456339945
 11
12.499913580
 21
-9.456340226
  0
TEXT
  8
MASS
  6
CONTINUOUS
 62
     4
 10
6.772769158
 20
-7.956340047
 40
3.500000000
  1
16
 50
359.999998212
 41
1.000
 51
0.000000000
  7
STANDARD
  0
LINE
  8
MASS
  6
CONTINUOUS
 62
     4
 10
6.000000000
 20
9.477764416
 11
6.000000000
 21
1.300000000
  0
LINE
  8
MASS
  6
CONTINUOUS
 62
     4
 10
6.000000000
 20
7.477764416
 11
2.499999992
 21
7.927764357
  0
LINE
  8
MASS
  6
CONTINUOUS
 62
     4
 10
2.499999992
 20
7.927764357
 11
2.500000008
 21
7.027764357
  0
LINE
  8
MASS
  6
CONTINUOUS
 62
     4
 10
2.500000008
 20
7.027764357
 11
6.000000000
 21
7.477764416
  0
LINE
  8
MASS
  6
CONTINUOUS
 62
     4
 10
2.500000000
 20
7.477764357
 11
-1.500000000
 21
7.477764290
  0
LINE
  8
MASS
  6
CONTINUOUS
 62
     4
 10
15.999913580
 20
9.477764584
 11
15.999913580
 21
1.402938343
  0
LINE
  8
MASS
  6
CONTINUOUS
 62
     4
 10
15.999913580
 20
7.477764584
 11
19.499913588
 21
7.027764643
  0
LINE
  8
MASS
  6
CONTINUOUS
 62
     4
 10
19.499913588
 20
7.027764643
 11
19.499913573
 21
7.927764643
  0
LINE
  8
MASS
  6
CONTINUOUS
 62
     4
 10
19.499913573
 20
7.927764643
 11
15.999913580
 21
7.477764584
  0
LINE
  8
MASS
  6
CONTINUOUS
 62
     4
 10
19.499913580
 20
7.477764643
 11
23.499913580
 21
7.477764710
  0
LINE
  8
MASS
  6
CONTINUOUS
 62
     4
 10
6.000000000
 20
7.477764416
 11
15.999913580
 21
7.477764584
  0
TEXT
  8
MASS
  6
CONTINUOUS
 62
     4
 10
9.718081653
 20
8.977764478
 40
3.500000000
  1
10
 50
0.000000964
 41
1.000
 51
0.000000000
  7
STANDARD
  0
LINE
  8
MASS
  6
CONTINUOUS
 62
     4
 10
-21.498947233
 20
-2.000000337
 11
-13.800000000
 21
-2.000000000
  0
LINE
  8
MASS
  6
CONTINUOUS
 62
     4
 10
-19.498947233
 20
-2.000000249
 11
-19.948947386
 21
1.499999731
  0
LINE
  8
MASS
  6
CONTINUOUS
 62
     4
 10
-19.948947386
 20
1.499999731
 11
-19.048947386
 21
1.499999771
  0
LINE
  8
MASS
  6
CONTINUOUS
 62
     4
 10
-19.048947386
 20
1.499999771
 11
-19.498947233
 21
-2.000000249
  0
LINE
  8
MASS
  6
CONTINUOUS
 62
     4
 10
-19.498947386
 20
1.499999751
 11
-19.498947408
 21
1.999999835
  0
TEXT
  8
MASS
  6
CONTINUOUS
 62
     4
 10
-20.743585812
 20
6.552051444
 40
3.500000000
  1
4
 50
90.000002504
 41
1.000
 51
0.000000000
  7
STANDARD
  0
CIRCLE
  8
MASS
  6
CONTINUOUS
 62
     4
 10
-21.993585713
 20
4.302051389
 40
1.250000000
  0
LINE
  8
MASS
  6
CONTINUOUS
 62
     4
 10
-20.743585659
 20
3.052051444
 11
-23.243585768
 21
5.552051334
  0
LINE
  8
MASS
  6
CONTINUOUS
 62
     4
 10
36.355101592
 20
1.448731148
 11
15.961140009
 21
1.448730256
  0
LINE
  8
MASS
  6
CONTINUOUS
 62
     4
 10
34.355101592
 20
1.448731060
 11
34.805101439
 21
4.948731080
  0
LINE
  8
MASS
  6
CONTINUOUS
 62
     4
 10
34.805101439
 20
4.948731080
 11
33.905101439
 21
4.948731041
  0
LINE
  8
MASS
  6
CONTINUOUS
 62
     4
 10
33.905101439
 20
4.948731041
 11
34.355101592
 21
1.448731060
  0
LINE
  8
MASS
  6
CONTINUOUS
 62
     4
 10
34.355101439
 20
4.948731060
 11
34.355100508
 21
26.266860543
  0
LINE
  8
MASS
  6
CONTINUOUS
 62
     4
 10
34.355101719
 20
-1.448729560
 11
34.355101592
 21
1.448731060
  0
TEXT
  8
MASS
  6
CONTINUOUS
 62
     4
 10
32.930976350
 20
10.725297980
 40
3.500000000
  1
2.9
 50
90.000002504
 41
1.000
 51
0.000000000
  7
STANDARD
  0
CIRCLE
  8
MASS
  6
CONTINUOUS
 62
     4
 10
31.680976448
 20
8.475297926
 40
1.250000000
  0
LINE
  8
MASS
  6
CONTINUOUS
 62
     4
 10
32.930976503
 20
7.225297980
 11
30.430976394
 21
9.725297871
  0
TEXT
  8
MASS
  6
CONTINUOUS
 62
     4
 10
32.930976101
 20
16.429672980
 40
3.500000000
  1
-4.0
 50
90.000002504
 41
1.000
 51
0.000000000
  7
STANDARD
  0
TEXT
  8
MASS
  6
CONTINUOUS
 62
     4
 10
-12.612835623
 20
2.889238203
 40
3.500000000
  1
615.545
 50
0.000000000
 41
1.000
 51
0.000000000
  7
STANDARD
  0
ENDSEC
  0
EOF
