999
NT  : 16.0 - 919
  0
SECTION
  2
HEADER
  9
$ACADVER
  1
AC1006
  9
$INSBASE
 10
0.000000000
 20
0.000000000
  9
$EXTMIN
 10
-38.500564034
 20
-10.526623109
  9
$EXTMAX
 10
41.568561399
 20
24.433558784
  9
$LIMMIN
 10
-38.500564034
 20
-10.526623109
  9
$LIMMAX
 10
41.568561399
 20
24.433558784
  9
$AUNITS
 70
     2
  9
$ANGBASE
 50
0.000
  9
$ANGDIR
 70
     0
  0
ENDSEC
  0
SECTION
  2
TABLES
  0
TABLE
  2
LTYPE
 70
     8
  0
LTYPE
  2
PUNKT
 70
    64
  3
..............
 72
    65
 73
     2
 40
1.500
 49
0.700
 49
-0.800
  0
LTYPE
  2
GESTRICHELT
 70
    64
  3
-- -- -- -- --
 72
    65
 73
     7
 40
2.800
 49
0.900
 49
0.000
 49
0.900
 49
0.000
 49
0.200
 49
0.000
 49
-0.800
  0
LTYPE
  2
STRICHPUNKT
 70
    64
  3
--.--.--.--.--
 72
    65
 73
     4
 40
8.800
 49
5.500
 49
-1.300
 49
0.700
 49
-1.300
  0
LTYPE
  2
STRICHPUNKT
 70
    64
  3
--.--.--.--.--
 72
    65
 73
     4
 40
8.800
 49
5.500
 49
-1.300
 49
0.700
 49
-1.300
  0
LTYPE
  2
STRICHPUNKT
 70
    64
  3
--.--.--.--.--
 72
    65
 73
     4
 40
8.800
 49
5.500
 49
-1.300
 49
0.700
 49
-1.300
  0
LTYPE
  2
PHANTOM
 70
    64
  3
--..--..--..--
 72
    65
 73
     6
 40
14.200
 49
7.000
 49
-1.800
 49
0.900
 49
-1.800
 49
0.900
 49
-1.800
  0
LTYPE
  2
PHANTOM
 70
    64
  3
--..--..--..--
 72
    65
 73
     6
 40
14.200
 49
7.000
 49
-1.800
 49
0.900
 49
-1.800
 49
0.900
 49
-1.800
  0
LTYPE
  2
PHANTOM
 70
    64
  3
--..--..--..--
 72
    65
 73
     6
 40
14.200
 49
7.000
 49
-1.800
 49
0.900
 49
-1.800
 49
0.900
 49
-1.800
  0
ENDTAB
  0
ENDSEC
  0
SECTION
  2
BLOCKS
  0
ENDSEC
  0
SECTION
  2
ENTITIES
  0
LINE
  8
ZAPFEN
  6
CONTINUOUS
 62
     4
 10
-15.800000005
 20
-2.000000000
 11
0.000000000
 21
-2.000000000
  0
LINE
  8
AUFNAHME
  6
CONTINUOUS
 62
     7
 10
0.000000000
 20
-2.000000000
 11
3.500000402
 21
-2.000000000
  0
LINE
  8
ZAPFEN
  6
CONTINUOUS
 62
     4
 10
-16.000000000
 20
-1.799999874
 11
-15.800000005
 21
-2.000000000
  0
ARC
  8
AUFNAHME
  6
CONTINUOUS
 62
     7
 10
8.000000000
 20
-10.229347731
 40
9.379347826
 50
90.000000000
 51
118.670870839
  0
ARC
  8
AUFNAHME
  6
CONTINUOUS
 62
     7
 10
8.000000000
 20
10.229347921
 40
9.379347826
 50
-113.068684787
 51
-90.000000000
  0
LINE
  8
AUFNAHME
  6
CONTINUOUS
 62
     7
 10
8.000000209
 20
-0.849999916
 11
13.007107019
 21
-0.754063155
  0
LINE
  8
AUFNAHME
  6
CONTINUOUS
 62
     7
 10
13.007107019
 20
0.754063346
 11
8.000000209
 21
0.850000106
  0
LINE
  8
ZAPFEN
  6
CONTINUOUS
 62
     4
 10
-15.800000005
 20
1.600000055
 11
-15.800000005
 21
-2.000000000
  0
LINE
  8
AUFNAHME
  6
CONTINUOUS
 62
     7
 10
3.500000402
 20
1.600000055
 11
0.000000000
 21
1.600000055
  0
LINE
  8
ZAPFEN
  6
CONTINUOUS
 62
     4
 10
0.000000000
 20
1.600000055
 11
-16.000000000
 21
1.600000055
  0
LINE
  8
AUFNAHME
  6
CONTINUOUS
 62
     7
 10
3.500000402
 20
-2.000000000
 11
3.500000402
 21
1.600000055
  0
LINE
  8
ZAPFEN
  6
CONTINUOUS
 62
     4
 10
-16.000000000
 20
-1.799999874
 11
-16.000000000
 21
1.600000055
  0
LINE
  8
AUFNAHME
  6
CONTINUOUS
 62
     7
 10
8.000000209
 20
-0.849999916
 11
8.000000209
 21
0.850000106
  0
LINE
  8
AUFNAHME
  6
CONTINUOUS
 62
     7
 10
4.324878395
 20
1.600000055
 11
3.500000402
 21
1.600000055
  0
ARC
  8
AUFNAHME
  6
CONTINUOUS
 62
     7
 10
12.889627901
 20
-2.062645581
 40
2.819157768
 50
87.611695466
 51
94.803550897
  0
ARC
  8
AUFNAHME
  6
CONTINUOUS
 62
     7
 10
12.785470698
 20
0.000000095
 40
0.758174850
 50
100.020076889
 51
-100.020076889
  0
ARC
  8
AUFNAHME
  6
CONTINUOUS
 62
     7
 10
12.871856987
 20
1.219628173
 40
1.978320002
 50
-96.335393413
 51
-86.079852951
  0
LINE
  8
AUFNAHME
  6
CONTINUOUS
 62
     7
 10
13.219176620
 20
-0.749999911
 11
13.007107019
 21
-0.754063155
  0
LINE
  8
AUFNAHME
  6
CONTINUOUS
 62
     7
 10
13.206369072
 20
0.750245505
 11
13.214430600
 21
0.748585481
  0
LINE
  8
AUFNAHME
  6
CONTINUOUS
 62
     7
 10
13.214430600
 20
0.748585481
 11
13.219176620
 21
0.747635532
  0
LINE
  8
AUFNAHME
  6
CONTINUOUS
 62
     7
 10
13.007107019
 20
0.754063346
 11
13.206369072
 21
0.750245505
  0
ARC
  8
AUFNAHME
  6
CONTINUOUS
 62
     7
 10
13.950050271
 20
0.900027642
 40
0.049942832
 50
20.589253398
 51
77.193756492
  0
LINE
  8
AUFNAHME
  6
CONTINUOUS
 62
     7
 10
13.377052560
 20
0.886683913
 11
13.961120337
 21
0.948728157
  0
LINE
  8
AUFNAHME
  6
CONTINUOUS
 62
     7
 10
14.000463128
 20
0.907532326
 11
13.906425625
 21
-0.567754170
  0
ARC
  8
AUFNAHME
  6
CONTINUOUS
 62
     7
 10
13.918156890
 20
-1.495303449
 40
0.763510617
 50
91.559296607
 51
102.537676796
  0
LINE
  8
AUFNAHME
  6
CONTINUOUS
 62
     7
 10
13.752412811
 20
-0.749999911
 11
13.206369072
 21
0.750245505
  0
ARC
  8
AUFNAHME
  6
CONTINUOUS
 62
     7
 10
12.463372908
 20
1.720384108
 40
1.231859994
 50
-52.153598759
 51
-42.639871279
  0
ARC
  8
AUFNAHME
  6
CONTINUOUS
 62
     7
 10
22.125299508
 20
-1.114530779
 40
8.237042022
 50
176.193895293
 51
177.225911418
  0
ARC
  8
AUFNAHME
  6
CONTINUOUS
 62
     7
 10
22.125299508
 20
-1.114530779
 40
8.236799291
 50
177.225911418
 51
177.338657711
  0
LINE
  8
AUFNAHME
  6
CONTINUOUS
 62
     7
 10
13.219176620
 20
-0.749999911
 11
13.752412811
 21
-0.749999911
  0
LINE
  8
AUFNAHME
  6
CONTINUOUS
 62
     7
 10
12.653552756
 20
-0.746610188
 11
12.653552756
 21
0.746610378
  0
LINE
  8
AUFNAHME
  6
CONTINUOUS
 62
     7
 10
13.007107019
 20
0.754063346
 11
13.007107019
 21
-0.754063155
  0
LINE
  8
AUFNAHME
  6
CONTINUOUS
 62
     7
 10
13.906425625
 20
-0.567754170
 11
13.377052560
 21
0.886683913
  0
LINE
  8
ZAPFEN
  6
STRICHPUNKT
 62
     4
 10
-16.639478622
 20
0.000000000
 11
15.337417361
 21
0.000000000
  0
LINE
  8
MASS
  6
CONTINUOUS
 62
     4
 10
-16.000000000
 20
-12.183875721
 11
-16.000000000
 21
-1.799999874
  0
LINE
  8
MASS
  6
CONTINUOUS
 62
     4
 10
-16.000000000
 20
-10.183875721
 11
-12.499999991
 21
-9.733875790
  0
LINE
  8
MASS
  6
CONTINUOUS
 62
     4
 10
-12.499999991
 20
-9.733875790
 11
-12.500000009
 21
-10.633875790
  0
LINE
  8
MASS
  6
CONTINUOUS
 62
     4
 10
-12.500000009
 20
-10.633875790
 11
-16.000000000
 21
-10.183875721
  0
LINE
  8
MASS
  6
CONTINUOUS
 62
     4
 10
0.000000000
 20
-12.183876038
 11
0.000000000
 21
-2.000000000
  0
LINE
  8
MASS
  6
CONTINUOUS
 62
     4
 10
0.000000000
 20
-10.183876038
 11
-3.500000009
 21
-10.633875968
  0
LINE
  8
MASS
  6
CONTINUOUS
 62
     4
 10
-3.500000009
 20
-10.633875968
 11
-3.499999991
 21
-9.733875968
  0
LINE
  8
MASS
  6
CONTINUOUS
 62
     4
 10
-3.499999991
 20
-9.733875968
 11
0.000000000
 21
-10.183876038
  0
LINE
  8
MASS
  6
CONTINUOUS
 62
     4
 10
-12.500000000
 20
-10.183875790
 11
-3.500000000
 21
-10.183875968
  0
TEXT
  8
MASS
  6
CONTINUOUS
 62
     4
 10
-9.227187649
 20
-8.683875855
 40
3.500000000
  1
16
 50
359.999998866
 41
1.000
 51
0.000000000
  7
STANDARD
  0
LINE
  8
MASS
  6
CONTINUOUS
 62
     4
 10
0.000000000
 20
-12.183876038
 11
0.000000000
 21
-2.000000000
  0
LINE
  8
MASS
  6
CONTINUOUS
 62
     4
 10
0.000000000
 20
-10.183876038
 11
3.500000008
 21
-9.733876101
  0
LINE
  8
MASS
  6
CONTINUOUS
 62
     4
 10
3.500000008
 20
-9.733876101
 11
3.499999992
 21
-10.633876101
  0
LINE
  8
MASS
  6
CONTINUOUS
 62
     4
 10
3.499999992
 20
-10.633876101
 11
0.000000000
 21
-10.183876038
  0
LINE
  8
MASS
  6
CONTINUOUS
 62
     4
 10
13.996803030
 20
-12.183876290
 11
13.996803030
 21
0.917590842
  0
LINE
  8
MASS
  6
CONTINUOUS
 62
     4
 10
13.996803030
 20
-10.183876290
 11
10.496803022
 21
-10.633876227
  0
LINE
  8
MASS
  6
CONTINUOUS
 62
     4
 10
10.496803022
 20
-10.633876227
 11
10.496803038
 21
-9.733876227
  0
LINE
  8
MASS
  6
CONTINUOUS
 62
     4
 10
10.496803038
 20
-9.733876227
 11
13.996803030
 21
-10.183876290
  0
LINE
  8
MASS
  6
CONTINUOUS
 62
     4
 10
3.500000000
 20
-10.183876101
 11
10.496803030
 21
-10.183876227
  0
TEXT
  8
MASS
  6
CONTINUOUS
 62
     4
 10
5.716526386
 20
-8.683876141
 40
3.500000000
  1
14
 50
359.999998965
 41
1.000
 51
0.000000000
  7
STANDARD
  0
LINE
  8
MASS
  6
CONTINUOUS
 62
     4
 10
-23.026044220
 20
-2.000000316
 11
-15.800000005
 21
-2.000000000
  0
LINE
  8
MASS
  6
CONTINUOUS
 62
     4
 10
-21.026044220
 20
-2.000000228
 11
-21.476044373
 21
1.499999752
  0
LINE
  8
MASS
  6
CONTINUOUS
 62
     4
 10
-21.476044373
 20
1.499999752
 11
-20.576044373
 21
1.499999791
  0
LINE
  8
MASS
  6
CONTINUOUS
 62
     4
 10
-20.576044373
 20
1.499999791
 11
-21.026044220
 21
-2.000000228
  0
LINE
  8
MASS
  6
CONTINUOUS
 62
     4
 10
-21.026044373
 20
1.499999772
 11
-21.026044395
 21
1.999999845
  0
TEXT
  8
MASS
  6
CONTINUOUS
 62
     4
 10
-21.903118632
 20
5.990965024
 40
3.500000000
  1
4
 50
90.000002504
 41
1.000
 51
0.000000000
  7
STANDARD
  0
CIRCLE
  8
MASS
  6
CONTINUOUS
 62
     4
 10
-23.153118533
 20
3.740964969
 40
1.250000000
  0
LINE
  8
MASS
  6
CONTINUOUS
 62
     4
 10
-21.903118479
 20
2.490965024
 11
-24.403118588
 21
4.990964915
  0
LINE
  8
MASS
  6
CONTINUOUS
 62
     4
 10
8.000000000
 20
9.660472583
 11
8.000000000
 21
0.850000095
  0
LINE
  8
MASS
  6
CONTINUOUS
 62
     4
 10
8.000000000
 20
7.660472583
 11
4.499999997
 21
8.110472564
  0
LINE
  8
MASS
  6
CONTINUOUS
 62
     4
 10
4.499999997
 20
8.110472564
 11
4.500000003
 21
7.210472564
  0
LINE
  8
MASS
  6
CONTINUOUS
 62
     4
 10
4.500000003
 20
7.210472564
 11
8.000000000
 21
7.660472583
  0
LINE
  8
MASS
  6
CONTINUOUS
 62
     4
 10
4.500000000
 20
7.660472564
 11
0.500000000
 21
7.660472541
  0
LINE
  8
MASS
  6
CONTINUOUS
 62
     4
 10
13.996803030
 20
9.660472617
 11
13.996803030
 21
0.917590842
  0
LINE
  8
MASS
  6
CONTINUOUS
 62
     4
 10
13.996803030
 20
7.660472617
 11
17.496803033
 21
7.210472637
  0
LINE
  8
MASS
  6
CONTINUOUS
 62
     4
 10
17.496803033
 20
7.210472637
 11
17.496803028
 21
8.110472637
  0
LINE
  8
MASS
  6
CONTINUOUS
 62
     4
 10
17.496803028
 20
8.110472637
 11
13.996803030
 21
7.660472617
  0
LINE
  8
MASS
  6
CONTINUOUS
 62
     4
 10
17.496803030
 20
7.660472637
 11
21.496803030
 21
7.660472659
  0
LINE
  8
MASS
  6
CONTINUOUS
 62
     4
 10
8.000000000
 20
7.660472583
 11
13.996803030
 21
7.660472617
  0
TEXT
  8
MASS
  6
CONTINUOUS
 62
     4
 10
10.509495190
 20
9.160472597
 40
3.500000000
  1
6
 50
0.000000321
 41
1.000
 51
0.000000000
  7
STANDARD
  0
LINE
  8
MASS
  6
CONTINUOUS
 62
     4
 10
30.471115783
 20
0.948728879
 11
13.961120337
 21
0.948728157
  0
LINE
  8
MASS
  6
CONTINUOUS
 62
     4
 10
28.471115783
 20
0.948728791
 11
28.921115630
 21
4.448728811
  0
LINE
  8
MASS
  6
CONTINUOUS
 62
     4
 10
28.921115630
 20
4.448728811
 11
28.021115630
 21
4.448728772
  0
LINE
  8
MASS
  6
CONTINUOUS
 62
     4
 10
28.021115630
 20
4.448728772
 11
28.471115783
 21
0.948728791
  0
LINE
  8
MASS
  6
CONTINUOUS
 62
     4
 10
28.471115630
 20
4.448728791
 11
28.471114771
 21
24.090811902
  0
LINE
  8
MASS
  6
CONTINUOUS
 62
     4
 10
28.471115866
 20
-0.948727643
 11
28.471115783
 21
0.948728791
  0
TEXT
  8
MASS
  6
CONTINUOUS
 62
     4
 10
26.715473106
 20
9.697686825
 40
3.500000000
  1
1.9
 50
90.000002504
 41
1.000
 51
0.000000000
  7
STANDARD
  0
CIRCLE
  8
MASS
  6
CONTINUOUS
 62
     4
 10
25.465473204
 20
7.447686771
 40
1.250000000
  0
LINE
  8
MASS
  6
CONTINUOUS
 62
     4
 10
26.715473259
 20
6.197686825
 11
24.215473149
 21
8.697686716
  0
TEXT
  8
MASS
  6
CONTINUOUS
 62
     4
 10
26.715472890
 20
14.636436825
 40
3.500000000
  1
-3.0
 50
90.000002504
 41
1.000
 51
0.000000000
  7
STANDARD
  0
TEXT
  8
MASS
  6
CONTINUOUS
 62
     4
 10
-14.092377778
 20
3.023895861
 40
3.500000000
  1
615.544
 50
0.000000000
 41
1.000
 51
0.000000000
  7
STANDARD
  0
ENDSEC
  0
EOF
