999
NT  : 16.0 - 919
  0
SECTION
  2
HEADER
  9
$ACADVER
  1
AC1006
  9
$INSBASE
 10
0.000000000
 20
0.000000000
  9
$EXTMIN
 10
-42.527986372
 20
-10.014062672
  9
$EXTMAX
 10
38.677479470
 20
25.442273851
  9
$LIMMIN
 10
-42.527986372
 20
-10.014062672
  9
$LIMMAX
 10
38.677479470
 20
25.442273851
  9
$AUNITS
 70
     2
  9
$ANGBASE
 50
0.000
  9
$ANGDIR
 70
     0
  0
ENDSEC
  0
SECTION
  2
TABLES
  0
TABLE
  2
LTYPE
 70
     8
  0
LTYPE
  2
PUNKT
 70
    64
  3
..............
 72
    65
 73
     2
 40
1.500
 49
0.700
 49
-0.800
  0
LTYPE
  2
GESTRICHELT
 70
    64
  3
-- -- -- -- --
 72
    65
 73
     7
 40
2.800
 49
0.900
 49
0.000
 49
0.900
 49
0.000
 49
0.200
 49
0.000
 49
-0.800
  0
LTYPE
  2
STRICHPUNKT
 70
    64
  3
--.--.--.--.--
 72
    65
 73
     4
 40
8.800
 49
5.500
 49
-1.300
 49
0.700
 49
-1.300
  0
LTYPE
  2
STRICHPUNKT
 70
    64
  3
--.--.--.--.--
 72
    65
 73
     4
 40
8.800
 49
5.500
 49
-1.300
 49
0.700
 49
-1.300
  0
LTYPE
  2
STRICHPUNKT
 70
    64
  3
--.--.--.--.--
 72
    65
 73
     4
 40
8.800
 49
5.500
 49
-1.300
 49
0.700
 49
-1.300
  0
LTYPE
  2
PHANTOM
 70
    64
  3
--..--..--..--
 72
    65
 73
     6
 40
14.200
 49
7.000
 49
-1.800
 49
0.900
 49
-1.800
 49
0.900
 49
-1.800
  0
LTYPE
  2
PHANTOM
 70
    64
  3
--..--..--..--
 72
    65
 73
     6
 40
14.200
 49
7.000
 49
-1.800
 49
0.900
 49
-1.800
 49
0.900
 49
-1.800
  0
LTYPE
  2
PHANTOM
 70
    64
  3
--..--..--..--
 72
    65
 73
     6
 40
14.200
 49
7.000
 49
-1.800
 49
0.900
 49
-1.800
 49
0.900
 49
-1.800
  0
ENDTAB
  0
ENDSEC
  0
SECTION
  2
BLOCKS
  0
ENDSEC
  0
SECTION
  2
ENTITIES
  0
LINE
  8
ZAPFEN
  6
CONTINUOUS
 62
     4
 10
-20.000000000
 20
-1.800000000
 11
-19.800000000
 21
-2.000000000
  0
ARC
  8
AUFNAHME
  6
CONTINUOUS
 62
     7
 10
5.000000000
 20
-7.014285714
 40
6.414285714
 50
90.000000000
 51
128.580092438
  0
ARC
  8
AUFNAHME
  6
CONTINUOUS
 62
     7
 10
5.000000000
 20
7.014285714
 40
6.414285714
 50
-122.424901995
 51
-90.000000000
  0
LINE
  8
ZAPFEN
  6
CONTINUOUS
 62
     4
 10
-19.800000000
 20
-2.000000000
 11
0.000000000
 21
-2.000000000
  0
LINE
  8
AUFNAHME
  6
CONTINUOUS
 62
     7
 10
0.000000000
 20
-2.000000000
 11
1.000000000
 21
-2.000000000
  0
LINE
  8
AUFNAHME
  6
CONTINUOUS
 62
     7
 10
5.000000000
 20
-0.600000000
 11
9.007106781
 21
-0.530763673
  0
LINE
  8
AUFNAHME
  6
CONTINUOUS
 62
     7
 10
9.007106781
 20
0.530763673
 11
5.000000000
 21
0.600000000
  0
LINE
  8
ZAPFEN
  6
CONTINUOUS
 62
     4
 10
-20.000000000
 20
-1.800000000
 11
-20.000000000
 21
1.600000000
  0
LINE
  8
ZAPFEN
  6
CONTINUOUS
 62
     4
 10
-19.800000000
 20
1.600000000
 11
-19.800000000
 21
-2.000000000
  0
LINE
  8
AUFNAHME
  6
CONTINUOUS
 62
     7
 10
1.560730975
 20
1.600000000
 11
1.000000000
 21
1.600000000
  0
LINE
  8
AUFNAHME
  6
CONTINUOUS
 62
     7
 10
1.000000000
 20
-2.000000000
 11
1.000000000
 21
1.600000000
  0
LINE
  8
AUFNAHME
  6
CONTINUOUS
 62
     7
 10
1.000000000
 20
1.600000000
 11
0.000000000
 21
1.600000000
  0
LINE
  8
ZAPFEN
  6
CONTINUOUS
 62
     4
 10
0.000000000
 20
1.600000000
 11
-20.000000000
 21
1.600000000
  0
ARC
  8
AUFNAHME
  6
CONTINUOUS
 62
     7
 10
8.907345501
 20
-1.387056492
 40
1.920413106
 50
87.022268698
 51
97.594136819
  0
ARC
  8
AUFNAHME
  6
CONTINUOUS
 62
     7
 10
8.790764674
 20
0.000000000
 40
0.534427182
 50
104.876984513
 51
-104.876984513
  0
ARC
  8
AUFNAHME
  6
CONTINUOUS
 62
     7
 10
8.885899139
 20
0.854988321
 40
1.391042732
 50
-99.615176683
 51
-85.001228834
  0
LINE
  8
AUFNAHME
  6
CONTINUOUS
 62
     7
 10
9.340683869
 20
-0.525000000
 11
9.007106781
 21
-0.530763673
  0
ARC
  8
AUFNAHME
  6
CONTINUOUS
 62
     7
 10
9.519504088
 20
1.384229801
 40
0.885331707
 50
-104.118679537
 51
-101.652828800
  0
LINE
  8
AUFNAHME
  6
CONTINUOUS
 62
     7
 10
9.007106781
 20
0.530763673
 11
9.303544066
 21
0.525641716
  0
LINE
  8
AUFNAHME
  6
CONTINUOUS
 62
     7
 10
9.459034401
 20
0.628150915
 11
9.462158144
 21
0.631591476
  0
LINE
  8
AUFNAHME
  6
CONTINUOUS
 62
     7
 10
9.462158144
 20
0.631591476
 11
9.962819916
 21
0.698304954
  0
ARC
  8
AUFNAHME
  6
CONTINUOUS
 62
     7
 10
9.950072376
 20
0.650042691
 40
0.049917390
 50
19.982367061
 51
75.204327788
  0
ARC
  8
AUFNAHME
  6
CONTINUOUS
 62
     7
 10
10.408248625
 20
6.903204740
 40
7.428849307
 50
-94.140046035
 51
-93.721677012
  0
LINE
  8
AUFNAHME
  6
CONTINUOUS
 62
     7
 10
10.000463481
 20
0.657534440
 11
9.926059387
 21
-0.509728155
  0
ARC
  8
AUFNAHME
  6
CONTINUOUS
 62
     7
 10
8.792451444
 20
1.220246082
 40
0.891576988
 50
-52.055204081
 51
-41.613221348
  0
ARC
  8
AUFNAHME
  6
CONTINUOUS
 62
     7
 10
9.831935367
 20
-1.041590011
 40
0.536822154
 50
85.727784055
 51
105.780359039
  0
LINE
  8
AUFNAHME
  6
CONTINUOUS
 62
     7
 10
9.685946377
 20
-0.525000000
 11
9.303544066
 21
0.525641716
  0
LINE
  8
AUFNAHME
  6
CONTINUOUS
 62
     7
 10
9.340683869
 20
-0.525000000
 11
9.685946377
 21
-0.525000000
  0
LINE
  8
AUFNAHME
  6
CONTINUOUS
 62
     7
 10
5.000000000
 20
-0.600000000
 11
5.000000000
 21
0.600000000
  0
LINE
  8
AUFNAHME
  6
CONTINUOUS
 62
     7
 10
8.653553391
 20
-0.516512803
 11
8.653553391
 21
0.516512803
  0
LINE
  8
AUFNAHME
  6
CONTINUOUS
 62
     7
 10
9.007106781
 20
0.530763673
 11
9.007106781
 21
-0.530763673
  0
LINE
  8
AUFNAHME
  6
CONTINUOUS
 62
     7
 10
9.871926020
 20
-0.506259484
 11
9.459034401
 21
0.628150915
  0
LINE
  8
ZAPFEN
  6
STRICHPUNKT
 62
     4
 10
-20.873763499
 20
0.000000000
 11
10.986588090
 21
0.000000000
  0
LINE
  8
MASS
  6
CONTINUOUS
 62
     4
 10
-20.000000000
 20
-11.666451263
 11
-20.000000000
 21
-1.800000000
  0
LINE
  8
MASS
  6
CONTINUOUS
 62
     4
 10
-20.000000000
 20
-9.666451263
 11
-16.499999996
 21
-9.216451297
  0
LINE
  8
MASS
  6
CONTINUOUS
 62
     4
 10
-16.499999996
 20
-9.216451297
 11
-16.500000004
 21
-10.116451297
  0
LINE
  8
MASS
  6
CONTINUOUS
 62
     4
 10
-16.500000004
 20
-10.116451297
 11
-20.000000000
 21
-9.666451263
  0
LINE
  8
MASS
  6
CONTINUOUS
 62
     4
 10
0.000000000
 20
-11.666451454
 11
0.000000000
 21
-2.000000000
  0
LINE
  8
MASS
  6
CONTINUOUS
 62
     4
 10
0.000000000
 20
-9.666451454
 11
-3.500000004
 21
-10.116451421
  0
LINE
  8
MASS
  6
CONTINUOUS
 62
     4
 10
-3.500000004
 20
-10.116451421
 11
-3.499999996
 21
-9.216451421
  0
LINE
  8
MASS
  6
CONTINUOUS
 62
     4
 10
-3.499999996
 20
-9.216451421
 11
0.000000000
 21
-9.666451454
  0
LINE
  8
MASS
  6
CONTINUOUS
 62
     4
 10
-16.500000000
 20
-9.666451297
 11
-3.500000000
 21
-9.666451421
  0
TEXT
  8
MASS
  6
CONTINUOUS
 62
     4
 10
-11.664687709
 20
-8.166451343
 40
3.500000000
  1
20
 50
359.999999454
 41
1.000
 51
0.000000000
  7
STANDARD
  0
LINE
  8
MASS
  6
CONTINUOUS
 62
     4
 10
0.000000000
 20
-11.666451454
 11
0.000000000
 21
-2.000000000
  0
LINE
  8
MASS
  6
CONTINUOUS
 62
     4
 10
0.000000000
 20
-9.666451454
 11
-3.500000005
 21
-9.216451489
  0
LINE
  8
MASS
  6
CONTINUOUS
 62
     4
 10
-3.500000005
 20
-9.216451489
 11
-3.499999995
 21
-10.116451489
  0
LINE
  8
MASS
  6
CONTINUOUS
 62
     4
 10
-3.499999995
 20
-10.116451489
 11
0.000000000
 21
-9.666451454
  0
LINE
  8
MASS
  6
CONTINUOUS
 62
     4
 10
-3.500000000
 20
-9.666451489
 11
-7.500000000
 21
-9.666451530
  0
LINE
  8
MASS
  6
CONTINUOUS
 62
     4
 10
9.996984631
 20
-11.666451353
 11
9.996984631
 21
0.667101007
  0
LINE
  8
MASS
  6
CONTINUOUS
 62
     4
 10
9.996984631
 20
-9.666451353
 11
13.496984636
 21
-10.116451318
  0
LINE
  8
MASS
  6
CONTINUOUS
 62
     4
 10
13.496984636
 20
-10.116451318
 11
13.496984627
 21
-9.216451318
  0
LINE
  8
MASS
  6
CONTINUOUS
 62
     4
 10
13.496984627
 20
-9.216451318
 11
9.996984631
 21
-9.666451353
  0
LINE
  8
MASS
  6
CONTINUOUS
 62
     4
 10
13.496984631
 20
-9.666451318
 11
17.496984631
 21
-9.666451278
  0
LINE
  8
MASS
  6
CONTINUOUS
 62
     4
 10
0.000000000
 20
-9.666451454
 11
9.996984631
 21
-9.666451353
  0
TEXT
  8
MASS
  6
CONTINUOUS
 62
     4
 10
3.716617189
 20
-8.166451417
 40
3.500000000
  1
10
 50
0.000000578
 41
1.000
 51
0.000000000
  7
STANDARD
  0
LINE
  8
MASS
  6
CONTINUOUS
 62
     4
 10
-28.694091170
 20
-2.000000389
 11
-19.800000000
 21
-2.000000000
  0
LINE
  8
MASS
  6
CONTINUOUS
 62
     4
 10
-26.694091170
 20
-2.000000301
 11
-27.144091323
 21
1.499999679
  0
LINE
  8
MASS
  6
CONTINUOUS
 62
     4
 10
-27.144091323
 20
1.499999679
 11
-26.244091323
 21
1.499999718
  0
LINE
  8
MASS
  6
CONTINUOUS
 62
     4
 10
-26.244091323
 20
1.499999718
 11
-26.694091170
 21
-2.000000301
  0
LINE
  8
MASS
  6
CONTINUOUS
 62
     4
 10
-26.694091323
 20
1.499999699
 11
-26.694091345
 21
1.999999793
  0
TEXT
  8
MASS
  6
CONTINUOUS
 62
     4
 10
-27.514947785
 20
7.182033772
 40
3.500000000
  1
4
 50
90.000002504
 41
1.000
 51
0.000000000
  7
STANDARD
  0
CIRCLE
  8
MASS
  6
CONTINUOUS
 62
     4
 10
-28.764947687
 20
4.932033718
 40
1.250000000
  0
LINE
  8
MASS
  6
CONTINUOUS
 62
     4
 10
-27.514947632
 20
3.682033772
 11
-30.014947741
 21
6.182033663
  0
LINE
  8
MASS
  6
CONTINUOUS
 62
     4
 10
5.000000000
 20
11.579310989
 11
5.000000000
 21
0.600000000
  0
LINE
  8
MASS
  6
CONTINUOUS
 62
     4
 10
5.000000000
 20
9.579310989
 11
1.499999957
 21
10.029310652
  0
LINE
  8
MASS
  6
CONTINUOUS
 62
     4
 10
1.499999957
 20
10.029310652
 11
1.500000043
 21
9.129310652
  0
LINE
  8
MASS
  6
CONTINUOUS
 62
     4
 10
1.500000043
 20
9.129310652
 11
5.000000000
 21
9.579310989
  0
LINE
  8
MASS
  6
CONTINUOUS
 62
     4
 10
1.500000000
 20
9.579310652
 11
-2.500000000
 21
9.579310266
  0
LINE
  8
MASS
  6
CONTINUOUS
 62
     4
 10
9.996984631
 20
11.579311472
 11
9.996984631
 21
0.667101007
  0
LINE
  8
MASS
  6
CONTINUOUS
 62
     4
 10
9.996984631
 20
9.579311472
 11
13.496984674
 21
9.129311809
  0
LINE
  8
MASS
  6
CONTINUOUS
 62
     4
 10
13.496984674
 20
9.129311809
 11
13.496984588
 21
10.029311809
  0
LINE
  8
MASS
  6
CONTINUOUS
 62
     4
 10
13.496984588
 20
10.029311809
 11
9.996984631
 21
9.579311472
  0
LINE
  8
MASS
  6
CONTINUOUS
 62
     4
 10
13.496984631
 20
9.579311809
 11
17.496984631
 21
9.579312195
  0
LINE
  8
MASS
  6
CONTINUOUS
 62
     4
 10
5.000000000
 20
9.579310989
 11
9.996984631
 21
9.579311472
  0
TEXT
  8
MASS
  6
CONTINUOUS
 62
     4
 10
7.064273365
 20
11.079311189
 40
3.500000000
  1
5
 50
0.000005530
 41
1.000
 51
0.000000000
  7
STANDARD
  0
LINE
  8
MASS
  6
CONTINUOUS
 62
     4
 10
29.164440690
 20
0.698305794
 11
9.962819916
 21
0.698304954
  0
LINE
  8
MASS
  6
CONTINUOUS
 62
     4
 10
27.164440690
 20
0.698305706
 11
27.614440537
 21
4.198305726
  0
LINE
  8
MASS
  6
CONTINUOUS
 62
     4
 10
27.614440537
 20
4.198305726
 11
26.714440537
 21
4.198305686
  0
LINE
  8
MASS
  6
CONTINUOUS
 62
     4
 10
26.714440537
 20
4.198305686
 11
27.164440690
 21
0.698305706
  0
LINE
  8
MASS
  6
CONTINUOUS
 62
     4
 10
27.164440537
 20
4.198305706
 11
27.164439624
 21
25.094662708
  0
LINE
  8
MASS
  6
CONTINUOUS
 62
     4
 10
27.164440751
 20
-0.698304292
 11
27.164440690
 21
0.698305706
  0
TEXT
  8
MASS
  6
CONTINUOUS
 62
     4
 10
25.680782438
 20
10.209350144
 40
3.500000000
  1
1.4
 50
90.000002504
 41
1.000
 51
0.000000000
  7
STANDARD
  0
CIRCLE
  8
MASS
  6
CONTINUOUS
 62
     4
 10
24.430782536
 20
7.959350089
 40
1.250000000
  0
LINE
  8
MASS
  6
CONTINUOUS
 62
     4
 10
25.680782591
 20
6.709350144
 11
23.180782481
 21
9.209350034
  0
TEXT
  8
MASS
  6
CONTINUOUS
 62
     4
 10
25.680782217
 20
15.257475144
 40
3.500000000
  1
-2.0
 50
90.000002504
 41
1.000
 51
0.000000000
  7
STANDARD
  0
TEXT
  8
MASS
  6
CONTINUOUS
 62
     4
 10
-17.606774550
 20
3.453342131
 40
3.500000000
  1
615.543
 50
0.000000000
 41
1.000
 51
0.000000000
  7
STANDARD
  0
ENDSEC
  0
EOF
