999
NT  : 16.0 - 919
  0
SECTION
  2
HEADER
  9
$ACADVER
  1
AC1006
  9
$INSBASE
 10
0.000000000
 20
0.000000000
  9
$EXTMIN
 10
-42.290754037
 20
-10.491610443
  9
$EXTMAX
 10
36.578612303
 20
23.944726635
  9
$LIMMIN
 10
-42.290754037
 20
-10.491610443
  9
$LIMMAX
 10
36.578612303
 20
23.944726635
  9
$AUNITS
 70
     2
  9
$ANGBASE
 50
0.000
  9
$ANGDIR
 70
     0
  0
ENDSEC
  0
SECTION
  2
TABLES
  0
TABLE
  2
LTYPE
 70
     8
  0
LTYPE
  2
PUNKT
 70
    64
  3
..............
 72
    65
 73
     2
 40
1.500
 49
0.700
 49
-0.800
  0
LTYPE
  2
GESTRICHELT
 70
    64
  3
-- -- -- -- --
 72
    65
 73
     7
 40
2.800
 49
0.900
 49
0.000
 49
0.900
 49
0.000
 49
0.200
 49
0.000
 49
-0.800
  0
LTYPE
  2
STRICHPUNKT
 70
    64
  3
--.--.--.--.--
 72
    65
 73
     4
 40
8.800
 49
5.500
 49
-1.300
 49
0.700
 49
-1.300
  0
LTYPE
  2
STRICHPUNKT
 70
    64
  3
--.--.--.--.--
 72
    65
 73
     4
 40
8.800
 49
5.500
 49
-1.300
 49
0.700
 49
-1.300
  0
LTYPE
  2
STRICHPUNKT
 70
    64
  3
--.--.--.--.--
 72
    65
 73
     4
 40
8.800
 49
5.500
 49
-1.300
 49
0.700
 49
-1.300
  0
LTYPE
  2
PHANTOM
 70
    64
  3
--..--..--..--
 72
    65
 73
     6
 40
14.200
 49
7.000
 49
-1.800
 49
0.900
 49
-1.800
 49
0.900
 49
-1.800
  0
LTYPE
  2
PHANTOM
 70
    64
  3
--..--..--..--
 72
    65
 73
     6
 40
14.200
 49
7.000
 49
-1.800
 49
0.900
 49
-1.800
 49
0.900
 49
-1.800
  0
LTYPE
  2
PHANTOM
 70
    64
  3
--..--..--..--
 72
    65
 73
     6
 40
14.200
 49
7.000
 49
-1.800
 49
0.900
 49
-1.800
 49
0.900
 49
-1.800
  0
ENDTAB
  0
ENDSEC
  0
SECTION
  2
BLOCKS
  0
ENDSEC
  0
SECTION
  2
ENTITIES
  0
LINE
  8
ZAPFEN
  6
CONTINUOUS
 62
     4
 10
-20.000000000
 20
-1.800000000
 11
-19.800000000
 21
-2.000000000
  0
ARC
  8
AUFNAHME
  6
CONTINUOUS
 62
     7
 10
7.000000000
 20
-8.750757576
 40
8.400757576
 50
90.000000000
 51
126.525779884
  0
ARC
  8
AUFNAHME
  6
CONTINUOUS
 62
     7
 10
7.000000000
 20
8.750757576
 40
8.400757576
 50
-121.656479486
 51
-90.000000000
  0
LINE
  8
ZAPFEN
  6
CONTINUOUS
 62
     4
 10
-19.800000000
 20
-2.000000000
 11
0.000000000
 21
-2.000000000
  0
LINE
  8
AUFNAHME
  6
CONTINUOUS
 62
     7
 10
0.000000000
 20
-2.000000000
 11
2.000000000
 21
-2.000000000
  0
LINE
  8
AUFNAHME
  6
CONTINUOUS
 62
     7
 10
7.000000000
 20
-0.350000000
 11
9.207106781
 21
-0.305180039
  0
LINE
  8
AUFNAHME
  6
CONTINUOUS
 62
     7
 10
9.207106781
 20
0.305180039
 11
7.000000000
 21
0.350000000
  0
LINE
  8
ZAPFEN
  6
CONTINUOUS
 62
     4
 10
-20.000000000
 20
-1.800000000
 11
-20.000000000
 21
1.600000000
  0
LINE
  8
ZAPFEN
  6
CONTINUOUS
 62
     4
 10
-19.800000000
 20
1.600000000
 11
-19.800000000
 21
-2.000000000
  0
LINE
  8
AUFNAHME
  6
CONTINUOUS
 62
     7
 10
7.000000000
 20
-0.350000000
 11
7.000000000
 21
0.350000000
  0
LINE
  8
AUFNAHME
  6
CONTINUOUS
 62
     7
 10
2.590987192
 20
1.600000000
 11
2.000000000
 21
1.600000000
  0
LINE
  8
AUFNAHME
  6
CONTINUOUS
 62
     7
 10
2.000000000
 20
-2.000000000
 11
2.000000000
 21
1.600000000
  0
LINE
  8
AUFNAHME
  6
CONTINUOUS
 62
     7
 10
2.000000000
 20
1.600000000
 11
0.000000000
 21
1.600000000
  0
LINE
  8
ZAPFEN
  6
CONTINUOUS
 62
     4
 10
0.000000000
 20
1.600000000
 11
-20.000000000
 21
1.600000000
  0
ARC
  8
AUFNAHME
  6
CONTINUOUS
 62
     7
 10
9.108885364
 20
-0.658073431
 40
0.968248261
 50
84.177764255
 51
105.290021889
  0
ARC
  8
AUFNAHME
  6
CONTINUOUS
 62
     7
 10
8.993714677
 20
0.000000000
 40
0.309462681
 50
116.931068585
 51
-116.931068585
  0
ARC
  8
AUFNAHME
  6
CONTINUOUS
 62
     7
 10
9.097064713
 20
0.515330125
 40
0.827856380
 50
-107.106384116
 51
-82.361402028
  0
LINE
  8
AUFNAHME
  6
CONTINUOUS
 62
     7
 10
9.462191792
 20
-0.300000000
 11
9.207106781
 21
-0.305180039
  0
ARC
  8
AUFNAHME
  6
CONTINUOUS
 62
     7
 10
9.607077978
 20
0.876266308
 40
0.610950070
 50
-109.748656270
 51
-103.718331703
  0
LINE
  8
AUFNAHME
  6
CONTINUOUS
 62
     7
 10
9.207106781
 20
0.305180039
 11
9.400641221
 21
0.301249914
  0
LINE
  8
AUFNAHME
  6
CONTINUOUS
 62
     7
 10
9.543652394
 20
0.362371703
 11
9.573187101
 21
0.396386150
  0
LINE
  8
AUFNAHME
  6
CONTINUOUS
 62
     7
 10
9.573187101
 20
0.396386150
 11
9.962786570
 21
0.448300511
  0
ARC
  8
AUFNAHME
  6
CONTINUOUS
 62
     7
 10
9.950113457
 20
0.400067241
 40
0.049870393
 50
19.971988837
 51
75.278494833
  0
ARC
  8
AUFNAHME
  6
CONTINUOUS
 62
     7
 10
10.245057989
 20
3.944688423
 40
4.246023724
 50
-96.345757607
 51
-93.904888311
  0
LINE
  8
AUFNAHME
  6
CONTINUOUS
 62
     7
 10
10.000463481
 20
0.407534440
 11
9.955973522
 21
-0.290430722
  0
ARC
  8
AUFNAHME
  6
CONTINUOUS
 62
     7
 10
9.122174703
 20
0.712072822
 40
0.547662593
 50
-51.621664987
 51
-39.682581070
  0
ARC
  8
AUFNAHME
  6
CONTINUOUS
 62
     7
 10
9.742317662
 20
-0.570713744
 40
0.297280073
 50
83.542199979
 51
114.406699296
  0
LINE
  8
AUFNAHME
  6
CONTINUOUS
 62
     7
 10
9.619478293
 20
-0.300000000
 11
9.400641221
 21
0.301249914
  0
LINE
  8
AUFNAHME
  6
CONTINUOUS
 62
     7
 10
9.462191792
 20
-0.300000000
 11
9.619478293
 21
-0.300000000
  0
LINE
  8
AUFNAHME
  6
CONTINUOUS
 62
     7
 10
8.853553391
 20
-0.275902093
 11
8.853553391
 21
0.275902093
  0
LINE
  8
AUFNAHME
  6
CONTINUOUS
 62
     7
 10
9.207106781
 20
0.305180039
 11
9.207106781
 21
-0.305180039
  0
LINE
  8
AUFNAHME
  6
CONTINUOUS
 62
     7
 10
9.775753165
 20
-0.275319924
 11
9.543652394
 21
0.362371703
  0
LINE
  8
ZAPFEN
  6
STRICHPUNKT
 62
     4
 10
-20.696854516
 20
0.000000000
 11
10.488732743
 21
0.000000000
  0
LINE
  8
MASS
  6
CONTINUOUS
 62
     4
 10
-20.000000000
 20
-12.153999138
 11
-20.000000000
 21
-1.800000000
  0
LINE
  8
MASS
  6
CONTINUOUS
 62
     4
 10
-20.000000000
 20
-10.153999138
 11
-16.499999996
 21
-9.703999171
  0
LINE
  8
MASS
  6
CONTINUOUS
 62
     4
 10
-16.499999996
 20
-9.703999171
 11
-16.500000004
 21
-10.603999171
  0
LINE
  8
MASS
  6
CONTINUOUS
 62
     4
 10
-16.500000004
 20
-10.603999171
 11
-20.000000000
 21
-10.153999138
  0
LINE
  8
MASS
  6
CONTINUOUS
 62
     4
 10
0.000000000
 20
-12.153999329
 11
0.000000000
 21
-2.000000000
  0
LINE
  8
MASS
  6
CONTINUOUS
 62
     4
 10
0.000000000
 20
-10.153999329
 11
-3.500000004
 21
-10.603999295
  0
LINE
  8
MASS
  6
CONTINUOUS
 62
     4
 10
-3.500000004
 20
-10.603999295
 11
-3.499999996
 21
-9.703999295
  0
LINE
  8
MASS
  6
CONTINUOUS
 62
     4
 10
-3.499999996
 20
-9.703999295
 11
0.000000000
 21
-10.153999329
  0
LINE
  8
MASS
  6
CONTINUOUS
 62
     4
 10
-16.500000000
 20
-10.153999171
 11
-3.500000000
 21
-10.153999295
  0
TEXT
  8
MASS
  6
CONTINUOUS
 62
     4
 10
-11.664687709
 20
-8.653999217
 40
3.500000000
  1
20
 50
359.999999454
 41
1.000
 51
0.000000000
  7
STANDARD
  0
LINE
  8
MASS
  6
CONTINUOUS
 62
     4
 10
0.000000000
 20
-12.126506805
 11
0.000000000
 21
-2.000000000
  0
LINE
  8
MASS
  6
CONTINUOUS
 62
     4
 10
0.000000000
 20
-10.126506805
 11
-3.500000005
 21
-9.676506841
  0
LINE
  8
MASS
  6
CONTINUOUS
 62
     4
 10
-3.500000005
 20
-9.676506841
 11
-3.499999995
 21
-10.576506841
  0
LINE
  8
MASS
  6
CONTINUOUS
 62
     4
 10
-3.499999995
 20
-10.576506841
 11
0.000000000
 21
-10.126506805
  0
LINE
  8
MASS
  6
CONTINUOUS
 62
     4
 10
-3.500000000
 20
-10.126506841
 11
-7.500000000
 21
-10.126506881
  0
LINE
  8
MASS
  6
CONTINUOUS
 62
     4
 10
9.996984631
 20
-12.126506705
 11
9.996984631
 21
0.417101007
  0
LINE
  8
MASS
  6
CONTINUOUS
 62
     4
 10
9.996984631
 20
-10.126506705
 11
13.496984636
 21
-10.576506669
  0
LINE
  8
MASS
  6
CONTINUOUS
 62
     4
 10
13.496984636
 20
-10.576506669
 11
13.496984626
 21
-9.676506669
  0
LINE
  8
MASS
  6
CONTINUOUS
 62
     4
 10
13.496984626
 20
-9.676506669
 11
9.996984631
 21
-10.126506705
  0
LINE
  8
MASS
  6
CONTINUOUS
 62
     4
 10
13.496984631
 20
-10.126506669
 11
17.496984631
 21
-10.126506629
  0
LINE
  8
MASS
  6
CONTINUOUS
 62
     4
 10
0.000000000
 20
-10.126506805
 11
9.996984631
 21
-10.126506705
  0
TEXT
  8
MASS
  6
CONTINUOUS
 62
     4
 10
3.716617189
 20
-8.626506768
 40
3.500000000
  1
10
 50
0.000000578
 41
1.000
 51
0.000000000
  7
STANDARD
  0
LINE
  8
MASS
  6
CONTINUOUS
 62
     4
 10
-27.206091241
 20
-2.000000324
 11
-19.800000000
 21
-2.000000000
  0
LINE
  8
MASS
  6
CONTINUOUS
 62
     4
 10
-25.206091241
 20
-2.000000236
 11
-25.656091394
 21
1.499999744
  0
LINE
  8
MASS
  6
CONTINUOUS
 62
     4
 10
-25.656091394
 20
1.499999744
 11
-24.756091394
 21
1.499999783
  0
LINE
  8
MASS
  6
CONTINUOUS
 62
     4
 10
-24.756091394
 20
1.499999783
 11
-25.206091241
 21
-2.000000236
  0
LINE
  8
MASS
  6
CONTINUOUS
 62
     4
 10
-25.206091394
 20
1.499999764
 11
-25.206091416
 21
1.999999842
  0
TEXT
  8
MASS
  6
CONTINUOUS
 62
     4
 10
-25.984363856
 20
5.858725475
 40
3.500000000
  1
4
 50
90.000002504
 41
1.000
 51
0.000000000
  7
STANDARD
  0
CIRCLE
  8
MASS
  6
CONTINUOUS
 62
     4
 10
-27.234363757
 20
3.608725420
 40
1.250000000
  0
LINE
  8
MASS
  6
CONTINUOUS
 62
     4
 10
-25.984363703
 20
2.358725475
 11
-28.484363812
 21
4.858725366
  0
LINE
  8
MASS
  6
CONTINUOUS
 62
     4
 10
25.772221950
 20
0.448301202
 11
9.962786570
 21
0.448300511
  0
LINE
  8
MASS
  6
CONTINUOUS
 62
     4
 10
23.772221950
 20
0.448301114
 11
24.222221797
 21
3.948301134
  0
LINE
  8
MASS
  6
CONTINUOUS
 62
     4
 10
24.222221797
 20
3.948301134
 11
23.322221797
 21
3.948301095
  0
LINE
  8
MASS
  6
CONTINUOUS
 62
     4
 10
23.322221797
 20
3.948301095
 11
23.772221950
 21
0.448301114
  0
LINE
  8
MASS
  6
CONTINUOUS
 62
     4
 10
23.772221797
 20
3.948301114
 11
23.772220938
 21
23.607115487
  0
LINE
  8
MASS
  6
CONTINUOUS
 62
     4
 10
23.772221990
 20
-0.448299953
 11
23.772221950
 21
0.448301114
  0
TEXT
  8
MASS
  6
CONTINUOUS
 62
     4
 10
22.674945135
 20
8.831177939
 40
3.500000000
  1
0.9
 50
90.000002504
 41
1.000
 51
0.000000000
  7
STANDARD
  0
CIRCLE
  8
MASS
  6
CONTINUOUS
 62
     4
 10
21.424945233
 20
6.581177885
 40
1.250000000
  0
LINE
  8
MASS
  6
CONTINUOUS
 62
     4
 10
22.674945288
 20
5.331177939
 11
20.174945178
 21
7.831177830
  0
TEXT
  8
MASS
  6
CONTINUOUS
 62
     4
 10
22.674944885
 20
14.535552939
 40
3.500000000
  1
-1.4
 50
90.000002504
 41
1.000
 51
0.000000000
  7
STANDARD
  0
LINE
  8
MASS
  6
CONTINUOUS
 62
     4
 10
7.000000000
 20
9.436080551
 11
7.000000000
 21
0.350000000
  0
LINE
  8
MASS
  6
CONTINUOUS
 62
     4
 10
7.000000000
 20
7.436080551
 11
3.499999999
 21
7.886080545
  0
LINE
  8
MASS
  6
CONTINUOUS
 62
     4
 10
3.499999999
 20
7.886080545
 11
3.500000001
 21
6.986080545
  0
LINE
  8
MASS
  6
CONTINUOUS
 62
     4
 10
3.500000001
 20
6.986080545
 11
7.000000000
 21
7.436080551
  0
LINE
  8
MASS
  6
CONTINUOUS
 62
     4
 10
3.500000000
 20
7.436080545
 11
-0.500000000
 21
7.436080538
  0
LINE
  8
MASS
  6
CONTINUOUS
 62
     4
 10
9.996984631
 20
9.436080557
 11
9.996984631
 21
0.417101007
  0
LINE
  8
MASS
  6
CONTINUOUS
 62
     4
 10
9.996984631
 20
7.436080557
 11
13.496984632
 21
6.986080563
  0
LINE
  8
MASS
  6
CONTINUOUS
 62
     4
 10
13.496984632
 20
6.986080563
 11
13.496984630
 21
7.886080563
  0
LINE
  8
MASS
  6
CONTINUOUS
 62
     4
 10
13.496984630
 20
7.886080563
 11
9.996984631
 21
7.436080557
  0
LINE
  8
MASS
  6
CONTINUOUS
 62
     4
 10
13.496984631
 20
7.436080563
 11
17.496984631
 21
7.436080570
  0
LINE
  8
MASS
  6
CONTINUOUS
 62
     4
 10
7.000000000
 20
7.436080551
 11
9.996984631
 21
7.436080557
  0
TEXT
  8
MASS
  6
CONTINUOUS
 62
     4
 10
8.146304779
 20
8.936080553
 40
3.500000000
  1
3
 50
0.000000104
 41
1.000
 51
0.000000000
  7
STANDARD
  0
TEXT
  8
MASS
  6
CONTINUOUS
 62
     4
 10
-15.769887041
 20
3.001215862
 40
3.500000000
  1
615.542
 50
0.000000000
 41
1.000
 51
0.000000000
  7
STANDARD
  0
ENDSEC
  0
EOF
