999
NT  : 16.0 - 919
  0
SECTION
  2
HEADER
  9
$ACADVER
  1
AC1006
  9
$INSBASE
 10
0.000000000
 20
0.000000000
  9
$EXTMIN
 10
-39.260392146
 20
-11.098611954
  9
$EXTMAX
 10
38.574177601
 20
22.885907062
  9
$LIMMIN
 10
-39.260392146
 20
-11.098611954
  9
$LIMMAX
 10
38.574177601
 20
22.885907062
  9
$AUNITS
 70
     2
  9
$ANGBASE
 50
0.000
  9
$ANGDIR
 70
     0
  0
ENDSEC
  0
SECTION
  2
TABLES
  0
TABLE
  2
LTYPE
 70
     8
  0
LTYPE
  2
PUNKT
 70
    64
  3
..............
 72
    65
 73
     2
 40
1.500
 49
0.700
 49
-0.800
  0
LTYPE
  2
GESTRICHELT
 70
    64
  3
-- -- -- -- --
 72
    65
 73
     7
 40
2.800
 49
0.900
 49
0.000
 49
0.900
 49
0.000
 49
0.200
 49
0.000
 49
-0.800
  0
LTYPE
  2
STRICHPUNKT
 70
    64
  3
--.--.--.--.--
 72
    65
 73
     4
 40
8.800
 49
5.500
 49
-1.300
 49
0.700
 49
-1.300
  0
LTYPE
  2
STRICHPUNKT
 70
    64
  3
--.--.--.--.--
 72
    65
 73
     4
 40
8.800
 49
5.500
 49
-1.300
 49
0.700
 49
-1.300
  0
LTYPE
  2
STRICHPUNKT
 70
    64
  3
--.--.--.--.--
 72
    65
 73
     4
 40
8.800
 49
5.500
 49
-1.300
 49
0.700
 49
-1.300
  0
LTYPE
  2
PHANTOM
 70
    64
  3
--..--..--..--
 72
    65
 73
     6
 40
14.200
 49
7.000
 49
-1.800
 49
0.900
 49
-1.800
 49
0.900
 49
-1.800
  0
LTYPE
  2
PHANTOM
 70
    64
  3
--..--..--..--
 72
    65
 73
     6
 40
14.200
 49
7.000
 49
-1.800
 49
0.900
 49
-1.800
 49
0.900
 49
-1.800
  0
LTYPE
  2
PHANTOM
 70
    64
  3
--..--..--..--
 72
    65
 73
     6
 40
14.200
 49
7.000
 49
-1.800
 49
0.900
 49
-1.800
 49
0.900
 49
-1.800
  0
ENDTAB
  0
ENDSEC
  0
SECTION
  2
BLOCKS
  0
ENDSEC
  0
SECTION
  2
ENTITIES
  0
LINE
  8
ZAPFEN
  6
CONTINUOUS
 62
     4
 10
-19.800000005
 20
-2.000000000
 11
0.000000000
 21
-2.000000000
  0
LINE
  8
AUFNAHME
  6
CONTINUOUS
 62
     7
 10
0.000000000
 20
-2.000000000
 11
3.000000045
 21
-2.000000000
  0
LINE
  8
ZAPFEN
  6
CONTINUOUS
 62
     4
 10
-20.000000000
 20
-1.799999874
 11
-19.800000005
 21
-2.000000000
  0
ARC
  8
AUFNAHME
  6
CONTINUOUS
 62
     7
 10
8.500000000
 20
-9.250675581
 40
9.100675676
 50
90.000000000
 51
127.182135454
  0
ARC
  8
AUFNAHME
  6
CONTINUOUS
 62
     7
 10
8.500000000
 20
9.250675771
 40
9.100675676
 50
-122.788426501
 51
-90.000000000
  0
LINE
  8
AUFNAHME
  6
CONTINUOUS
 62
     7
 10
8.500000015
 20
-0.149999912
 11
9.582843184
 21
-0.149999912
  0
LINE
  8
AUFNAHME
  6
CONTINUOUS
 62
     7
 10
9.582843184
 20
0.150000102
 11
8.500000015
 21
0.150000102
  0
LINE
  8
ZAPFEN
  6
CONTINUOUS
 62
     4
 10
-19.800000005
 20
1.600000055
 11
-19.800000005
 21
-2.000000000
  0
LINE
  8
AUFNAHME
  6
CONTINUOUS
 62
     7
 10
3.000000045
 20
1.600000055
 11
0.000000000
 21
1.600000055
  0
LINE
  8
ZAPFEN
  6
CONTINUOUS
 62
     4
 10
0.000000000
 20
1.600000055
 11
-20.000000000
 21
1.600000055
  0
LINE
  8
AUFNAHME
  6
CONTINUOUS
 62
     7
 10
3.000000045
 20
-2.000000000
 11
3.000000045
 21
1.600000055
  0
LINE
  8
ZAPFEN
  6
CONTINUOUS
 62
     4
 10
-20.000000000
 20
-1.799999874
 11
-20.000000000
 21
1.600000055
  0
LINE
  8
AUFNAHME
  6
CONTINUOUS
 62
     7
 10
3.571565747
 20
1.600000055
 11
3.000000045
 21
1.600000055
  0
ARC
  8
AUFNAHME
  6
CONTINUOUS
 62
     7
 10
9.552477126
 20
-0.334969579
 40
0.485919427
 50
86.417139744
 51
103.211524158
  0
ARC
  8
AUFNAHME
  6
CONTINUOUS
 62
     7
 10
9.500000000
 20
0.000000095
 40
0.150000000
 50
112.987126296
 51
-112.987126296
  0
ARC
  8
AUFNAHME
  6
CONTINUOUS
 62
     7
 10
9.541111025
 20
0.200019319
 40
0.352498277
 50
-106.427839649
 51
-83.200824253
  0
LINE
  8
AUFNAHME
  6
CONTINUOUS
 62
     7
 10
9.739258811
 20
-0.149999912
 11
9.582843184
 21
-0.149999912
  0
ARC
  8
AUFNAHME
  6
CONTINUOUS
 62
     7
 10
9.791144893
 20
-0.291085026
 40
0.150323567
 50
86.361299118
 51
110.191725365
  0
ARC
  8
AUFNAHME
  6
CONTINUOUS
 62
     7
 10
10.104002561
 20
4.579887946
 40
4.730686387
 50
-93.676159992
 51
-91.475891406
  0
ARC
  8
AUFNAHME
  6
CONTINUOUS
 62
     7
 10
9.701913823
 20
0.395168013
 40
0.255478038
 50
-106.332938079
 51
-99.738471318
  0
LINE
  8
AUFNAHME
  6
CONTINUOUS
 62
     7
 10
9.582843184
 20
0.150000102
 11
9.630068690
 21
0.150000102
  0
ARC
  8
AUFNAHME
  6
CONTINUOUS
 62
     7
 10
9.950142645
 20
0.150080794
 40
0.049851477
 50
4.884697467
 51
78.015112011
  0
LINE
  8
AUFNAHME
  6
CONTINUOUS
 62
     7
 10
9.687114060
 20
0.170969965
 11
9.687736183
 21
0.171663437
  0
LINE
  8
AUFNAHME
  6
CONTINUOUS
 62
     7
 10
9.687736183
 20
0.171663437
 11
9.960494488
 21
0.198845628
  0
LINE
  8
AUFNAHME
  6
CONTINUOUS
 62
     7
 10
10.000379309
 20
0.155913273
 11
9.982177541
 21
-0.148469502
  0
ARC
  8
AUFNAHME
  6
CONTINUOUS
 62
     7
 10
9.484134909
 20
0.351524355
 40
0.271662334
 50
-50.015604238
 51
-41.653792000
  0
LINE
  8
AUFNAHME
  6
CONTINUOUS
 62
     7
 10
9.739258811
 20
-0.149999912
 11
9.630068690
 21
0.150000102
  0
LINE
  8
AUFNAHME
  6
CONTINUOUS
 62
     7
 10
8.500000015
 20
-0.149999912
 11
8.500000015
 21
0.150000102
  0
LINE
  8
AUFNAHME
  6
CONTINUOUS
 62
     7
 10
9.441421851
 20
-0.138088806
 11
9.441421851
 21
0.138088996
  0
LINE
  8
AUFNAHME
  6
CONTINUOUS
 62
     7
 10
9.800685123
 20
-0.141064498
 11
9.687114060
 21
0.170969965
  0
LINE
  8
AUFNAHME
  6
CONTINUOUS
 62
     7
 10
9.582843184
 20
0.150000102
 11
9.582843184
 21
-0.149999912
  0
LINE
  8
ZAPFEN
  6
STRICHPUNKT
 62
     4
 10
-21.020786344
 20
0.000000000
 11
10.488647201
 21
0.000000000
  0
LINE
  8
MASS
  6
CONTINUOUS
 62
     4
 10
-24.130331845
 20
-2.000000189
 11
-19.800000005
 21
-2.000000000
  0
LINE
  8
MASS
  6
CONTINUOUS
 62
     4
 10
-22.130331845
 20
-2.000000102
 11
-22.580331998
 21
1.499999878
  0
LINE
  8
MASS
  6
CONTINUOUS
 62
     4
 10
-22.580331998
 20
1.499999878
 11
-21.680331998
 21
1.499999918
  0
LINE
  8
MASS
  6
CONTINUOUS
 62
     4
 10
-21.680331998
 20
1.499999918
 11
-22.130331845
 21
-2.000000102
  0
LINE
  8
MASS
  6
CONTINUOUS
 62
     4
 10
-22.130331998
 20
1.499999898
 11
-22.130332020
 21
2.000000005
  0
TEXT
  8
MASS
  6
CONTINUOUS
 62
     4
 10
-23.583928087
 20
6.368800403
 40
3.500000000
  1
4
 50
90.000002504
 41
1.000
 51
0.000000000
  7
STANDARD
  0
CIRCLE
  8
MASS
  6
CONTINUOUS
 62
     4
 10
-24.833927989
 20
4.118800348
 40
1.250000000
  0
LINE
  8
MASS
  6
CONTINUOUS
 62
     4
 10
-23.583927934
 20
2.868800403
 11
-26.083928044
 21
5.368800293
  0
LINE
  8
MASS
  6
CONTINUOUS
 62
     4
 10
-20.000000000
 20
-12.765430134
 11
-20.000000000
 21
-1.799999874
  0
LINE
  8
MASS
  6
CONTINUOUS
 62
     4
 10
-20.000000000
 20
-10.765430134
 11
-16.499999993
 21
-10.315430189
  0
LINE
  8
MASS
  6
CONTINUOUS
 62
     4
 10
-16.499999993
 20
-10.315430189
 11
-16.500000007
 21
-11.215430189
  0
LINE
  8
MASS
  6
CONTINUOUS
 62
     4
 10
-16.500000007
 20
-11.215430189
 11
-20.000000000
 21
-10.765430134
  0
LINE
  8
MASS
  6
CONTINUOUS
 62
     4
 10
0.000000000
 20
-12.765430450
 11
0.000000000
 21
-2.000000000
  0
LINE
  8
MASS
  6
CONTINUOUS
 62
     4
 10
0.000000000
 20
-10.765430450
 11
-3.500000007
 21
-11.215430395
  0
LINE
  8
MASS
  6
CONTINUOUS
 62
     4
 10
-3.500000007
 20
-11.215430395
 11
-3.499999993
 21
-10.315430395
  0
LINE
  8
MASS
  6
CONTINUOUS
 62
     4
 10
-3.499999993
 20
-10.315430395
 11
0.000000000
 21
-10.765430450
  0
LINE
  8
MASS
  6
CONTINUOUS
 62
     4
 10
-16.500000000
 20
-10.765430189
 11
-3.500000000
 21
-10.765430395
  0
TEXT
  8
MASS
  6
CONTINUOUS
 62
     4
 10
-11.664687700
 20
-9.265430266
 40
3.500000000
  1
20
 50
359.999999093
 41
1.000
 51
0.000000000
  7
STANDARD
  0
LINE
  8
MASS
  6
CONTINUOUS
 62
     4
 10
0.000000000
 20
-12.718350410
 11
0.000000000
 21
-2.000000000
  0
LINE
  8
MASS
  6
CONTINUOUS
 62
     4
 10
0.000000000
 20
-10.718350410
 11
-3.500000009
 21
-10.268350481
  0
LINE
  8
MASS
  6
CONTINUOUS
 62
     4
 10
-3.500000009
 20
-10.268350481
 11
-3.499999991
 21
-11.168350481
  0
LINE
  8
MASS
  6
CONTINUOUS
 62
     4
 10
-3.499999991
 20
-11.168350481
 11
0.000000000
 21
-10.718350410
  0
LINE
  8
MASS
  6
CONTINUOUS
 62
     4
 10
-3.500000000
 20
-10.718350481
 11
-7.500000000
 21
-10.718350563
  0
LINE
  8
MASS
  6
CONTINUOUS
 62
     4
 10
9.999813065
 20
-12.718350208
 11
9.999813065
 21
0.154325688
  0
LINE
  8
MASS
  6
CONTINUOUS
 62
     4
 10
9.999813065
 20
-10.718350208
 11
13.499813074
 21
-11.168350137
  0
LINE
  8
MASS
  6
CONTINUOUS
 62
     4
 10
13.499813074
 20
-11.168350137
 11
13.499813056
 21
-10.268350137
  0
LINE
  8
MASS
  6
CONTINUOUS
 62
     4
 10
13.499813056
 20
-10.268350137
 11
9.999813065
 21
-10.718350208
  0
LINE
  8
MASS
  6
CONTINUOUS
 62
     4
 10
13.499813065
 20
-10.718350137
 11
17.499813065
 21
-10.718350056
  0
LINE
  8
MASS
  6
CONTINUOUS
 62
     4
 10
0.000000000
 20
-10.718350410
 11
9.999813065
 21
-10.718350208
  0
TEXT
  8
MASS
  6
CONTINUOUS
 62
     4
 10
3.718031390
 20
-9.218350335
 40
3.500000000
  1
10
 50
0.000001162
 41
1.000
 51
0.000000000
  7
STANDARD
  0
LINE
  8
MASS
  6
CONTINUOUS
 62
     4
 10
28.397713393
 20
0.198846434
 11
9.960494488
 21
0.198845628
  0
LINE
  8
MASS
  6
CONTINUOUS
 62
     4
 10
26.397713393
 20
0.198846347
 11
26.847713240
 21
3.698846366
  0
LINE
  8
MASS
  6
CONTINUOUS
 62
     4
 10
26.847713240
 20
3.698846366
 11
25.947713240
 21
3.698846327
  0
LINE
  8
MASS
  6
CONTINUOUS
 62
     4
 10
25.947713240
 20
3.698846327
 11
26.397713393
 21
0.198846347
  0
LINE
  8
MASS
  6
CONTINUOUS
 62
     4
 10
26.397713240
 20
3.698846347
 11
26.397712416
 21
22.552725503
  0
LINE
  8
MASS
  6
CONTINUOUS
 62
     4
 10
26.397713410
 20
-0.198844956
 11
26.397713393
 21
0.198846347
  0
TEXT
  8
MASS
  6
CONTINUOUS
 62
     4
 10
25.202119142
 20
7.011162951
 40
3.500000000
  1
0.4
 50
90.000002504
 41
1.000
 51
0.000000000
  7
STANDARD
  0
CIRCLE
  8
MASS
  6
CONTINUOUS
 62
     4
 10
23.952119240
 20
4.761162896
 40
1.250000000
  0
LINE
  8
MASS
  6
CONTINUOUS
 62
     4
 10
25.202119295
 20
3.511162951
 11
22.702119186
 21
6.011162841
  0
TEXT
  8
MASS
  6
CONTINUOUS
 62
     4
 10
25.202118888
 20
12.824912951
 40
3.500000000
  1
-0.9
 50
90.000002504
 41
1.000
 51
0.000000000
  7
STANDARD
  0
TEXT
  8
MASS
  6
CONTINUOUS
 62
     4
 10
-15.302156652
 20
2.675674395
 40
3.500000000
  1
615.541
 50
0.000000000
 41
1.000
 51
0.000000000
  7
STANDARD
  0
LINE
  8
MASS
  6
CONTINUOUS
 62
     4
 10
8.500000000
 20
10.995874881
 11
8.500000000
 21
0.150000095
  0
LINE
  8
MASS
  6
CONTINUOUS
 62
     4
 10
8.500000000
 20
8.995874881
 11
5.000000082
 21
9.445875520
  0
LINE
  8
MASS
  6
CONTINUOUS
 62
     4
 10
5.000000082
 20
9.445875520
 11
4.999999918
 21
8.545875520
  0
LINE
  8
MASS
  6
CONTINUOUS
 62
     4
 10
4.999999918
 20
8.545875520
 11
8.500000000
 21
8.995874881
  0
LINE
  8
MASS
  6
CONTINUOUS
 62
     4
 10
5.000000000
 20
8.995875520
 11
0.116827278
 21
8.995876411
  0
LINE
  8
MASS
  6
CONTINUOUS
 62
     4
 10
9.999813065
 20
10.995874608
 11
9.999813065
 21
0.154325688
  0
LINE
  8
MASS
  6
CONTINUOUS
 62
     4
 10
9.999813065
 20
8.995874608
 11
13.499812983
 21
8.545873969
  0
LINE
  8
MASS
  6
CONTINUOUS
 62
     4
 10
13.499812983
 20
8.545873969
 11
13.499813147
 21
9.445873969
  0
LINE
  8
MASS
  6
CONTINUOUS
 62
     4
 10
13.499813147
 20
9.445873969
 11
9.999813065
 21
8.995874608
  0
LINE
  8
MASS
  6
CONTINUOUS
 62
     4
 10
13.499813065
 20
8.995873969
 11
17.499813065
 21
8.995873239
  0
LINE
  8
MASS
  6
CONTINUOUS
 62
     4
 10
8.500000000
 20
8.995874881
 11
9.999813065
 21
8.995874608
  0
TEXT
  8
MASS
  6
CONTINUOUS
 62
     4
 10
0.116827608
 20
10.801140288
 40
3.500000000
  1
1.5
 50
359.999989545
 41
1.000
 51
0.000000000
  7
STANDARD
  0
ENDSEC
  0
EOF
