999
NT  : 16.0 - 919
  0
SECTION
  2
HEADER
  9
$ACADVER
  1
AC1006
  9
$INSBASE
 10
0.000000000
 20
0.000000000
  9
$EXTMIN
 10
-46.898095452
 20
-18.107294761
  9
$EXTMAX
 10
32.903813306
 20
23.008144916
  9
$LIMMIN
 10
-46.898095452
 20
-18.107294761
  9
$LIMMAX
 10
32.903813306
 20
23.008144916
  9
$AUNITS
 70
     2
  9
$ANGBASE
 50
0.000
  9
$ANGDIR
 70
     0
  0
ENDSEC
  0
SECTION
  2
TABLES
  0
TABLE
  2
LTYPE
 70
     8
  0
LTYPE
  2
PUNKT
 70
    64
  3
..............
 72
    65
 73
     2
 40
1.500
 49
0.700
 49
-0.800
  0
LTYPE
  2
GESTRICHELT
 70
    64
  3
-- -- -- -- --
 72
    65
 73
     7
 40
2.800
 49
0.900
 49
0.000
 49
0.900
 49
0.000
 49
0.200
 49
0.000
 49
-0.800
  0
LTYPE
  2
STRICHPUNKT
 70
    64
  3
--.--.--.--.--
 72
    65
 73
     4
 40
8.800
 49
5.500
 49
-1.300
 49
0.700
 49
-1.300
  0
LTYPE
  2
STRICHPUNKT
 70
    64
  3
--.--.--.--.--
 72
    65
 73
     4
 40
8.800
 49
5.500
 49
-1.300
 49
0.700
 49
-1.300
  0
LTYPE
  2
STRICHPUNKT
 70
    64
  3
--.--.--.--.--
 72
    65
 73
     4
 40
8.800
 49
5.500
 49
-1.300
 49
0.700
 49
-1.300
  0
LTYPE
  2
PHANTOM
 70
    64
  3
--..--..--..--
 72
    65
 73
     6
 40
14.200
 49
7.000
 49
-1.800
 49
0.900
 49
-1.800
 49
0.900
 49
-1.800
  0
LTYPE
  2
PHANTOM
 70
    64
  3
--..--..--..--
 72
    65
 73
     6
 40
14.200
 49
7.000
 49
-1.800
 49
0.900
 49
-1.800
 49
0.900
 49
-1.800
  0
LTYPE
  2
PHANTOM
 70
    64
  3
--..--..--..--
 72
    65
 73
     6
 40
14.200
 49
7.000
 49
-1.800
 49
0.900
 49
-1.800
 49
0.900
 49
-1.800
  0
ENDTAB
  0
ENDSEC
  0
SECTION
  2
BLOCKS
  0
ENDSEC
  0
SECTION
  2
ENTITIES
  0
LINE
  8
AUFNAHME
  6
CONTINUOUS
 62
     7
 10
0.000000000
 20
-3.500000000
 11
4.248062664
 21
-3.500000000
  0
LINE
  8
AUFNAHME
  6
CONTINUOUS
 62
     7
 10
4.248062664
 20
3.500000000
 11
0.000000000
 21
3.500000000
  0
LINE
  8
ZAPFEN
  6
CONTINUOUS
 62
     4
 10
-31.800000000
 20
3.500000000
 11
-32.000000000
 21
3.300000000
  0
LINE
  8
ZAPFEN
  6
CONTINUOUS
 62
     4
 10
-32.000000000
 20
-3.300000000
 11
-31.800000000
 21
-3.500000000
  0
LINE
  8
ZAPFEN
  6
CONTINUOUS
 62
     4
 10
-31.800000000
 20
-3.500000000
 11
0.000000000
 21
-3.500000000
  0
LINE
  8
ZAPFEN
  6
CONTINUOUS
 62
     4
 10
0.000000000
 20
3.500000000
 11
-31.800000000
 21
3.500000000
  0
LINE
  8
ZAPFEN
  6
CONTINUOUS
 62
     4
 10
-32.000000000
 20
0.000000000
 11
-32.000000000
 21
3.300000000
  0
LINE
  8
ZAPFEN
  6
CONTINUOUS
 62
     4
 10
-32.000000000
 20
-3.300000000
 11
-32.000000000
 21
0.000000000
  0
LINE
  8
ZAPFEN
  6
CONTINUOUS
 62
     4
 10
-31.800000000
 20
0.000000000
 11
-31.800000000
 21
-3.500000000
  0
LINE
  8
ZAPFEN
  6
CONTINUOUS
 62
     4
 10
-31.800000000
 20
3.500000000
 11
-31.800000000
 21
0.000000000
  0
LINE
  8
ZAPFEN
  6
STRICHPUNKT
 62
     4
 10
-33.151284445
 20
0.000000000
 11
21.300431341
 21
0.000000000
  0
LINE
  8
MASS
  6
CONTINUOUS
 62
     4
 10
-41.340914059
 20
-3.500000000
 11
-31.800000000
 21
-3.500000000
  0
LINE
  8
MASS
  6
CONTINUOUS
 62
     4
 10
-39.340914059
 20
-3.500000000
 11
-39.790914059
 21
-7.000000000
  0
LINE
  8
MASS
  6
CONTINUOUS
 62
     4
 10
-39.790914059
 20
-7.000000000
 11
-38.890914059
 21
-7.000000000
  0
LINE
  8
MASS
  6
CONTINUOUS
 62
     4
 10
-38.890914059
 20
-7.000000000
 11
-39.340914059
 21
-3.500000000
  0
LINE
  8
MASS
  6
CONTINUOUS
 62
     4
 10
-39.340914059
 20
-7.000000000
 11
-39.340914059
 21
-11.000000000
  0
LINE
  8
MASS
  6
CONTINUOUS
 62
     4
 10
-41.340914059
 20
3.500000000
 11
-31.800000000
 21
3.500000000
  0
LINE
  8
MASS
  6
CONTINUOUS
 62
     4
 10
-39.340914059
 20
3.500000000
 11
-38.890914059
 21
7.000000000
  0
LINE
  8
MASS
  6
CONTINUOUS
 62
     4
 10
-38.890914059
 20
7.000000000
 11
-39.790914059
 21
7.000000000
  0
LINE
  8
MASS
  6
CONTINUOUS
 62
     4
 10
-39.790914059
 20
7.000000000
 11
-39.340914059
 21
3.500000000
  0
LINE
  8
MASS
  6
CONTINUOUS
 62
     4
 10
-39.340914059
 20
7.000000000
 11
-39.340914059
 21
11.000000000
  0
LINE
  8
MASS
  6
CONTINUOUS
 62
     4
 10
-39.340914059
 20
-3.500000000
 11
-39.340914059
 21
3.500000000
  0
TEXT
  8
MASS
  6
CONTINUOUS
 62
     4
 10
-40.840914059
 20
1.206406172
 40
3.500000000
  1
7
 50
90.000000000
 41
1.000
 51
0.000000000
  7
STANDARD
  0
CIRCLE
  8
MASS
  6
CONTINUOUS
 62
     4
 10
-42.090914059
 20
-1.043593828
 40
1.250000000
  0
LINE
  8
MASS
  6
CONTINUOUS
 62
     4
 10
-40.840914059
 20
-2.293593828
 11
-43.340914059
 21
0.206406172
  0
LINE
  8
MASS
  6
CONTINUOUS
 62
     4
 10
-32.000000000
 20
-16.444374847
 11
-32.000000000
 21
-3.300000000
  0
LINE
  8
MASS
  6
CONTINUOUS
 62
     4
 10
-32.000000000
 20
-14.444374847
 11
-28.500000011
 21
-13.994374764
  0
LINE
  8
MASS
  6
CONTINUOUS
 62
     4
 10
-28.500000011
 20
-13.994374764
 11
-28.499999989
 21
-14.894374764
  0
LINE
  8
MASS
  6
CONTINUOUS
 62
     4
 10
-28.499999989
 20
-14.894374764
 11
-32.000000000
 21
-14.444374847
  0
LINE
  8
MASS
  6
CONTINUOUS
 62
     4
 10
0.000000000
 20
-16.444374084
 11
0.000000000
 21
-3.500000000
  0
LINE
  8
MASS
  6
CONTINUOUS
 62
     4
 10
0.000000000
 20
-14.444374084
 11
-3.499999989
 21
-14.894374168
  0
LINE
  8
MASS
  6
CONTINUOUS
 62
     4
 10
-3.499999989
 20
-14.894374168
 11
-3.500000011
 21
-13.994374168
  0
LINE
  8
MASS
  6
CONTINUOUS
 62
     4
 10
-3.500000011
 20
-13.994374168
 11
0.000000000
 21
-14.444374084
  0
LINE
  8
MASS
  6
CONTINUOUS
 62
     4
 10
-28.500000000
 20
-14.444374764
 11
-3.500000000
 21
-14.444374168
  0
TEXT
  8
MASS
  6
CONTINUOUS
 62
     4
 10
-17.473281643
 20
-12.944374501
 40
3.500000000
  1
32
 50
0.000001366
 41
1.000
 51
0.000000000
  7
STANDARD
  0
LINE
  8
UNSICHT
  6
GESTRICHELT
 62
     1
 10
-32.000000000
 20
0.600000000
 11
10.670563590
 21
0.600000000
  0
LINE
  8
UNSICHT
  6
GESTRICHELT
 62
     1
 10
-32.000000000
 20
-0.600000000
 11
11.363383913
 21
-0.600000000
  0
TEXT
  8
MASS
  6
GESTRICHELT
 62
     4
 10
-18.632832982
 20
4.701510989
 40
3.500000000
  1
615.531
 50
0.000000000
 41
1.000
 51
0.000000000
  7
STANDARD
  0
LINE
  8
MASS
  6
CONTINUOUS
 62
     4
 10
0.000000000
 20
-16.444374084
 11
0.000000000
 21
-3.500000000
  0
LINE
  8
MASS
  6
CONTINUOUS
 62
     4
 10
0.000000000
 20
-14.444374084
 11
3.500000002
 21
-13.994374100
  0
LINE
  8
MASS
  6
CONTINUOUS
 62
     4
 10
3.500000002
 20
-13.994374100
 11
3.499999998
 21
-14.894374100
  0
LINE
  8
MASS
  6
CONTINUOUS
 62
     4
 10
3.499999998
 20
-14.894374100
 11
0.000000000
 21
-14.444374084
  0
LINE
  8
MASS
  6
CONTINUOUS
 62
     4
 10
20.000000000
 20
-16.444374173
 11
20.000000000
 21
-3.078620046
  0
LINE
  8
MASS
  6
CONTINUOUS
 62
     4
 10
20.000000000
 20
-14.444374173
 11
16.499999998
 21
-14.894374158
  0
LINE
  8
MASS
  6
CONTINUOUS
 62
     4
 10
16.499999998
 20
-14.894374158
 11
16.500000002
 21
-13.994374158
  0
LINE
  8
MASS
  6
CONTINUOUS
 62
     4
 10
16.500000002
 20
-13.994374158
 11
20.000000000
 21
-14.444374173
  0
LINE
  8
MASS
  6
CONTINUOUS
 62
     4
 10
3.500000000
 20
-14.444374100
 11
16.500000000
 21
-14.444374158
  0
TEXT
  8
MASS
  6
CONTINUOUS
 62
     4
 10
8.335312283
 20
-12.944374121
 40
3.500000000
  1
20
 50
359.999999746
 41
1.000
 51
0.000000000
  7
STANDARD
  0
LINE
  8
MASS
  6
CONTINUOUS
 62
     4
 10
-32.000000000
 20
19.605052757
 11
-32.000000000
 21
3.300000000
  0
LINE
  8
MASS
  6
CONTINUOUS
 62
     4
 10
-32.000000000
 20
17.605052757
 11
-28.499999993
 21
18.055052700
  0
LINE
  8
MASS
  6
CONTINUOUS
 62
     4
 10
-28.499999993
 20
18.055052700
 11
-28.500000007
 21
17.155052700
  0
LINE
  8
MASS
  6
CONTINUOUS
 62
     4
 10
-28.500000007
 20
17.155052700
 11
-32.000000000
 21
17.605052757
  0
LINE
  8
MASS
  6
CONTINUOUS
 62
     4
 10
20.000000000
 20
19.605051906
 11
20.000000000
 21
-3.078620046
  0
LINE
  8
MASS
  6
CONTINUOUS
 62
     4
 10
20.000000000
 20
17.605051906
 11
16.499999993
 21
17.155051963
  0
LINE
  8
MASS
  6
CONTINUOUS
 62
     4
 10
16.499999993
 20
17.155051963
 11
16.500000007
 21
18.055051963
  0
LINE
  8
MASS
  6
CONTINUOUS
 62
     4
 10
16.500000007
 20
18.055051963
 11
20.000000000
 21
17.605051906
  0
LINE
  8
MASS
  6
CONTINUOUS
 62
     4
 10
-28.500000000
 20
17.605052700
 11
16.500000000
 21
17.605051963
  0
TEXT
  8
MASS
  6
CONTINUOUS
 62
     4
 10
-7.555313057
 20
19.105052357
 40
3.500000000
  1
52
 50
359.999999062
 41
1.000
 51
0.000000000
  7
STANDARD
  0
TEXT
  8
MASS
  6
CONTINUOUS
 62
     4
 10
-8.384688057
 20
19.105052371
 40
3.500000000
  1
(
 50
359.999999062
 41
1.000
 51
0.000000000
  7
STANDARD
  0
TEXT
  8
MASS
  6
CONTINUOUS
 62
     4
 10
-3.444688057
 20
19.105052290
 40
3.500000000
  1
)
 50
359.999999062
 41
1.000
 51
0.000000000
  7
STANDARD
  0
LINE
  8
MASS
  6
CONTINUOUS
 62
     4
 10
32.346631269
 20
-3.003815871
 11
19.952293521
 21
-3.003816413
  0
LINE
  8
MASS
  6
CONTINUOUS
 62
     4
 10
30.346631269
 20
-3.003815958
 11
29.896631422
 21
-6.503815978
  0
LINE
  8
MASS
  6
CONTINUOUS
 62
     4
 10
29.896631422
 20
-6.503815978
 11
30.796631422
 21
-6.503815939
  0
LINE
  8
MASS
  6
CONTINUOUS
 62
     4
 10
30.796631422
 20
-6.503815939
 11
30.346631269
 21
-3.003815958
  0
LINE
  8
MASS
  6
CONTINUOUS
 62
     4
 10
30.346631422
 20
-6.503815958
 11
30.346631912
 21
-17.704202216
  0
LINE
  8
MASS
  6
CONTINUOUS
 62
     4
 10
30.346631269
 20
-3.003815958
 11
30.346631007
 21
3.003816833
  0
CIRCLE
  8
MASS
  6
CONTINUOUS
 62
     4
 10
27.694849549
 20
-12.954202332
 40
1.250000000
  0
LINE
  8
MASS
  6
CONTINUOUS
 62
     4
 10
28.944849604
 20
-14.204202277
 11
26.444849495
 21
-11.704202386
  0
TEXT
  8
MASS
  6
CONTINUOUS
 62
     4
 10
28.944849451
 20
-10.704202277
 40
3.500000000
  1
2-6
 50
90.000002504
 41
1.000
 51
0.000000000
  7
STANDARD
  0
LINE
  8
MASS
  6
CONTINUOUS
 62
     4
 10
13.996161030
 20
12.840674019
 11
13.996161030
 21
-3.150000000
  0
LINE
  8
MASS
  6
CONTINUOUS
 62
     4
 10
13.996161030
 20
10.840674019
 11
10.496161008
 21
11.290673848
  0
LINE
  8
MASS
  6
CONTINUOUS
 62
     4
 10
10.496161008
 20
11.290673848
 11
10.496161052
 21
10.390673848
  0
LINE
  8
MASS
  6
CONTINUOUS
 62
     4
 10
10.496161052
 20
10.390673848
 11
13.996161030
 21
10.840674019
  0
LINE
  8
MASS
  6
CONTINUOUS
 62
     4
 10
10.496161030
 20
10.840673848
 11
6.496161030
 21
10.840673653
  0
LINE
  8
MASS
  6
CONTINUOUS
 62
     4
 10
20.000000000
 20
12.840674312
 11
20.000000000
 21
-3.078620046
  0
LINE
  8
MASS
  6
CONTINUOUS
 62
     4
 10
20.000000000
 20
10.840674312
 11
23.500000022
 21
10.390674482
  0
LINE
  8
MASS
  6
CONTINUOUS
 62
     4
 10
23.500000022
 20
10.390674482
 11
23.499999978
 21
11.290674482
  0
LINE
  8
MASS
  6
CONTINUOUS
 62
     4
 10
23.499999978
 20
11.290674482
 11
20.000000000
 21
10.840674312
  0
LINE
  8
MASS
  6
CONTINUOUS
 62
     4
 10
23.500000000
 20
10.840674482
 11
27.500000000
 21
10.840674678
  0
LINE
  8
MASS
  6
CONTINUOUS
 62
     4
 10
13.996161030
 20
10.840674019
 11
20.000000000
 21
10.840674312
  0
TEXT
  8
MASS
  6
CONTINUOUS
 62
     4
 10
16.662233368
 20
11.852651106
 40
3.500000000
  1
6
 50
0.000002795
 41
1.000
 51
0.000000000
  7
STANDARD
  0
LINE
  8
AUFNAHME
  6
CONTINUOUS
 62
     7
 10
6.248062664
 20
5.500000000
 11
4.248062664
 21
3.500000000
  0
LINE
  8
AUFNAHME
  6
CONTINUOUS
 62
     7
 10
4.248062664
 20
-3.500000000
 11
6.248062664
 21
-5.500000000
  0
LINE
  8
AUFNAHME
  6
CONTINUOUS
 62
     7
 10
6.248062664
 20
-5.500000000
 11
14.048062664
 21
-5.500000000
  0
LINE
  8
AUFNAHME
  6
CONTINUOUS
 62
     7
 10
7.841547271
 20
5.500000000
 11
6.248062664
 21
5.500000000
  0
LINE
  8
AUFNAHME
  6
CONTINUOUS
 62
     7
 10
6.248062664
 20
0.000000000
 11
6.248062664
 21
5.500000000
  0
LINE
  8
AUFNAHME
  6
CONTINUOUS
 62
     7
 10
6.248062664
 20
-5.500000000
 11
6.248062664
 21
0.000000000
  0
LINE
  8
AUFNAHME
  6
CONTINUOUS
 62
     7
 10
4.248062664
 20
0.000000000
 11
4.248062664
 21
3.500000000
  0
LINE
  8
AUFNAHME
  6
CONTINUOUS
 62
     7
 10
4.248062664
 20
-3.500000000
 11
4.248062664
 21
0.000000000
  0
LINE
  8
AUFNAHME
  6
CONTINUOUS
 62
     7
 10
9.574753241
 20
2.497999199
 11
7.841547271
 21
5.500000000
  0
LINE
  8
AUFNAHME
  6
CONTINUOUS
 62
     7
 10
7.748062664
 20
2.497999199
 11
9.574753241
 21
2.497999199
  0
LINE
  8
AUFNAHME
  6
CONTINUOUS
 62
     7
 10
7.748062664
 20
-2.497999199
 11
7.748062664
 21
2.497999199
  0
LINE
  8
AUFNAHME
  6
CONTINUOUS
 62
     7
 10
12.485213344
 20
-2.497999199
 11
7.748062664
 21
-2.497999199
  0
ARC
  8
AUFNAHME
  6
CONTINUOUS
 62
     7
 10
14.048062664
 20
-1.250000000
 40
2.000000000
 50
-141.391201657
 51
-90.000000000
  0
LINE
  8
AUFNAHME
  6
CONTINUOUS
 62
     7
 10
18.602051142
 20
-3.250000000
 11
14.048062664
 21
-3.250000000
  0
LINE
  8
AUFNAHME
  6
CONTINUOUS
 62
     7
 10
18.602051142
 20
-3.250000000
 11
18.602051142
 21
-5.500000000
  0
LINE
  8
AUFNAHME
  6
CONTINUOUS
 62
     7
 10
14.048062664
 20
-5.500000000
 11
18.602051142
 21
-5.500000000
  0
LINE
  8
AUFNAHME
  6
CONTINUOUS
 62
     7
 10
12.316011857
 20
-2.250000000
 11
9.574753241
 21
2.497999199
  0
ARC
  8
AUFNAHME
  6
CONTINUOUS
 62
     7
 10
14.048062664
 20
-1.250000000
 40
2.000000000
 50
-150.000000000
 51
-141.391201657
  0
ARC
  8
AUFNAHME
  6
CONTINUOUS
 62
     7
 10
32.206658857
 20
-11.198407992
 40
14.633832691
 50
149.767818588
 51
151.099177088
  0
LINE
  8
AUFNAHME
  6
CONTINUOUS
 62
     7
 10
19.395359020
 20
-4.125950450
 11
18.602051142
 21
-5.500000000
  0
LINE
  8
AUFNAHME
  6
CONTINUOUS
 62
     7
 10
19.063488170
 20
-3.250000000
 11
19.169838940
 21
-3.143649230
  0
LINE
  8
AUFNAHME
  6
CONTINUOUS
 62
     7
 10
19.563142528
 20
-3.830195587
 11
20.000000000
 21
-3.078618362
  0
LINE
  8
AUFNAHME
  6
CONTINUOUS
 62
     7
 10
18.602051142
 20
-3.250000000
 11
19.063488170
 21
-3.250000000
  0
LINE
  8
AUFNAHME
  6
CONTINUOUS
 62
     7
 10
19.248062664
 20
-3.065425506
 11
19.952317446
 21
-3.003811196
  0
ARC
  8
AUFNAHME
  6
CONTINUOUS
 62
     7
 10
19.956721473
 20
-3.053604204
 40
0.049987389
 50
-30.027088453
 51
95.054469416
  0
LINE
  8
AUFNAHME
  6
CONTINUOUS
 62
     7
 10
19.169838940
 20
-3.143649230
 11
19.248062664
 21
-3.065425506
  0
ARC
  8
AUFNAHME
  6
CONTINUOUS
 62
     7
 10
28.218216828
 20
-113.320754595
 40
110.548033402
 50
94.263340738
 51
94.694922843
  0
ENDSEC
  0
EOF
