999
NT  : 16.0 - 919
  0
SECTION
  2
HEADER
  9
$ACADVER
  1
AC1006
  9
$INSBASE
 10
0.000000000
 20
0.000000000
  9
$EXTMIN
 10
-45.087789518
 20
-16.214278679
  9
$EXTMAX
 10
31.093507287
 20
23.035753834
  9
$LIMMIN
 10
-45.087789518
 20
-16.214278679
  9
$LIMMAX
 10
31.093507287
 20
23.035753834
  9
$AUNITS
 70
     2
  9
$ANGBASE
 50
0.000
  9
$ANGDIR
 70
     0
  0
ENDSEC
  0
SECTION
  2
TABLES
  0
TABLE
  2
LTYPE
 70
     8
  0
LTYPE
  2
PUNKT
 70
    64
  3
..............
 72
    65
 73
     2
 40
1.500
 49
0.700
 49
-0.800
  0
LTYPE
  2
GESTRICHELT
 70
    64
  3
-- -- -- -- --
 72
    65
 73
     7
 40
2.800
 49
0.900
 49
0.000
 49
0.900
 49
0.000
 49
0.200
 49
0.000
 49
-0.800
  0
LTYPE
  2
STRICHPUNKT
 70
    64
  3
--.--.--.--.--
 72
    65
 73
     4
 40
8.800
 49
5.500
 49
-1.300
 49
0.700
 49
-1.300
  0
LTYPE
  2
STRICHPUNKT
 70
    64
  3
--.--.--.--.--
 72
    65
 73
     4
 40
8.800
 49
5.500
 49
-1.300
 49
0.700
 49
-1.300
  0
LTYPE
  2
STRICHPUNKT
 70
    64
  3
--.--.--.--.--
 72
    65
 73
     4
 40
8.800
 49
5.500
 49
-1.300
 49
0.700
 49
-1.300
  0
LTYPE
  2
PHANTOM
 70
    64
  3
--..--..--..--
 72
    65
 73
     6
 40
14.200
 49
7.000
 49
-1.800
 49
0.900
 49
-1.800
 49
0.900
 49
-1.800
  0
LTYPE
  2
PHANTOM
 70
    64
  3
--..--..--..--
 72
    65
 73
     6
 40
14.200
 49
7.000
 49
-1.800
 49
0.900
 49
-1.800
 49
0.900
 49
-1.800
  0
LTYPE
  2
PHANTOM
 70
    64
  3
--..--..--..--
 72
    65
 73
     6
 40
14.200
 49
7.000
 49
-1.800
 49
0.900
 49
-1.800
 49
0.900
 49
-1.800
  0
ENDTAB
  0
ENDSEC
  0
SECTION
  2
BLOCKS
  0
ENDSEC
  0
SECTION
  2
ENTITIES
  0
LINE
  8
AUFNAHME
  6
CONTINUOUS
 62
     7
 10
0.000000000
 20
-3.500000000
 11
15.473299251
 21
-3.500000000
  0
LINE
  8
AUFNAHME
  6
CONTINUOUS
 62
     7
 10
13.370043941
 20
3.500000000
 11
0.000000000
 21
3.500000000
  0
LINE
  8
ZAPFEN
  6
CONTINUOUS
 62
     4
 10
-31.800000000
 20
3.500000000
 11
-32.000000000
 21
3.300000000
  0
LINE
  8
ZAPFEN
  6
CONTINUOUS
 62
     4
 10
-32.000000000
 20
-3.300000000
 11
-31.800000000
 21
-3.500000000
  0
LINE
  8
ZAPFEN
  6
CONTINUOUS
 62
     4
 10
-31.800000000
 20
-3.500000000
 11
0.000000000
 21
-3.500000000
  0
LINE
  8
ZAPFEN
  6
CONTINUOUS
 62
     4
 10
0.000000000
 20
3.500000000
 11
-31.800000000
 21
3.500000000
  0
LINE
  8
ZAPFEN
  6
CONTINUOUS
 62
     4
 10
-32.000000000
 20
0.000000000
 11
-32.000000000
 21
3.300000000
  0
LINE
  8
ZAPFEN
  6
CONTINUOUS
 62
     4
 10
-32.000000000
 20
-3.300000000
 11
-32.000000000
 21
0.000000000
  0
LINE
  8
ZAPFEN
  6
CONTINUOUS
 62
     4
 10
-31.800000000
 20
0.000000000
 11
-31.800000000
 21
-3.500000000
  0
LINE
  8
ZAPFEN
  6
CONTINUOUS
 62
     4
 10
-31.800000000
 20
3.500000000
 11
-31.800000000
 21
0.000000000
  0
LINE
  8
ZAPFEN
  6
STRICHPUNKT
 62
     4
 10
-33.151284445
 20
0.000000000
 11
21.300431341
 21
0.000000000
  0
LINE
  8
MASS
  6
CONTINUOUS
 62
     4
 10
-41.340914059
 20
-3.500000000
 11
-31.800000000
 21
-3.500000000
  0
LINE
  8
MASS
  6
CONTINUOUS
 62
     4
 10
-39.340914059
 20
-3.500000000
 11
-39.790914059
 21
-7.000000000
  0
LINE
  8
MASS
  6
CONTINUOUS
 62
     4
 10
-39.790914059
 20
-7.000000000
 11
-38.890914059
 21
-7.000000000
  0
LINE
  8
MASS
  6
CONTINUOUS
 62
     4
 10
-38.890914059
 20
-7.000000000
 11
-39.340914059
 21
-3.500000000
  0
LINE
  8
MASS
  6
CONTINUOUS
 62
     4
 10
-39.340914059
 20
-7.000000000
 11
-39.340914059
 21
-11.000000000
  0
LINE
  8
MASS
  6
CONTINUOUS
 62
     4
 10
-41.340914059
 20
3.500000000
 11
-31.800000000
 21
3.500000000
  0
LINE
  8
MASS
  6
CONTINUOUS
 62
     4
 10
-39.340914059
 20
3.500000000
 11
-38.890914059
 21
7.000000000
  0
LINE
  8
MASS
  6
CONTINUOUS
 62
     4
 10
-38.890914059
 20
7.000000000
 11
-39.790914059
 21
7.000000000
  0
LINE
  8
MASS
  6
CONTINUOUS
 62
     4
 10
-39.790914059
 20
7.000000000
 11
-39.340914059
 21
3.500000000
  0
LINE
  8
MASS
  6
CONTINUOUS
 62
     4
 10
-39.340914059
 20
7.000000000
 11
-39.340914059
 21
11.000000000
  0
LINE
  8
MASS
  6
CONTINUOUS
 62
     4
 10
-39.340914059
 20
-3.500000000
 11
-39.340914059
 21
3.500000000
  0
TEXT
  8
MASS
  6
CONTINUOUS
 62
     4
 10
-40.840914059
 20
1.206406172
 40
3.500000000
  1
7
 50
90.000000000
 41
1.000
 51
0.000000000
  7
STANDARD
  0
CIRCLE
  8
MASS
  6
CONTINUOUS
 62
     4
 10
-42.090914059
 20
-1.043593828
 40
1.250000000
  0
LINE
  8
MASS
  6
CONTINUOUS
 62
     4
 10
-40.840914059
 20
-2.293593828
 11
-43.340914059
 21
0.206406172
  0
LINE
  8
MASS
  6
CONTINUOUS
 62
     4
 10
-32.000000000
 20
-13.169275093
 11
-32.000000000
 21
-3.300000000
  0
LINE
  8
MASS
  6
CONTINUOUS
 62
     4
 10
-32.000000000
 20
-11.169275093
 11
-28.499999997
 21
-10.719275114
  0
LINE
  8
MASS
  6
CONTINUOUS
 62
     4
 10
-28.499999997
 20
-10.719275114
 11
-28.500000003
 21
-11.619275114
  0
LINE
  8
MASS
  6
CONTINUOUS
 62
     4
 10
-28.500000003
 20
-11.619275114
 11
-32.000000000
 21
-11.169275093
  0
LINE
  8
MASS
  6
CONTINUOUS
 62
     4
 10
0.000000000
 20
-13.169275284
 11
0.000000000
 21
-3.500000000
  0
LINE
  8
MASS
  6
CONTINUOUS
 62
     4
 10
0.000000000
 20
-11.169275284
 11
-3.500000003
 21
-11.619275263
  0
LINE
  8
MASS
  6
CONTINUOUS
 62
     4
 10
-3.500000003
 20
-11.619275263
 11
-3.499999997
 21
-10.719275263
  0
LINE
  8
MASS
  6
CONTINUOUS
 62
     4
 10
-3.499999997
 20
-10.719275263
 11
0.000000000
 21
-11.169275284
  0
LINE
  8
MASS
  6
CONTINUOUS
 62
     4
 10
-28.500000000
 20
-11.169275114
 11
-3.500000000
 21
-11.169275263
  0
TEXT
  8
MASS
  6
CONTINUOUS
 62
     4
 10
-17.473281599
 20
-9.669275180
 40
3.500000000
  1
32
 50
359.999999658
 41
1.000
 51
0.000000000
  7
STANDARD
  0
LINE
  8
UNSICHT
  6
GESTRICHELT
 62
     1
 10
-32.000000000
 20
0.600000000
 11
15.044359721
 21
0.600000000
  0
LINE
  8
UNSICHT
  6
GESTRICHELT
 62
     1
 10
-32.000000000
 20
-0.600000000
 11
15.737180045
 21
-0.600000000
  0
TEXT
  8
MASS
  6
GESTRICHELT
 62
     4
 10
-18.632832982
 20
4.701510989
 40
3.500000000
  1
615.530
 50
0.000000000
 41
1.000
 51
0.000000000
  7
STANDARD
  0
LINE
  8
AUFNAHME
  6
CONTINUOUS
 62
     7
 10
14.572234606
 20
1.417744688
 11
13.370043941
 21
3.500000000
  0
LINE
  8
AUFNAHME
  6
CONTINUOUS
 62
     7
 10
10.698098366
 20
1.417744688
 11
14.572234606
 21
1.417744688
  0
LINE
  8
AUFNAHME
  6
CONTINUOUS
 62
     7
 10
10.698098366
 20
-1.417744688
 11
10.698098366
 21
1.417744688
  0
LINE
  8
AUFNAHME
  6
CONTINUOUS
 62
     7
 10
16.562641943
 20
-1.417744688
 11
10.698098366
 21
-1.417744688
  0
ARC
  8
AUFNAHME
  6
CONTINUOUS
 62
     7
 10
17.498098365
 20
0.350000000
 40
2.000000000
 50
-117.886930582
 51
-90.000000000
  0
LINE
  8
AUFNAHME
  6
CONTINUOUS
 62
     7
 10
18.890761978
 20
-1.650000000
 11
17.498098365
 21
-1.650000000
  0
LINE
  8
AUFNAHME
  6
CONTINUOUS
 62
     7
 10
18.890761978
 20
-1.650000000
 11
18.890761978
 21
-2.303628010
  0
LINE
  8
AUFNAHME
  6
CONTINUOUS
 62
     7
 10
17.498098365
 20
-2.303628010
 11
18.890761978
 21
-2.303628010
  0
ARC
  8
AUFNAHME
  6
CONTINUOUS
 62
     7
 10
17.498098365
 20
-4.303628010
 40
2.000000000
 50
90.000000000
 51
135.000000000
  0
LINE
  8
AUFNAHME
  6
CONTINUOUS
 62
     7
 10
15.473299251
 20
-3.500000000
 11
16.083884803
 21
-2.889414447
  0
LINE
  8
AUFNAHME
  6
CONTINUOUS
 62
     7
 10
15.766047558
 20
-0.650000000
 11
14.572234606
 21
1.417744688
  0
ARC
  8
AUFNAHME
  6
CONTINUOUS
 62
     7
 10
17.498098365
 20
0.350000000
 40
2.000000000
 50
-150.000000000
 51
-117.886930581
  0
LINE
  8
AUFNAHME
  6
CONTINUOUS
 62
     7
 10
19.346026139
 20
-1.650000000
 11
19.372257275
 21
-1.623768864
  0
LINE
  8
AUFNAHME
  6
CONTINUOUS
 62
     7
 10
19.576841339
 20
-2.303628010
 11
20.000000000
 21
-1.578620046
  0
LINE
  8
AUFNAHME
  6
CONTINUOUS
 62
     7
 10
18.890761978
 20
-2.303628010
 11
19.576841339
 21
-2.303628010
  0
LINE
  8
AUFNAHME
  6
CONTINUOUS
 62
     7
 10
18.890761978
 20
-1.650000000
 11
19.346026139
 21
-1.650000000
  0
LINE
  8
AUFNAHME
  6
CONTINUOUS
 62
     7
 10
19.448098366
 20
-1.547927773
 11
19.952293521
 21
-1.503816413
  0
ARC
  8
AUFNAHME
  6
CONTINUOUS
 62
     7
 10
19.956742615
 20
-1.553593343
 40
0.049975366
 50
-30.051669228
 51
95.107560907
  0
LINE
  8
AUFNAHME
  6
CONTINUOUS
 62
     7
 10
19.372257275
 20
-1.623768864
 11
19.448098366
 21
-1.547927773
  0
ARC
  8
AUFNAHME
  6
CONTINUOUS
 62
     7
 10
22.271811522
 20
-37.552160195
 40
36.045203821
 50
93.613561030
 51
94.613981861
  0
LINE
  8
MASS
  6
CONTINUOUS
 62
     4
 10
0.000000000
 20
-13.156163216
 11
0.000000000
 21
-3.500000000
  0
LINE
  8
MASS
  6
CONTINUOUS
 62
     4
 10
0.000000000
 20
-11.156163216
 11
3.500000002
 21
-10.706163231
  0
LINE
  8
MASS
  6
CONTINUOUS
 62
     4
 10
3.500000002
 20
-10.706163231
 11
3.499999998
 21
-11.606163231
  0
LINE
  8
MASS
  6
CONTINUOUS
 62
     4
 10
3.499999998
 20
-11.606163231
 11
0.000000000
 21
-11.156163216
  0
LINE
  8
MASS
  6
CONTINUOUS
 62
     4
 10
20.000000000
 20
-13.156163304
 11
20.000000000
 21
-1.578620046
  0
LINE
  8
MASS
  6
CONTINUOUS
 62
     4
 10
20.000000000
 20
-11.156163304
 11
16.499999998
 21
-11.606163289
  0
LINE
  8
MASS
  6
CONTINUOUS
 62
     4
 10
16.499999998
 20
-11.606163289
 11
16.500000002
 21
-10.706163289
  0
LINE
  8
MASS
  6
CONTINUOUS
 62
     4
 10
16.500000002
 20
-10.706163289
 11
20.000000000
 21
-11.156163304
  0
LINE
  8
MASS
  6
CONTINUOUS
 62
     4
 10
3.500000000
 20
-11.156163231
 11
16.500000000
 21
-11.156163289
  0
TEXT
  8
MASS
  6
CONTINUOUS
 62
     4
 10
8.335312283
 20
-9.656163253
 40
3.500000000
  1
20
 50
359.999999746
 41
1.000
 51
0.000000000
  7
STANDARD
  0
LINE
  8
MASS
  6
CONTINUOUS
 62
     4
 10
-32.000000000
 20
19.605052757
 11
-32.000000000
 21
3.300000000
  0
LINE
  8
MASS
  6
CONTINUOUS
 62
     4
 10
-32.000000000
 20
17.605052757
 11
-28.499999993
 21
18.055052700
  0
LINE
  8
MASS
  6
CONTINUOUS
 62
     4
 10
-28.499999993
 20
18.055052700
 11
-28.500000007
 21
17.155052700
  0
LINE
  8
MASS
  6
CONTINUOUS
 62
     4
 10
-28.500000007
 20
17.155052700
 11
-32.000000000
 21
17.605052757
  0
LINE
  8
MASS
  6
CONTINUOUS
 62
     4
 10
20.000000000
 20
19.605051906
 11
20.000000000
 21
-1.578620046
  0
LINE
  8
MASS
  6
CONTINUOUS
 62
     4
 10
20.000000000
 20
17.605051906
 11
16.499999993
 21
17.155051963
  0
LINE
  8
MASS
  6
CONTINUOUS
 62
     4
 10
16.499999993
 20
17.155051963
 11
16.500000007
 21
18.055051963
  0
LINE
  8
MASS
  6
CONTINUOUS
 62
     4
 10
16.500000007
 20
18.055051963
 11
20.000000000
 21
17.605051906
  0
LINE
  8
MASS
  6
CONTINUOUS
 62
     4
 10
-28.500000000
 20
17.605052700
 11
16.500000000
 21
17.605051963
  0
TEXT
  8
MASS
  6
CONTINUOUS
 62
     4
 10
-7.555313057
 20
19.105052357
 40
3.500000000
  1
52
 50
359.999999062
 41
1.000
 51
0.000000000
  7
STANDARD
  0
TEXT
  8
MASS
  6
CONTINUOUS
 62
     4
 10
-8.384688057
 20
19.105052371
 40
3.500000000
  1
(
 50
359.999999062
 41
1.000
 51
0.000000000
  7
STANDARD
  0
TEXT
  8
MASS
  6
CONTINUOUS
 62
     4
 10
-3.444688057
 20
19.105052290
 40
3.500000000
  1
)
 50
359.999999062
 41
1.000
 51
0.000000000
  7
STANDARD
  0
LINE
  8
MASS
  6
CONTINUOUS
 62
     4
 10
32.346631204
 20
-1.503815871
 11
19.952293521
 21
-1.503816413
  0
LINE
  8
MASS
  6
CONTINUOUS
 62
     4
 10
30.346631204
 20
-1.503815958
 11
29.896631357
 21
-5.003815978
  0
LINE
  8
MASS
  6
CONTINUOUS
 62
     4
 10
29.896631357
 20
-5.003815978
 11
30.796631357
 21
-5.003815939
  0
LINE
  8
MASS
  6
CONTINUOUS
 62
     4
 10
30.796631357
 20
-5.003815939
 11
30.346631204
 21
-1.503815958
  0
LINE
  8
MASS
  6
CONTINUOUS
 62
     4
 10
30.346631357
 20
-5.003815958
 11
30.346631834
 21
-15.930764716
  0
LINE
  8
MASS
  6
CONTINUOUS
 62
     4
 10
30.346631204
 20
-1.503815958
 11
30.346631072
 21
1.503816833
  0
CIRCLE
  8
MASS
  6
CONTINUOUS
 62
     4
 10
27.694849472
 20
-11.180764832
 40
1.250000000
  0
LINE
  8
MASS
  6
CONTINUOUS
 62
     4
 10
28.944849526
 20
-12.430764777
 11
26.444849417
 21
-9.930764886
  0
TEXT
  8
MASS
  6
CONTINUOUS
 62
     4
 10
28.944849373
 20
-8.930764777
 40
3.500000000
  1
0-3
 50
90.000002504
 41
1.000
 51
0.000000000
  7
STANDARD
  0
LINE
  8
MASS
  6
CONTINUOUS
 62
     4
 10
17.498098365
 20
11.931246376
 11
17.498098365
 21
-1.650000000
  0
LINE
  8
MASS
  6
CONTINUOUS
 62
     4
 10
17.498098365
 20
9.931246376
 11
13.998098313
 21
10.381245966
  0
LINE
  8
MASS
  6
CONTINUOUS
 62
     4
 10
13.998098313
 20
10.381245966
 11
13.998098418
 21
9.481245966
  0
LINE
  8
MASS
  6
CONTINUOUS
 62
     4
 10
13.998098418
 20
9.481245966
 11
17.498098365
 21
9.931246376
  0
LINE
  8
MASS
  6
CONTINUOUS
 62
     4
 10
13.998098366
 20
9.931245966
 11
9.998098366
 21
9.931245498
  0
LINE
  8
MASS
  6
CONTINUOUS
 62
     4
 10
20.000000000
 20
11.931246669
 11
20.000000000
 21
-1.578620046
  0
LINE
  8
MASS
  6
CONTINUOUS
 62
     4
 10
20.000000000
 20
9.931246669
 11
23.500000053
 21
9.481247079
  0
LINE
  8
MASS
  6
CONTINUOUS
 62
     4
 10
23.500000053
 20
9.481247079
 11
23.499999947
 21
10.381247079
  0
LINE
  8
MASS
  6
CONTINUOUS
 62
     4
 10
23.499999947
 20
10.381247079
 11
20.000000000
 21
9.931246669
  0
LINE
  8
MASS
  6
CONTINUOUS
 62
     4
 10
23.500000000
 20
9.931247079
 11
28.544279308
 21
9.931247669
  0
LINE
  8
MASS
  6
CONTINUOUS
 62
     4
 10
17.498098365
 20
9.931246376
 11
20.000000000
 21
9.931246669
  0
TEXT
  8
MASS
  6
CONTINUOUS
 62
     4
 10
24.449279162
 20
11.183058217
 40
3.500000000
  1
2.5
 50
0.000006706
 41
1.000
 51
0.000000000
  7
STANDARD
  0
ENDSEC
  0
EOF
