999
NT  : 16.0 - 919
  0
SECTION
  2
HEADER
  9
$ACADVER
  1
AC1006
  9
$INSBASE
 10
0.000000000
 20
0.000000000
  9
$EXTMIN
 10
-44.829036172
 20
-15.118052153
  9
$EXTMAX
 10
31.153858570
 20
24.029759898
  9
$LIMMIN
 10
-44.829036172
 20
-15.118052153
  9
$LIMMAX
 10
31.153858570
 20
24.029759898
  9
$AUNITS
 70
     2
  9
$ANGBASE
 50
0.000
  9
$ANGDIR
 70
     0
  0
ENDSEC
  0
SECTION
  2
TABLES
  0
TABLE
  2
LTYPE
 70
     8
  0
LTYPE
  2
PUNKT
 70
    64
  3
..............
 72
    65
 73
     2
 40
1.500
 49
0.700
 49
-0.800
  0
LTYPE
  2
GESTRICHELT
 70
    64
  3
-- -- -- -- --
 72
    65
 73
     7
 40
2.800
 49
0.900
 49
0.000
 49
0.900
 49
0.000
 49
0.200
 49
0.000
 49
-0.800
  0
LTYPE
  2
STRICHPUNKT
 70
    64
  3
--.--.--.--.--
 72
    65
 73
     4
 40
8.800
 49
5.500
 49
-1.300
 49
0.700
 49
-1.300
  0
LTYPE
  2
STRICHPUNKT
 70
    64
  3
--.--.--.--.--
 72
    65
 73
     4
 40
8.800
 49
5.500
 49
-1.300
 49
0.700
 49
-1.300
  0
LTYPE
  2
STRICHPUNKT
 70
    64
  3
--.--.--.--.--
 72
    65
 73
     4
 40
8.800
 49
5.500
 49
-1.300
 49
0.700
 49
-1.300
  0
LTYPE
  2
PHANTOM
 70
    64
  3
--..--..--..--
 72
    65
 73
     6
 40
14.200
 49
7.000
 49
-1.800
 49
0.900
 49
-1.800
 49
0.900
 49
-1.800
  0
LTYPE
  2
PHANTOM
 70
    64
  3
--..--..--..--
 72
    65
 73
     6
 40
14.200
 49
7.000
 49
-1.800
 49
0.900
 49
-1.800
 49
0.900
 49
-1.800
  0
LTYPE
  2
PHANTOM
 70
    64
  3
--..--..--..--
 72
    65
 73
     6
 40
14.200
 49
7.000
 49
-1.800
 49
0.900
 49
-1.800
 49
0.900
 49
-1.800
  0
ENDTAB
  0
ENDSEC
  0
SECTION
  2
BLOCKS
  0
ENDSEC
  0
SECTION
  2
ENTITIES
  0
LINE
  8
ZAPFEN
  6
CONTINUOUS
 62
     4
 10
-31.800000000
 20
-3.500000000
 11
0.000000000
 21
-3.500000000
  0
LINE
  8
AUFNAHME
  6
CONTINUOUS
 62
     7
 10
0.000000000
 20
-3.500000000
 11
11.400000000
 21
-3.500000000
  0
LINE
  8
AUFNAHME
  6
CONTINUOUS
 62
     7
 10
11.400000000
 20
3.500000000
 11
0.000000000
 21
3.500000000
  0
LINE
  8
ZAPFEN
  6
CONTINUOUS
 62
     4
 10
0.000000000
 20
3.500000000
 11
-31.800000000
 21
3.500000000
  0
LINE
  8
ZAPFEN
  6
CONTINUOUS
 62
     4
 10
-31.800000000
 20
3.500000000
 11
-32.000000000
 21
3.300000000
  0
LINE
  8
ZAPFEN
  6
CONTINUOUS
 62
     4
 10
-32.000000000
 20
-3.300000000
 11
-31.800000000
 21
-3.500000000
  0
LINE
  8
ZAPFEN
  6
CONTINUOUS
 62
     4
 10
-31.800000000
 20
3.500000000
 11
-31.800000000
 21
-3.500000000
  0
LINE
  8
ZAPFEN
  6
CONTINUOUS
 62
     4
 10
-32.000000000
 20
-3.300000000
 11
-32.000000000
 21
3.300000000
  0
LINE
  8
UNSICHT
  6
STRICHPUNKT
 62
     1
 10
-32.566716128
 20
0.000000000
 11
19.636195352
 21
0.000000000
  0
LINE
  8
MASS
  6
CONTINUOUS
 62
     4
 10
-40.566319275
 20
-3.500000000
 11
-31.800000000
 21
-3.500000000
  0
LINE
  8
MASS
  6
CONTINUOUS
 62
     4
 10
-38.566319275
 20
-3.500000000
 11
-39.016319275
 21
-7.000000000
  0
LINE
  8
MASS
  6
CONTINUOUS
 62
     4
 10
-39.016319275
 20
-7.000000000
 11
-38.116319275
 21
-7.000000000
  0
LINE
  8
MASS
  6
CONTINUOUS
 62
     4
 10
-38.116319275
 20
-7.000000000
 11
-38.566319275
 21
-3.500000000
  0
LINE
  8
MASS
  6
CONTINUOUS
 62
     4
 10
-38.566319275
 20
-7.000000000
 11
-38.566319275
 21
-11.000000000
  0
LINE
  8
MASS
  6
CONTINUOUS
 62
     4
 10
-40.566319275
 20
3.500000000
 11
-31.800000000
 21
3.500000000
  0
LINE
  8
MASS
  6
CONTINUOUS
 62
     4
 10
-38.566319275
 20
3.500000000
 11
-38.116319275
 21
7.000000000
  0
LINE
  8
MASS
  6
CONTINUOUS
 62
     4
 10
-38.116319275
 20
7.000000000
 11
-39.016319275
 21
7.000000000
  0
LINE
  8
MASS
  6
CONTINUOUS
 62
     4
 10
-39.016319275
 20
7.000000000
 11
-38.566319275
 21
3.500000000
  0
LINE
  8
MASS
  6
CONTINUOUS
 62
     4
 10
-38.566319275
 20
7.000000000
 11
-38.566319275
 21
11.000000000
  0
LINE
  8
MASS
  6
CONTINUOUS
 62
     4
 10
-38.566319275
 20
-3.500000000
 11
-38.566319275
 21
3.500000000
  0
TEXT
  8
MASS
  6
CONTINUOUS
 62
     4
 10
-40.066319275
 20
1.206406172
 40
3.500000000
  1
7
 50
90.000000000
 41
1.000
 51
0.000000000
  7
STANDARD
  0
CIRCLE
  8
MASS
  6
CONTINUOUS
 62
     4
 10
-41.316319275
 20
-1.043593828
 40
1.250000000
  0
LINE
  8
MASS
  6
CONTINUOUS
 62
     4
 10
-40.066319275
 20
-2.293593828
 11
-42.566319275
 21
0.206406172
  0
LINE
  8
MASS
  6
CONTINUOUS
 62
     4
 10
-32.000000000
 20
20.645957756
 11
-32.000000000
 21
3.300000000
  0
LINE
  8
MASS
  6
CONTINUOUS
 62
     4
 10
-32.000000000
 20
18.645957756
 11
-28.500000001
 21
19.095957764
  0
LINE
  8
MASS
  6
CONTINUOUS
 62
     4
 10
-28.500000001
 20
19.095957764
 11
-28.499999999
 21
18.195957764
  0
LINE
  8
MASS
  6
CONTINUOUS
 62
     4
 10
-28.499999999
 20
18.195957764
 11
-32.000000000
 21
18.645957756
  0
LINE
  8
MASS
  6
CONTINUOUS
 62
     4
 10
19.299999349
 20
20.645957874
 11
19.299999349
 21
0.200254367
  0
LINE
  8
MASS
  6
CONTINUOUS
 62
     4
 10
19.299999349
 20
18.645957874
 11
15.799999350
 21
18.195957866
  0
LINE
  8
MASS
  6
CONTINUOUS
 62
     4
 10
15.799999350
 20
18.195957866
 11
15.799999348
 21
19.095957866
  0
LINE
  8
MASS
  6
CONTINUOUS
 62
     4
 10
15.799999348
 20
19.095957866
 11
19.299999349
 21
18.645957874
  0
LINE
  8
MASS
  6
CONTINUOUS
 62
     4
 10
-28.500000000
 20
18.645957764
 11
15.799999349
 21
18.645957866
  0
TEXT
  8
MASS
  6
CONTINUOUS
 62
     4
 10
-7.905313402
 20
20.145957811
 40
3.500000000
  1
52
 50
0.000000132
 41
1.000
 51
0.000000000
  7
STANDARD
  0
LINE
  8
MASS
  6
CONTINUOUS
 62
     4
 10
16.800000000
 20
12.679683304
 11
16.800000000
 21
0.350000000
  0
LINE
  8
MASS
  6
CONTINUOUS
 62
     4
 10
16.800000000
 20
10.679683304
 11
13.299999968
 21
11.129683054
  0
LINE
  8
MASS
  6
CONTINUOUS
 62
     4
 10
13.299999968
 20
11.129683054
 11
13.300000032
 21
10.229683054
  0
LINE
  8
MASS
  6
CONTINUOUS
 62
     4
 10
13.300000032
 20
10.229683054
 11
16.800000000
 21
10.679683304
  0
LINE
  8
MASS
  6
CONTINUOUS
 62
     4
 10
13.300000000
 20
10.679683054
 11
9.300000000
 21
10.679682769
  0
LINE
  8
MASS
  6
CONTINUOUS
 62
     4
 10
19.299752055
 20
12.679683482
 11
19.299752055
 21
0.204973018
  0
LINE
  8
MASS
  6
CONTINUOUS
 62
     4
 10
19.299752055
 20
10.679683482
 11
22.799752087
 21
10.229683732
  0
LINE
  8
MASS
  6
CONTINUOUS
 62
     4
 10
22.799752087
 20
10.229683732
 11
22.799752023
 21
11.129683732
  0
LINE
  8
MASS
  6
CONTINUOUS
 62
     4
 10
22.799752023
 20
11.129683732
 11
19.299752055
 21
10.679683482
  0
LINE
  8
MASS
  6
CONTINUOUS
 62
     4
 10
22.799752055
 20
10.679683732
 11
28.347223311
 21
10.679684128
  0
LINE
  8
MASS
  6
CONTINUOUS
 62
     4
 10
16.800000000
 20
10.679683304
 11
19.299752055
 21
10.679683482
  0
TEXT
  8
MASS
  6
CONTINUOUS
 62
     4
 10
24.252223190
 20
12.376464875
 40
3.500000000
  1
2.5
 50
0.000004089
 41
1.000
 51
0.000000000
  7
STANDARD
  0
LINE
  8
MASS
  6
CONTINUOUS
 62
     4
 10
-32.000000000
 20
-13.809224892
 11
-32.000000000
 21
-3.300000000
  0
LINE
  8
MASS
  6
CONTINUOUS
 62
     4
 10
-32.000000000
 20
-11.809224892
 11
-28.499999997
 21
-11.359224913
  0
LINE
  8
MASS
  6
CONTINUOUS
 62
     4
 10
-28.499999997
 20
-11.359224913
 11
-28.500000003
 21
-12.259224913
  0
LINE
  8
MASS
  6
CONTINUOUS
 62
     4
 10
-28.500000003
 20
-12.259224913
 11
-32.000000000
 21
-11.809224892
  0
LINE
  8
MASS
  6
CONTINUOUS
 62
     4
 10
0.000000000
 20
-13.809225082
 11
0.000000000
 21
-3.500000000
  0
LINE
  8
MASS
  6
CONTINUOUS
 62
     4
 10
0.000000000
 20
-11.809225082
 11
-3.500000003
 21
-12.259225062
  0
LINE
  8
MASS
  6
CONTINUOUS
 62
     4
 10
-3.500000003
 20
-12.259225062
 11
-3.499999997
 21
-11.359225062
  0
LINE
  8
MASS
  6
CONTINUOUS
 62
     4
 10
-3.499999997
 20
-11.359225062
 11
0.000000000
 21
-11.809225082
  0
LINE
  8
MASS
  6
CONTINUOUS
 62
     4
 10
-28.500000000
 20
-11.809224913
 11
-3.500000000
 21
-11.809225062
  0
TEXT
  8
MASS
  6
CONTINUOUS
 62
     4
 10
-17.473281599
 20
-10.309224978
 40
3.500000000
  1
32
 50
359.999999658
 41
1.000
 51
0.000000000
  7
STANDARD
  0
LINE
  8
MASS
  6
CONTINUOUS
 62
     4
 10
0.000000000
 20
-13.817449570
 11
0.000000000
 21
-3.500000000
  0
LINE
  8
MASS
  6
CONTINUOUS
 62
     4
 10
0.000000000
 20
-11.817449570
 11
3.500000005
 21
-11.367449607
  0
LINE
  8
MASS
  6
CONTINUOUS
 62
     4
 10
3.500000005
 20
-11.367449607
 11
3.499999995
 21
-12.267449607
  0
LINE
  8
MASS
  6
CONTINUOUS
 62
     4
 10
3.499999995
 20
-12.267449607
 11
0.000000000
 21
-11.817449570
  0
LINE
  8
MASS
  6
CONTINUOUS
 62
     4
 10
19.299752055
 20
-13.817449773
 11
19.299752055
 21
0.204973018
  0
LINE
  8
MASS
  6
CONTINUOUS
 62
     4
 10
19.299752055
 20
-11.817449773
 11
15.799752050
 21
-12.267449736
  0
LINE
  8
MASS
  6
CONTINUOUS
 62
     4
 10
15.799752050
 20
-12.267449736
 11
15.799752060
 21
-11.367449736
  0
LINE
  8
MASS
  6
CONTINUOUS
 62
     4
 10
15.799752060
 20
-11.367449736
 11
19.299752055
 21
-11.817449773
  0
LINE
  8
MASS
  6
CONTINUOUS
 62
     4
 10
3.500000000
 20
-11.817449607
 11
15.799752055
 21
-11.817449736
  0
TEXT
  8
MASS
  6
CONTINUOUS
 62
     4
 10
7.985188328
 20
-10.317449654
 40
3.500000000
  1
20
 50
359.999999397
 41
1.000
 51
0.000000000
  7
STANDARD
  0
LINE
  8
UNSICHT
  6
GESTRICHELT
 62
     1
 10
-32.000000000
 20
0.600000000
 11
12.855339084
 21
0.600000000
  0
LINE
  8
UNSICHT
  6
GESTRICHELT
 62
     1
 10
-32.000000000
 20
-0.600000000
 11
12.835991018
 21
-0.600000000
  0
LINE
  8
MASS
  6
CONTINUOUS
 62
     4
 10
31.891141345
 20
0.248300869
 11
19.262787272
 21
0.248300317
  0
LINE
  8
MASS
  6
CONTINUOUS
 62
     4
 10
29.891141345
 20
0.248300782
 11
30.341141192
 21
3.748300802
  0
LINE
  8
MASS
  6
CONTINUOUS
 62
     4
 10
30.341141192
 20
3.748300802
 11
29.441141192
 21
3.748300762
  0
LINE
  8
MASS
  6
CONTINUOUS
 62
     4
 10
29.441141192
 20
3.748300762
 11
29.891141345
 21
0.248300782
  0
LINE
  8
MASS
  6
CONTINUOUS
 62
     4
 10
29.891141192
 20
3.748300782
 11
29.891141017
 21
7.748300782
  0
LINE
  8
MASS
  6
CONTINUOUS
 62
     4
 10
29.891141672
 20
-7.248299069
 11
29.891141345
 21
0.248300782
  0
CIRCLE
  8
MASS
  6
CONTINUOUS
 62
     4
 10
27.333821231
 20
-13.484249976
 40
1.250000000
  0
LINE
  8
MASS
  6
CONTINUOUS
 62
     4
 10
28.583821286
 20
-14.734249921
 11
26.083821176
 21
-12.234250030
  0
TEXT
  8
MASS
  6
CONTINUOUS
 62
     4
 10
28.583821133
 20
-11.234249921
 40
3.500000000
  1
0.4-0.9
 50
90.000002504
 41
1.000
 51
0.000000000
  7
STANDARD
  0
TEXT
  8
MASS
  6
CONTINUOUS
 62
     4
 10
-18.905455945
 20
5.263686471
 40
3.500000000
  1
615.522
 50
0.000000000
 41
1.000
 51
0.000000000
  7
STANDARD
  0
ARC
  8
AUFNAHME
  6
CONTINUOUS
 62
     7
 10
16.700000000
 20
-6.017537313
 40
5.867537313
 50
90.000000000
 51
154.591952772
  0
ARC
  8
AUFNAHME
  6
CONTINUOUS
 62
     7
 10
16.700000000
 20
6.017537313
 40
5.867537313
 50
-154.591952772
 51
-90.000000000
  0
LINE
  8
AUFNAHME
  6
CONTINUOUS
 62
     7
 10
16.700000000
 20
-0.150000000
 11
18.782842712
 21
-0.150000000
  0
LINE
  8
AUFNAHME
  6
CONTINUOUS
 62
     7
 10
18.782842712
 20
0.150000000
 11
16.700000000
 21
0.150000000
  0
LINE
  8
AUFNAHME
  6
CONTINUOUS
 62
     7
 10
11.400000000
 20
-3.500000000
 11
11.400000000
 21
3.500000000
  0
LINE
  8
AUFNAHME
  6
CONTINUOUS
 62
     7
 10
12.372461073
 20
0.371247482
 11
12.314103579
 21
0.219310358
  0
LINE
  8
AUFNAHME
  6
CONTINUOUS
 62
     7
 10
12.314103579
 20
0.219310358
 11
12.288361043
 21
0.040386554
  0
LINE
  8
AUFNAHME
  6
CONTINUOUS
 62
     7
 10
12.288361043
 20
0.040386554
 11
12.297049002
 21
-0.133475891
  0
LINE
  8
AUFNAHME
  6
CONTINUOUS
 62
     7
 10
12.297049002
 20
-0.133475891
 11
12.335655716
 21
-0.289230338
  0
LINE
  8
AUFNAHME
  6
CONTINUOUS
 62
     7
 10
12.335655716
 20
-0.289230338
 11
12.404290304
 21
-0.422506153
  0
LINE
  8
AUFNAHME
  6
CONTINUOUS
 62
     7
 10
12.404290304
 20
-0.422506153
 11
12.507868468
 21
-0.526166722
  0
LINE
  8
AUFNAHME
  6
CONTINUOUS
 62
     7
 10
12.507868468
 20
-0.526166722
 11
12.694483992
 21
-0.595392953
  0
LINE
  8
AUFNAHME
  6
CONTINUOUS
 62
     7
 10
12.694483992
 20
-0.595392953
 11
12.835991018
 21
-0.596646959
  0
LINE
  8
AUFNAHME
  6
CONTINUOUS
 62
     7
 10
12.835991018
 20
-0.596646959
 11
12.985744411
 21
-0.569432167
  0
LINE
  8
AUFNAHME
  6
CONTINUOUS
 62
     7
 10
12.985744411
 20
-0.569432167
 11
13.194393954
 21
-0.497810086
  0
LINE
  8
AUFNAHME
  6
CONTINUOUS
 62
     7
 10
13.194393954
 20
-0.497810086
 11
13.404992995
 21
-0.390939024
  0
LINE
  8
AUFNAHME
  6
CONTINUOUS
 62
     7
 10
13.404992995
 20
-0.390939024
 11
13.544318738
 21
-0.297209693
  0
LINE
  8
AUFNAHME
  6
CONTINUOUS
 62
     7
 10
13.544318738
 20
-0.297209693
 11
13.682647319
 21
-0.161081581
  0
LINE
  8
AUFNAHME
  6
CONTINUOUS
 62
     7
 10
13.682647319
 20
-0.161081581
 11
13.724278484
 21
-0.088110407
  0
LINE
  8
AUFNAHME
  6
CONTINUOUS
 62
     7
 10
13.724278484
 20
-0.088110407
 11
13.742252308
 21
-0.003919616
  0
LINE
  8
AUFNAHME
  6
CONTINUOUS
 62
     7
 10
13.742252308
 20
-0.003919616
 11
13.730810294
 21
0.070287438
  0
LINE
  8
AUFNAHME
  6
CONTINUOUS
 62
     7
 10
13.730810294
 20
0.070287438
 11
13.686558104
 21
0.155645721
  0
LINE
  8
AUFNAHME
  6
CONTINUOUS
 62
     7
 10
13.686558104
 20
0.155645721
 11
13.563648548
 21
0.281905140
  0
LINE
  8
AUFNAHME
  6
CONTINUOUS
 62
     7
 10
13.563648548
 20
0.281905140
 11
13.399617437
 21
0.394728941
  0
LINE
  8
AUFNAHME
  6
CONTINUOUS
 62
     7
 10
13.399617437
 20
0.394728941
 11
13.229104051
 21
0.482183416
  0
LINE
  8
AUFNAHME
  6
CONTINUOUS
 62
     7
 10
13.229104051
 20
0.482183416
 11
13.039118992
 21
0.554500017
  0
LINE
  8
AUFNAHME
  6
CONTINUOUS
 62
     7
 10
13.039118992
 20
0.554500017
 11
12.855339084
 21
0.594556246
  0
LINE
  8
AUFNAHME
  6
CONTINUOUS
 62
     7
 10
12.855339084
 20
0.594556246
 11
12.619624196
 21
0.579557287
  0
LINE
  8
AUFNAHME
  6
CONTINUOUS
 62
     7
 10
12.619624196
 20
0.579557287
 11
12.462353511
 21
0.489446819
  0
LINE
  8
AUFNAHME
  6
CONTINUOUS
 62
     7
 10
12.462353511
 20
0.489446819
 11
12.372461073
 21
0.371247482
  0
ARC
  8
AUFNAHME
  6
CONTINUOUS
 62
     7
 10
18.752477212
 20
-0.334976517
 40
0.485926214
 50
86.417255760
 51
103.211406673
  0
ARC
  8
AUFNAHME
  6
CONTINUOUS
 62
     7
 10
18.700000000
 20
0.000000000
 40
0.150000000
 50
112.987126296
 51
-112.987126296
  0
ARC
  8
AUFNAHME
  6
CONTINUOUS
 62
     7
 10
18.741111312
 20
0.200028436
 40
0.352507327
 50
-106.427538534
 51
-83.201123899
  0
LINE
  8
AUFNAHME
  6
CONTINUOUS
 62
     7
 10
18.936904684
 20
-0.150000000
 11
18.782842712
 21
-0.150000000
  0
ARC
  8
AUFNAHME
  6
CONTINUOUS
 62
     7
 10
18.989579563
 20
-0.290029890
 40
0.149609535
 50
86.258728209
 51
110.614734844
  0
ARC
  8
AUFNAHME
  6
CONTINUOUS
 62
     7
 10
19.308157038
 20
4.579887851
 40
4.730717340
 50
-93.742857979
 51
-91.527050776
  0
ARC
  8
AUFNAHME
  6
CONTINUOUS
 62
     7
 10
18.900791759
 20
0.395354485
 40
0.256006326
 50
-106.586015405
 51
-99.463425700
  0
LINE
  8
AUFNAHME
  6
CONTINUOUS
 62
     7
 10
18.782842712
 20
0.150000000
 11
18.827713613
 21
0.150000000
  0
ARC
  8
AUFNAHME
  6
CONTINUOUS
 62
     7
 10
19.150208107
 20
0.150189947
 40
0.049716584
 50
39.415506259
 51
77.166933870
  0
ARC
  8
AUFNAHME
  6
CONTINUOUS
 62
     7
 10
19.150000000
 20
0.150000000
 40
0.050000000
 50
0.000000000
 51
41.885612185
  0
LINE
  8
AUFNAHME
  6
CONTINUOUS
 62
     7
 10
19.187223961
 20
0.183382281
 11
19.187223961
 21
0.183382281
  0
LINE
  8
AUFNAHME
  6
CONTINUOUS
 62
     7
 10
19.187223961
 20
0.183382281
 11
19.199726019
 21
0.149033160
  0
LINE
  8
AUFNAHME
  6
CONTINUOUS
 62
     7
 10
18.886297209
 20
0.169848138
 11
18.887690596
 21
0.171402562
  0
LINE
  8
AUFNAHME
  6
CONTINUOUS
 62
     7
 10
18.887690596
 20
0.171402562
 11
19.161250719
 21
0.198664678
  0
LINE
  8
AUFNAHME
  6
CONTINUOUS
 62
     7
 10
19.199982883
 20
0.150530127
 11
19.182109411
 21
-0.148368119
  0
ARC
  8
AUFNAHME
  6
CONTINUOUS
 62
     7
 10
18.679751578
 20
0.353236292
 40
0.276210631
 50
-49.618920199
 51
-41.601297062
  0
LINE
  8
AUFNAHME
  6
CONTINUOUS
 62
     7
 10
18.936904684
 20
-0.150000000
 11
18.827713613
 21
0.150000000
  0
ENDSEC
  0
EOF
