999
NT  : 16.0 - 919
  0
SECTION
  2
HEADER
  9
$ACADVER
  1
AC1006
  9
$INSBASE
 10
0.000000000
 20
0.000000000
  9
$EXTMIN
 10
-42.340072509
 20
-22.883307408
  9
$EXTMAX
 10
32.488150565
 20
24.786947454
  9
$LIMMIN
 10
-42.340072509
 20
-22.883307408
  9
$LIMMAX
 10
32.488150565
 20
24.786947454
  9
$AUNITS
 70
     2
  9
$ANGBASE
 50
0.000
  9
$ANGDIR
 70
     0
  0
ENDSEC
  0
SECTION
  2
TABLES
  0
TABLE
  2
LTYPE
 70
     8
  0
LTYPE
  2
PUNKT
 70
    64
  3
..............
 72
    65
 73
     2
 40
1.500
 49
0.700
 49
-0.800
  0
LTYPE
  2
GESTRICHELT
 70
    64
  3
-- -- -- -- --
 72
    65
 73
     7
 40
2.800
 49
0.900
 49
0.000
 49
0.900
 49
0.000
 49
0.200
 49
0.000
 49
-0.800
  0
LTYPE
  2
STRICHPUNKT
 70
    64
  3
--.--.--.--.--
 72
    65
 73
     4
 40
8.800
 49
5.500
 49
-1.300
 49
0.700
 49
-1.300
  0
LTYPE
  2
STRICHPUNKT
 70
    64
  3
--.--.--.--.--
 72
    65
 73
     4
 40
8.800
 49
5.500
 49
-1.300
 49
0.700
 49
-1.300
  0
LTYPE
  2
STRICHPUNKT
 70
    64
  3
--.--.--.--.--
 72
    65
 73
     4
 40
8.800
 49
5.500
 49
-1.300
 49
0.700
 49
-1.300
  0
LTYPE
  2
PHANTOM
 70
    64
  3
--..--..--..--
 72
    65
 73
     6
 40
14.200
 49
7.000
 49
-1.800
 49
0.900
 49
-1.800
 49
0.900
 49
-1.800
  0
LTYPE
  2
PHANTOM
 70
    64
  3
--..--..--..--
 72
    65
 73
     6
 40
14.200
 49
7.000
 49
-1.800
 49
0.900
 49
-1.800
 49
0.900
 49
-1.800
  0
LTYPE
  2
PHANTOM
 70
    64
  3
--..--..--..--
 72
    65
 73
     6
 40
14.200
 49
7.000
 49
-1.800
 49
0.900
 49
-1.800
 49
0.900
 49
-1.800
  0
ENDTAB
  0
ENDSEC
  0
SECTION
  2
BLOCKS
  0
ENDSEC
  0
SECTION
  2
ENTITIES
  0
LINE
  8
AUFNAHME
  6
CONTINUOUS
 62
     7
 10
11.500000000
 20
-3.126550000
 11
19.487133069
 21
-3.126523294
  0
LINE
  8
AUFNAHME
  6
CONTINUOUS
 62
     7
 10
13.992790228
 20
3.126527637
 11
11.500000000
 21
3.126550000
  0
LINE
  8
ZAPFEN
  6
CONTINUOUS
 62
     4
 10
-31.500000000
 20
3.500000000
 11
-31.700000000
 21
3.300000000
  0
LINE
  8
ZAPFEN
  6
CONTINUOUS
 62
     4
 10
-31.700000000
 20
-3.300000000
 11
-31.500000000
 21
-3.500000000
  0
LINE
  8
ZAPFEN
  6
CONTINUOUS
 62
     4
 10
-0.373450000
 20
3.500000000
 11
-31.500000000
 21
3.500000000
  0
LINE
  8
ZAPFEN
  6
CONTINUOUS
 62
     4
 10
-31.500000000
 20
-3.500000000
 11
-0.373450000
 21
-3.500000000
  0
LINE
  8
ZAPFEN
  6
CONTINUOUS
 62
     4
 10
-0.373450000
 20
-3.500000000
 11
0.000000000
 21
-3.126550000
  0
LINE
  8
ZAPFEN
  6
CONTINUOUS
 62
     4
 10
0.000000000
 20
3.126550000
 11
-0.373450000
 21
3.500000000
  0
LINE
  8
AUFNAHME
  6
CONTINUOUS
 62
     7
 10
11.500000000
 20
3.126550000
 11
0.000000000
 21
3.126550000
  0
LINE
  8
AUFNAHME
  6
CONTINUOUS
 62
     7
 10
0.000000000
 20
-3.126550000
 11
11.500000000
 21
-3.126550000
  0
LINE
  8
AUFNAHME
  6
CONTINUOUS
 62
     7
 10
16.531462258
 20
-0.375828437
 11
18.609091814
 21
-1.725056847
  0
LINE
  8
AUFNAHME
  6
CONTINUOUS
 62
     7
 10
15.040592389
 20
1.602622702
 11
16.531462258
 21
-0.375828437
  0
ARC
  8
AUFNAHME
  6
CONTINUOUS
 62
     7
 10
15.200319491
 20
1.722985707
 40
0.200000000
 50
117.000000000
 51
-143.000000000
  0
LINE
  8
AUFNAHME
  6
CONTINUOUS
 62
     7
 10
17.316802248
 20
3.025852782
 11
15.109521391
 21
1.901187012
  0
LINE
  8
AUFNAHME
  6
CONTINUOUS
 62
     7
 10
19.775626129
 20
3.327758393
 11
17.316802248
 21
3.025852782
  0
ARC
  8
AUFNAHME
  6
CONTINUOUS
 62
     7
 10
19.799999998
 20
3.129249163
 40
0.200000000
 50
-3.000000000
 51
97.000000000
  0
LINE
  8
AUFNAHME
  6
CONTINUOUS
 62
     7
 10
19.870074604
 20
0.644887791
 11
19.999725905
 21
3.118781971
  0
LINE
  8
AUFNAHME
  6
CONTINUOUS
 62
     7
 10
18.902120592
 20
-1.635468959
 11
19.870074604
 21
0.644887791
  0
ARC
  8
AUFNAHME
  6
CONTINUOUS
 62
     7
 10
18.718019621
 20
-1.557322734
 40
0.200000000
 50
-123.000000000
 51
-23.000000000
  0
CIRCLE
  8
AUFNAHME
  6
CONTINUOUS
 62
     7
 10
17.770877698
 20
0.953281900
 40
1.150000000
  0
LINE
  8
AUFNAHME
  6
CONTINUOUS
 62
     7
 10
17.254660967
 20
2.994190218
 11
14.106779910
 21
2.994190218
  0
LINE
  8
AUFNAHME
  6
CONTINUOUS
 62
     7
 10
13.951781374
 20
3.086288234
 11
13.960794876
 21
3.112008216
  0
LINE
  8
AUFNAHME
  6
CONTINUOUS
 62
     7
 10
13.960794876
 20
3.112008216
 11
13.979647617
 21
3.124905855
  0
LINE
  8
AUFNAHME
  6
CONTINUOUS
 62
     7
 10
13.979647617
 20
3.124905855
 11
14.008261918
 21
3.124928009
  0
LINE
  8
AUFNAHME
  6
CONTINUOUS
 62
     7
 10
13.511461011
 20
3.086288234
 11
13.951781374
 21
3.086288234
  0
ARC
  8
AUFNAHME
  6
CONTINUOUS
 62
     7
 10
12.924733764
 20
0.615125511
 40
2.539861033
 50
76.643598318
 51
81.415779516
  0
ARC
  8
AUFNAHME
  6
CONTINUOUS
 62
     7
 10
12.924733764
 20
0.615125511
 40
2.539861033
 50
98.583192465
 51
123.083860696
  0
LINE
  8
AUFNAHME
  6
CONTINUOUS
 62
     7
 10
16.141955097
 20
-2.743205254
 11
15.840997334
 21
-2.598675207
  0
LINE
  8
AUFNAHME
  6
CONTINUOUS
 62
     7
 10
15.840997334
 20
-2.598675207
 11
15.533118993
 21
-2.433481799
  0
LINE
  8
AUFNAHME
  6
CONTINUOUS
 62
     7
 10
15.533118993
 20
-2.433481799
 11
15.220768169
 21
-2.248938565
  0
LINE
  8
AUFNAHME
  6
CONTINUOUS
 62
     7
 10
15.220768169
 20
-2.248938565
 11
14.906428518
 21
-2.046512899
  0
LINE
  8
AUFNAHME
  6
CONTINUOUS
 62
     7
 10
14.906428518
 20
-2.046512899
 11
14.592599512
 21
-1.827814389
  0
LINE
  8
AUFNAHME
  6
CONTINUOUS
 62
     7
 10
14.592599512
 20
-1.827814389
 11
14.281776562
 21
-1.594582015
  0
LINE
  8
AUFNAHME
  6
CONTINUOUS
 62
     7
 10
14.281776562
 20
-1.594582015
 11
13.976431175
 21
-1.348670326
  0
LINE
  8
AUFNAHME
  6
CONTINUOUS
 62
     7
 10
13.976431175
 20
-1.348670326
 11
13.678991306
 21
-1.092034686
  0
LINE
  8
AUFNAHME
  6
CONTINUOUS
 62
     7
 10
13.678991306
 20
-1.092034686
 11
13.391822046
 21
-0.826715735
  0
LINE
  8
AUFNAHME
  6
CONTINUOUS
 62
     7
 10
13.391822046
 20
-0.826715735
 11
13.117206822
 21
-0.554823154
  0
LINE
  8
AUFNAHME
  6
CONTINUOUS
 62
     7
 10
13.117206822
 20
-0.554823154
 11
12.857329236
 21
-0.278518898
  0
LINE
  8
AUFNAHME
  6
CONTINUOUS
 62
     7
 10
12.857329236
 20
-0.278518898
 11
12.614255704
 21
0.000000000
  0
LINE
  8
AUFNAHME
  6
CONTINUOUS
 62
     7
 10
12.614255704
 20
0.000000000
 11
12.389919026
 21
0.278518898
  0
LINE
  8
AUFNAHME
  6
CONTINUOUS
 62
     7
 10
12.389919026
 20
0.278518898
 11
12.186103013
 21
0.554823154
  0
LINE
  8
AUFNAHME
  6
CONTINUOUS
 62
     7
 10
12.186103013
 20
0.554823154
 11
12.004428310
 21
0.826715735
  0
LINE
  8
AUFNAHME
  6
CONTINUOUS
 62
     7
 10
12.004428310
 20
0.826715735
 11
11.846339501
 21
1.092034686
  0
LINE
  8
AUFNAHME
  6
CONTINUOUS
 62
     7
 10
11.846339501
 20
1.092034686
 11
11.713093629
 21
1.348670326
  0
LINE
  8
AUFNAHME
  6
CONTINUOUS
 62
     7
 10
11.713093629
 20
1.348670326
 11
11.605750200
 21
1.594582015
  0
LINE
  8
AUFNAHME
  6
CONTINUOUS
 62
     7
 10
11.605750200
 20
1.594582015
 11
11.525162753
 21
1.827814389
  0
LINE
  8
AUFNAHME
  6
CONTINUOUS
 62
     7
 10
11.525162753
 20
1.827814389
 11
11.471972081
 21
2.046512899
  0
LINE
  8
AUFNAHME
  6
CONTINUOUS
 62
     7
 10
11.471972081
 20
2.046512899
 11
11.446601128
 21
2.248938565
  0
LINE
  8
AUFNAHME
  6
CONTINUOUS
 62
     7
 10
11.446601128
 20
2.248938565
 11
11.449251633
 21
2.433481799
  0
LINE
  8
AUFNAHME
  6
CONTINUOUS
 62
     7
 10
11.449251633
 20
2.433481799
 11
11.479902518
 21
2.598675207
  0
LINE
  8
AUFNAHME
  6
CONTINUOUS
 62
     7
 10
11.479902518
 20
2.598675207
 11
11.538310064
 21
2.743205254
  0
ARC
  8
AUFNAHME
  6
CONTINUOUS
 62
     7
 10
18.293745453
 20
3.603349394
 40
6.701414599
 50
-108.729155478
 51
-86.602692811
  0
LINE
  8
AUFNAHME
  6
CONTINUOUS
 62
     7
 10
19.487133069
 20
-3.086288234
 11
18.690867649
 21
-3.086288234
  0
ARC
  8
AUFNAHME
  6
CONTINUOUS
 62
     7
 10
14.498411692
 20
1.346147003
 40
1.497698132
 50
-163.873430760
 51
-116.126569240
  0
LINE
  8
AUFNAHME
  6
CONTINUOUS
 62
     7
 10
13.838891997
 20
0.001478469
 11
13.910763188
 21
-0.022730401
  0
LINE
  8
AUFNAHME
  6
CONTINUOUS
 62
     7
 10
13.910763188
 20
-0.022730401
 11
14.100492448
 21
-0.028969055
  0
LINE
  8
AUFNAHME
  6
CONTINUOUS
 62
     7
 10
14.100492448
 20
-0.028969055
 11
14.270830808
 21
0.054019904
  0
LINE
  8
AUFNAHME
  6
CONTINUOUS
 62
     7
 10
14.270830808
 20
0.054019904
 11
14.409296423
 21
0.219160153
  0
LINE
  8
AUFNAHME
  6
CONTINUOUS
 62
     7
 10
14.409296423
 20
0.219160153
 11
14.493164420
 21
0.450151150
  0
LINE
  8
AUFNAHME
  6
CONTINUOUS
 62
     7
 10
14.493164420
 20
0.450151150
 11
14.498587141
 21
0.653583697
  0
LINE
  8
AUFNAHME
  6
CONTINUOUS
 62
     7
 10
14.498587141
 20
0.653583697
 11
14.474304327
 21
0.761783118
  0
LINE
  8
AUFNAHME
  6
CONTINUOUS
 62
     7
 10
14.474304327
 20
0.761783118
 11
14.375301818
 21
0.948792560
  0
LINE
  8
AUFNAHME
  6
CONTINUOUS
 62
     7
 10
14.375301818
 20
0.948792560
 11
14.224009428
 21
1.095867907
  0
LINE
  8
AUFNAHME
  6
CONTINUOUS
 62
     7
 10
14.224009428
 20
1.095867907
 11
13.939134188
 21
1.245500353
  0
LINE
  8
AUFNAHME
  6
CONTINUOUS
 62
     7
 10
13.939134188
 20
1.245500353
 11
13.625802881
 21
1.317717248
  0
LINE
  8
AUFNAHME
  6
CONTINUOUS
 62
     7
 10
13.625802881
 20
1.317717248
 11
13.354700182
 21
1.312080795
  0
LINE
  8
AUFNAHME
  6
CONTINUOUS
 62
     7
 10
13.354700182
 20
1.312080795
 11
13.186128465
 21
1.253986320
  0
LINE
  8
AUFNAHME
  6
CONTINUOUS
 62
     7
 10
13.186128465
 20
1.253986320
 11
13.077996811
 21
1.142470002
  0
LINE
  8
AUFNAHME
  6
CONTINUOUS
 62
     7
 10
13.077996811
 20
1.142470002
 11
13.050331129
 21
1.010466698
  0
LINE
  8
AUFNAHME
  6
CONTINUOUS
 62
     7
 10
13.050331129
 20
1.010466698
 11
13.059647301
 21
0.930146136
  0
ARC
  8
AUFNAHME
  6
CONTINUOUS
 62
     7
 10
16.580842153
 20
-0.323707917
 40
0.750000000
 50
142.269218915
 51
-62.269218915
  0
LINE
  8
AUFNAHME
  6
CONTINUOUS
 62
     7
 10
18.700415580
 20
-1.756546471
 11
19.590746218
 21
-2.334733948
  0
LINE
  8
AUFNAHME
  6
CONTINUOUS
 62
     7
 10
19.551959377
 20
-3.074830963
 11
19.496032663
 21
-3.086077044
  0
LINE
  8
AUFNAHME
  6
CONTINUOUS
 62
     7
 10
19.496032663
 20
-3.086077044
 11
19.487133069
 21
-3.086288234
  0
LINE
  8
AUFNAHME
  6
CONTINUOUS
 62
     7
 10
19.551959377
 20
-3.074830963
 11
19.590746218
 21
-2.334733948
  0
ARC
  8
AUFNAHME
  6
CONTINUOUS
 62
     7
 10
16.580842153
 20
-0.323707917
 40
0.750000000
 50
-62.269218915
 51
-38.401912946
  0
LINE
  8
AUFNAHME
  6
CONTINUOUS
 62
     7
 10
19.551959377
 20
-3.074830963
 11
19.502969522
 21
-3.123476997
  0
LINE
  8
AUFNAHME
  6
CONTINUOUS
 62
     7
 10
19.502969522
 20
-3.123476997
 11
19.487133069
 21
-3.126523294
  0
LINE
  8
AUFNAHME
  6
CONTINUOUS
 62
     7
 10
13.951781374
 20
3.086288234
 11
15.002809048
 21
1.691527403
  0
ARC
  8
AUFNAHME
  6
CONTINUOUS
 62
     7
 10
16.580842153
 20
-0.323707917
 40
0.750000000
 50
132.417051843
 51
142.269218915
  0
LINE
  8
AUFNAHME
  6
CONTINUOUS
 62
     7
 10
14.008261918
 20
3.124928009
 11
15.012634064
 21
1.792081153
  0
LINE
  8
AUFNAHME
  6
CONTINUOUS
 62
     7
 10
19.523533731
 20
-2.209574067
 11
18.800039028
 21
-1.739731113
  0
LINE
  8
AUFNAHME
  6
CONTINUOUS
 62
     7
 10
19.590746218
 20
-2.334733948
 11
19.523533731
 21
-2.209574067
  0
LINE
  8
AUFNAHME
  6
CONTINUOUS
 62
     7
 10
19.533171555
 20
-0.148806054
 11
19.428408764
 21
-2.147799191
  0
LINE
  8
ZAPFEN
  6
CONTINUOUS
 62
     4
 10
-31.500000000
 20
0.000000000
 11
-31.500000000
 21
-3.500000000
  0
LINE
  8
ZAPFEN
  6
CONTINUOUS
 62
     4
 10
-31.500000000
 20
3.500000000
 11
-31.500000000
 21
0.000000000
  0
LINE
  8
ZAPFEN
  6
CONTINUOUS
 62
     4
 10
-31.700000000
 20
0.000000000
 11
-31.700000000
 21
3.300000000
  0
LINE
  8
ZAPFEN
  6
CONTINUOUS
 62
     4
 10
-31.700000000
 20
-3.300000000
 11
-31.700000000
 21
0.000000000
  0
LINE
  8
ZAPFEN
  6
CONTINUOUS
 62
     4
 10
-0.373450000
 20
0.000000000
 11
-0.373450000
 21
-3.500000000
  0
LINE
  8
ZAPFEN
  6
CONTINUOUS
 62
     4
 10
-0.373450000
 20
3.500000000
 11
-0.373450000
 21
0.000000000
  0
LINE
  8
AUFNAHME
  6
CONTINUOUS
 62
     7
 10
0.000000000
 20
0.000000000
 11
0.000000000
 21
-3.126550000
  0
LINE
  8
AUFNAHME
  6
CONTINUOUS
 62
     7
 10
0.000000000
 20
3.126550000
 11
0.000000000
 21
0.000000000
  0
LINE
  8
AUFNAHME
  6
CONTINUOUS
 62
     7
 10
19.487133069
 20
-3.126523294
 11
19.487133069
 21
-3.086288234
  0
LINE
  8
ZAPFEN
  6
STRICHPUNKT
 62
     4
 10
16.045877698
 20
0.953281900
 11
19.495877698
 21
0.953281900
  0
LINE
  8
ZAPFEN
  6
STRICHPUNKT
 62
     4
 10
17.770877698
 20
-0.771718100
 11
17.770877698
 21
2.678281900
  0
LINE
  8
UNSICHT
  6
GESTRICHELT
 62
     1
 10
11.526380338
 20
-1.000000000
 11
11.890350572
 21
0.000000000
  0
LINE
  8
ZAPFEN
  6
STRICHPUNKT
 62
     4
 10
-32.802017812
 20
0.000000000
 11
0.000000000
 21
0.000000000
  0
LINE
  8
ZAPFEN
  6
STRICHPUNKT
 62
     4
 10
0.000000000
 20
0.000000000
 11
20.634018538
 21
0.000000000
  0
LINE
  8
UNSICHT
  6
GESTRICHELT
 62
     1
 10
-31.700000000
 20
1.000000000
 11
0.000000000
 21
1.000000000
  0
LINE
  8
UNSICHT
  6
GESTRICHELT
 62
     1
 10
0.000000000
 20
1.000000000
 11
11.526380338
 21
1.000000000
  0
LINE
  8
UNSICHT
  6
GESTRICHELT
 62
     1
 10
-31.700000000
 20
-1.000000000
 11
0.000000000
 21
-1.000000000
  0
LINE
  8
UNSICHT
  6
GESTRICHELT
 62
     1
 10
0.000000000
 20
-1.000000000
 11
11.526380338
 21
-1.000000000
  0
LINE
  8
UNSICHT
  6
GESTRICHELT
 62
     1
 10
11.526380338
 20
1.000000000
 11
11.526380338
 21
-1.000000000
  0
LINE
  8
ZAPFEN
  6
STRICHPUNKT
 62
     4
 10
11.504846114
 20
-0.055844489
 11
13.836341006
 21
0.676636691
  0
LINE
  8
UNSICHT
  6
GESTRICHELT
 62
     1
 10
11.613736467
 20
0.759991009
 11
13.186128465
 21
1.253986320
  0
LINE
  8
UNSICHT
  6
GESTRICHELT
 62
     1
 10
11.593090799
 20
-0.816714515
 11
14.100492448
 21
-0.028969055
  0
LINE
  8
UNSICHT
  6
GESTRICHELT
 62
     1
 10
11.526380338
 20
1.000000000
 11
11.890350572
 21
0.000000000
  0
LINE
  8
MASS
  6
CONTINUOUS
 62
     4
 10
-38.606462479
 20
-3.500000000
 11
-31.500000000
 21
-3.500000000
  0
LINE
  8
MASS
  6
CONTINUOUS
 62
     4
 10
-36.606462479
 20
-3.500000000
 11
-37.056462479
 21
-7.000000000
  0
LINE
  8
MASS
  6
CONTINUOUS
 62
     4
 10
-37.056462479
 20
-7.000000000
 11
-36.156462479
 21
-7.000000000
  0
LINE
  8
MASS
  6
CONTINUOUS
 62
     4
 10
-36.156462479
 20
-7.000000000
 11
-36.606462479
 21
-3.500000000
  0
LINE
  8
MASS
  6
CONTINUOUS
 62
     4
 10
-36.606462479
 20
-7.000000000
 11
-36.606462479
 21
-11.000000000
  0
LINE
  8
MASS
  6
CONTINUOUS
 62
     4
 10
-38.606462479
 20
3.500000000
 11
-31.500000000
 21
3.500000000
  0
LINE
  8
MASS
  6
CONTINUOUS
 62
     4
 10
-36.606462479
 20
3.500000000
 11
-36.156462479
 21
7.000000000
  0
LINE
  8
MASS
  6
CONTINUOUS
 62
     4
 10
-36.156462479
 20
7.000000000
 11
-37.056462479
 21
7.000000000
  0
LINE
  8
MASS
  6
CONTINUOUS
 62
     4
 10
-37.056462479
 20
7.000000000
 11
-36.606462479
 21
3.500000000
  0
LINE
  8
MASS
  6
CONTINUOUS
 62
     4
 10
-36.606462479
 20
7.000000000
 11
-36.606462479
 21
11.000000000
  0
LINE
  8
MASS
  6
CONTINUOUS
 62
     4
 10
-36.606462479
 20
-3.500000000
 11
-36.606462479
 21
3.500000000
  0
TEXT
  8
MASS
  6
CONTINUOUS
 62
     4
 10
-38.106462479
 20
1.206406172
 40
3.500000000
  1
7
 50
90.000000000
 41
1.000
 51
0.000000000
  7
STANDARD
  0
CIRCLE
  8
MASS
  6
CONTINUOUS
 62
     4
 10
-39.356462479
 20
-1.043593828
 40
1.250000000
  0
LINE
  8
MASS
  6
CONTINUOUS
 62
     4
 10
-38.106462479
 20
-2.293593828
 11
-40.606462479
 21
0.206406172
  0
LINE
  8
MASS
  6
CONTINUOUS
 62
     4
 10
-31.700000000
 20
-12.729291248
 11
-31.700000000
 21
-3.300000000
  0
LINE
  8
MASS
  6
CONTINUOUS
 62
     4
 10
-31.700000000
 20
-10.729291248
 11
-28.200000006
 21
-10.279291200
  0
LINE
  8
MASS
  6
CONTINUOUS
 62
     4
 10
-28.200000006
 20
-10.279291200
 11
-28.199999994
 21
-11.179291200
  0
LINE
  8
MASS
  6
CONTINUOUS
 62
     4
 10
-28.199999994
 20
-11.179291200
 11
-31.700000000
 21
-10.729291248
  0
LINE
  8
MASS
  6
CONTINUOUS
 62
     4
 10
0.000000000
 20
-12.729290810
 11
0.000000000
 21
-2.465000000
  0
LINE
  8
MASS
  6
CONTINUOUS
 62
     4
 10
0.000000000
 20
-10.729290810
 11
-3.499999994
 21
-11.179290858
  0
LINE
  8
MASS
  6
CONTINUOUS
 62
     4
 10
-3.499999994
 20
-11.179290858
 11
-3.500000006
 21
-10.279290858
  0
LINE
  8
MASS
  6
CONTINUOUS
 62
     4
 10
-3.500000006
 20
-10.279290858
 11
0.000000000
 21
-10.729290810
  0
LINE
  8
MASS
  6
CONTINUOUS
 62
     4
 10
-28.200000000
 20
-10.729291200
 11
-3.500000000
 21
-10.729290858
  0
TEXT
  8
MASS
  6
CONTINUOUS
 62
     4
 10
-17.323281625
 20
-9.229291049
 40
3.500000000
  1
32
 50
0.000000793
 41
1.000
 51
0.000000000
  7
STANDARD
  0
LINE
  8
MASS
  6
CONTINUOUS
 62
     4
 10
0.000000000
 20
-12.771918144
 11
0.000000000
 21
-2.465000000
  0
LINE
  8
MASS
  6
CONTINUOUS
 62
     4
 10
0.000000000
 20
-10.771918144
 11
3.500000008
 21
-10.321918206
  0
LINE
  8
MASS
  6
CONTINUOUS
 62
     4
 10
3.500000008
 20
-10.321918206
 11
3.499999992
 21
-11.221918206
  0
LINE
  8
MASS
  6
CONTINUOUS
 62
     4
 10
3.499999992
 20
-11.221918206
 11
0.000000000
 21
-10.771918144
  0
LINE
  8
MASS
  6
CONTINUOUS
 62
     4
 10
19.999999998
 20
-12.771918497
 11
19.999999998
 21
3.025784293
  0
LINE
  8
MASS
  6
CONTINUOUS
 62
     4
 10
19.999999998
 20
-10.771918497
 11
16.499999990
 21
-11.221918435
  0
LINE
  8
MASS
  6
CONTINUOUS
 62
     4
 10
16.499999990
 20
-11.221918435
 11
16.500000006
 21
-10.321918435
  0
LINE
  8
MASS
  6
CONTINUOUS
 62
     4
 10
16.500000006
 20
-10.321918435
 11
19.999999998
 21
-10.771918497
  0
LINE
  8
MASS
  6
CONTINUOUS
 62
     4
 10
3.500000000
 20
-10.771918206
 11
16.499999998
 21
-10.771918435
  0
TEXT
  8
MASS
  6
CONTINUOUS
 62
     4
 10
8.335312302
 20
-9.271918291
 40
3.500000000
  1
20
 50
359.999998991
 41
1.000
 51
0.000000000
  7
STANDARD
  0
LINE
  8
MASS
  6
CONTINUOUS
 62
     4
 10
-31.700000000
 20
13.168597507
 11
-31.700000000
 21
3.300000000
  0
LINE
  8
MASS
  6
CONTINUOUS
 62
     4
 10
-31.700000000
 20
11.168597507
 11
-28.200000004
 21
11.618597539
  0
LINE
  8
MASS
  6
CONTINUOUS
 62
     4
 10
-28.200000004
 20
11.618597539
 11
-28.199999996
 21
10.718597539
  0
LINE
  8
MASS
  6
CONTINUOUS
 62
     4
 10
-28.199999996
 20
10.718597539
 11
-31.700000000
 21
11.168597507
  0
LINE
  8
MASS
  6
CONTINUOUS
 62
     4
 10
19.999999998
 20
13.168597975
 11
19.999999998
 21
3.025784293
  0
LINE
  8
MASS
  6
CONTINUOUS
 62
     4
 10
19.999999998
 20
11.168597975
 11
16.500000002
 21
10.718597944
  0
LINE
  8
MASS
  6
CONTINUOUS
 62
     4
 10
16.500000002
 20
10.718597944
 11
16.499999994
 21
11.618597944
  0
LINE
  8
MASS
  6
CONTINUOUS
 62
     4
 10
16.499999994
 20
11.618597944
 11
19.999999998
 21
11.168597975
  0
LINE
  8
MASS
  6
CONTINUOUS
 62
     4
 10
-28.200000000
 20
11.168597539
 11
16.499999998
 21
11.168597944
  0
TEXT
  8
MASS
  6
CONTINUOUS
 62
     4
 10
-7.405313093
 20
12.668597727
 40
3.500000000
  1
52
 50
0.000000518
 41
1.000
 51
0.000000000
  7
STANDARD
  0
TEXT
  8
MASS
  6
CONTINUOUS
 62
     4
 10
-8.234688093
 20
12.668597720
 40
3.500000000
  1
(
 50
0.000000518
 41
1.000
 51
0.000000000
  7
STANDARD
  0
TEXT
  8
MASS
  6
CONTINUOUS
 62
     4
 10
-3.294688093
 20
12.668597764
 40
3.500000000
  1
)
 50
0.000000518
 41
1.000
 51
0.000000000
  7
STANDARD
  0
TEXT
  8
MASS
  6
CONTINUOUS
 62
     4
 10
-20.448851166
 20
4.775834708
 40
3.500000000
  1
615.506
 50
0.000000000
 41
1.000
 51
0.000000000
  7
STANDARD
  0
LINE
  8
MASS
  6
CONTINUOUS
 62
     4
 10
31.306321905
 20
3.329249666
 11
19.799999998
 21
3.329249163
  0
LINE
  8
MASS
  6
CONTINUOUS
 62
     4
 10
29.306321905
 20
3.329249578
 11
29.756322058
 21
-0.170750402
  0
LINE
  8
MASS
  6
CONTINUOUS
 62
     4
 10
29.756322058
 20
-0.170750402
 11
28.856322058
 21
-0.170750441
  0
LINE
  8
MASS
  6
CONTINUOUS
 62
     4
 10
28.856322058
 20
-0.170750441
 11
29.306321905
 21
3.329249578
  0
LINE
  8
MASS
  6
CONTINUOUS
 62
     4
 10
29.306322502
 20
-10.329246984
 11
29.306322058
 21
-0.170750422
  0
CIRCLE
  8
MASS
  6
CONTINUOUS
 62
     4
 10
26.795513078
 20
-13.014957619
 40
1.250000000
  0
LINE
  8
MASS
  6
CONTINUOUS
 62
     4
 10
28.045513133
 20
-14.264957564
 11
25.545513024
 21
-11.764957674
  0
TEXT
  8
MASS
  6
CONTINUOUS
 62
     4
 10
28.045512980
 20
-10.764957564
 40
3.500000000
  1
6.8-9.5
 50
90.000002504
 41
1.000
 51
0.000000000
  7
STANDARD
  0
TEXT
  8
MASS
  6
CONTINUOUS
 62
     4
 10
21.090478035
 20
4.874648807
 40
3.500000000
  1
WC 02
 50
0.000000000
 41
1.000
 51
0.000000000
  7
STANDARD
  0
ENDSEC
  0
EOF
