999
NT  : 16.0 - 919
  0
SECTION
  2
HEADER
  9
$ACADVER
  1
AC1006
  9
$INSBASE
 10
0.000000000
 20
0.000000000
  9
$EXTMIN
 10
-42.642560174
 20
-18.265626629
  9
$EXTMAX
 10
32.439404799
 20
20.418009512
  9
$LIMMIN
 10
-42.642560174
 20
-18.265626629
  9
$LIMMAX
 10
32.439404799
 20
20.418009512
  9
$AUNITS
 70
     2
  9
$ANGBASE
 50
0.000
  9
$ANGDIR
 70
     0
  0
ENDSEC
  0
SECTION
  2
TABLES
  0
TABLE
  2
LTYPE
 70
     8
  0
LTYPE
  2
PUNKT
 70
    64
  3
..............
 72
    65
 73
     2
 40
1.500
 49
0.700
 49
-0.800
  0
LTYPE
  2
GESTRICHELT
 70
    64
  3
-- -- -- -- --
 72
    65
 73
     7
 40
2.800
 49
0.900
 49
0.000
 49
0.900
 49
0.000
 49
0.200
 49
0.000
 49
-0.800
  0
LTYPE
  2
STRICHPUNKT
 70
    64
  3
--.--.--.--.--
 72
    65
 73
     4
 40
8.800
 49
5.500
 49
-1.300
 49
0.700
 49
-1.300
  0
LTYPE
  2
STRICHPUNKT
 70
    64
  3
--.--.--.--.--
 72
    65
 73
     4
 40
8.800
 49
5.500
 49
-1.300
 49
0.700
 49
-1.300
  0
LTYPE
  2
STRICHPUNKT
 70
    64
  3
--.--.--.--.--
 72
    65
 73
     4
 40
8.800
 49
5.500
 49
-1.300
 49
0.700
 49
-1.300
  0
LTYPE
  2
PHANTOM
 70
    64
  3
--..--..--..--
 72
    65
 73
     6
 40
14.200
 49
7.000
 49
-1.800
 49
0.900
 49
-1.800
 49
0.900
 49
-1.800
  0
LTYPE
  2
PHANTOM
 70
    64
  3
--..--..--..--
 72
    65
 73
     6
 40
14.200
 49
7.000
 49
-1.800
 49
0.900
 49
-1.800
 49
0.900
 49
-1.800
  0
LTYPE
  2
PHANTOM
 70
    64
  3
--..--..--..--
 72
    65
 73
     6
 40
14.200
 49
7.000
 49
-1.800
 49
0.900
 49
-1.800
 49
0.900
 49
-1.800
  0
ENDTAB
  0
ENDSEC
  0
SECTION
  2
BLOCKS
  0
ENDSEC
  0
SECTION
  2
ENTITIES
  0
LINE
  8
UNSICHT
  6
GESTRICHELT
 62
     1
 10
11.226380338
 20
-1.000000000
 11
11.590350572
 21
0.000000000
  0
LINE
  8
AUFNAHME
  6
CONTINUOUS
 62
     7
 10
11.200000000
 20
-2.465000000
 11
18.687395700
 21
-2.464866828
  0
LINE
  8
AUFNAHME
  6
CONTINUOUS
 62
     7
 10
13.750910297
 20
2.464866828
 11
11.200000000
 21
2.465000000
  0
LINE
  8
ZAPFEN
  6
CONTINUOUS
 62
     4
 10
-1.335000000
 20
-3.500000000
 11
-0.300000000
 21
-2.465000000
  0
LINE
  8
ZAPFEN
  6
CONTINUOUS
 62
     4
 10
-0.300000000
 20
2.465000000
 11
-1.335000000
 21
3.500000000
  0
LINE
  8
ZAPFEN
  6
CONTINUOUS
 62
     4
 10
-1.335000000
 20
3.500000000
 11
-31.800000000
 21
3.500000000
  0
LINE
  8
ZAPFEN
  6
CONTINUOUS
 62
     4
 10
-31.800000000
 20
-3.500000000
 11
-1.335000000
 21
-3.500000000
  0
LINE
  8
ZAPFEN
  6
CONTINUOUS
 62
     4
 10
-31.800000000
 20
3.500000000
 11
-32.000000000
 21
3.300000000
  0
LINE
  8
ZAPFEN
  6
CONTINUOUS
 62
     4
 10
-32.000000000
 20
-3.300000000
 11
-31.800000000
 21
-3.500000000
  0
LINE
  8
AUFNAHME
  6
CONTINUOUS
 62
     7
 10
11.200000000
 20
2.465000000
 11
-0.300000000
 21
2.465000000
  0
LINE
  8
AUFNAHME
  6
CONTINUOUS
 62
     7
 10
-0.300000000
 20
-2.465000000
 11
11.200000000
 21
-2.465000000
  0
LINE
  8
AUFNAHME
  6
CONTINUOUS
 62
     7
 10
16.954661291
 20
2.390725513
 11
13.806779785
 21
2.390725513
  0
LINE
  8
AUFNAHME
  6
CONTINUOUS
 62
     7
 10
13.750910297
 20
2.464866828
 11
13.757034754
 21
2.456739400
  0
ARC
  8
AUFNAHME
  6
CONTINUOUS
 62
     7
 10
13.859351137
 20
2.400983153
 40
0.116522107
 50
151.412284838
 51
-143.351470213
  0
LINE
  8
AUFNAHME
  6
CONTINUOUS
 62
     7
 10
13.244861803
 20
2.331430565
 11
13.765864031
 21
2.331430565
  0
LINE
  8
AUFNAHME
  6
CONTINUOUS
 62
     7
 10
11.527160435
 20
1.683914630
 11
11.528308454
 21
1.829433826
  0
LINE
  8
AUFNAHME
  6
CONTINUOUS
 62
     7
 10
11.528308454
 20
1.829433826
 11
11.613462781
 21
2.006528232
  0
LINE
  8
AUFNAHME
  6
CONTINUOUS
 62
     7
 10
11.613462781
 20
2.006528232
 11
11.769743326
 21
2.124978942
  0
LINE
  8
AUFNAHME
  6
CONTINUOUS
 62
     7
 10
11.769743326
 20
2.124978942
 11
11.921518115
 21
2.188946044
  0
LINE
  8
AUFNAHME
  6
CONTINUOUS
 62
     7
 10
11.921518115
 20
2.188946044
 11
12.092292090
 21
2.236165543
  0
LINE
  8
AUFNAHME
  6
CONTINUOUS
 62
     7
 10
12.092292090
 20
2.236165543
 11
12.390645477
 21
2.286823059
  0
LINE
  8
AUFNAHME
  6
CONTINUOUS
 62
     7
 10
12.390645477
 20
2.286823059
 11
12.705587224
 21
2.315377907
  0
LINE
  8
AUFNAHME
  6
CONTINUOUS
 62
     7
 10
12.705587224
 20
2.315377907
 11
13.244861803
 21
2.331430565
  0
ARC
  8
AUFNAHME
  6
CONTINUOUS
 62
     7
 10
17.405091928
 20
3.746545742
 40
6.229327871
 50
-160.663464262
 51
-151.732426556
  0
ARC
  8
AUFNAHME
  6
CONTINUOUS
 62
     7
 10
17.405091928
 20
3.746545742
 40
6.229327871
 50
-151.732426556
 51
-146.050628816
  0
ARC
  8
AUFNAHME
  6
CONTINUOUS
 62
     7
 10
17.405091928
 20
3.746545742
 40
6.229327871
 50
-146.050628816
 51
-143.027144411
  0
ARC
  8
AUFNAHME
  6
CONTINUOUS
 62
     7
 10
17.405091928
 20
3.746545742
 40
6.229327871
 50
-143.027144411
 51
-140.195955061
  0
ARC
  8
AUFNAHME
  6
CONTINUOUS
 62
     7
 10
17.405091928
 20
3.746545742
 40
6.229327871
 50
-140.195955061
 51
-119.336535738
  0
ARC
  8
AUFNAHME
  6
CONTINUOUS
 62
     7
 10
16.822625142
 20
2.614925694
 40
4.957676797
 50
-119.875730615
 51
-86.127292312
  0
LINE
  8
AUFNAHME
  6
CONTINUOUS
 62
     7
 10
18.313707687
 20
-2.331430565
 11
17.157466857
 21
-2.331430565
  0
ARC
  8
AUFNAHME
  6
CONTINUOUS
 62
     7
 10
19.255222285
 20
-0.534834590
 40
2.007614160
 50
-114.562943154
 51
-106.802307360
  0
LINE
  8
AUFNAHME
  6
CONTINUOUS
 62
     7
 10
18.674880559
 20
-2.456739400
 11
18.687395700
 21
-2.464866828
  0
LINE
  8
AUFNAHME
  6
CONTINUOUS
 62
     7
 10
18.573228087
 20
-2.390725513
 11
19.147303789
 21
-2.390725513
  0
LINE
  8
AUFNAHME
  6
CONTINUOUS
 62
     7
 10
14.180613077
 20
0.782969214
 11
14.150300546
 21
0.868602279
  0
LINE
  8
AUFNAHME
  6
CONTINUOUS
 62
     7
 10
14.150300546
 20
0.868602279
 11
14.136878422
 21
0.906519850
  0
LINE
  8
AUFNAHME
  6
CONTINUOUS
 62
     7
 10
14.136878422
 20
0.906519850
 11
14.051909061
 21
1.005841123
  0
LINE
  8
AUFNAHME
  6
CONTINUOUS
 62
     7
 10
14.051909061
 20
1.005841123
 11
13.883661918
 21
1.106737118
  0
LINE
  8
AUFNAHME
  6
CONTINUOUS
 62
     7
 10
13.883661918
 20
1.106737118
 11
13.540650390
 21
1.192194394
  0
LINE
  8
AUFNAHME
  6
CONTINUOUS
 62
     7
 10
13.540650390
 20
1.192194394
 11
13.169088981
 21
1.185531560
  0
LINE
  8
AUFNAHME
  6
CONTINUOUS
 62
     7
 10
13.169088981
 20
1.185531560
 11
12.982372937
 21
1.130590546
  0
LINE
  8
AUFNAHME
  6
CONTINUOUS
 62
     7
 10
12.982372937
 20
1.130590546
 11
12.952895401
 21
1.121916810
  0
LINE
  8
AUFNAHME
  6
CONTINUOUS
 62
     7
 10
12.952895401
 20
1.121916810
 11
12.816839661
 21
1.028144421
  0
LINE
  8
AUFNAHME
  6
CONTINUOUS
 62
     7
 10
12.816839661
 20
1.028144421
 11
12.745629619
 21
0.916741473
  0
LINE
  8
AUFNAHME
  6
CONTINUOUS
 62
     7
 10
12.745629619
 20
0.916741473
 11
12.725656823
 21
0.781566595
  0
LINE
  8
AUFNAHME
  6
CONTINUOUS
 62
     7
 10
12.725656823
 20
0.781566595
 11
12.753983537
 21
0.641051090
  0
LINE
  8
AUFNAHME
  6
CONTINUOUS
 62
     7
 10
12.753983537
 20
0.641051090
 11
12.827048781
 21
0.489791717
  0
LINE
  8
AUFNAHME
  6
CONTINUOUS
 62
     7
 10
12.827048781
 20
0.489791717
 11
12.849930768
 21
0.460067656
  0
LINE
  8
AUFNAHME
  6
CONTINUOUS
 62
     7
 10
12.849930768
 20
0.460067656
 11
12.947780376
 21
0.332959479
  0
LINE
  8
AUFNAHME
  6
CONTINUOUS
 62
     7
 10
12.947780376
 20
0.332959479
 11
13.112970027
 21
0.191009747
  0
LINE
  8
AUFNAHME
  6
CONTINUOUS
 62
     7
 10
13.112970027
 20
0.191009747
 11
13.309997690
 21
0.092972043
  0
LINE
  8
AUFNAHME
  6
CONTINUOUS
 62
     7
 10
13.309997690
 20
0.092972043
 11
13.523119736
 21
0.063086190
  0
LINE
  8
AUFNAHME
  6
CONTINUOUS
 62
     7
 10
13.523119736
 20
0.063086190
 11
13.738687887
 21
0.114223989
  0
LINE
  8
AUFNAHME
  6
CONTINUOUS
 62
     7
 10
13.738687887
 20
0.114223989
 11
13.943496214
 21
0.250469783
  0
LINE
  8
AUFNAHME
  6
CONTINUOUS
 62
     7
 10
13.943496214
 20
0.250469783
 11
14.113121434
 21
0.469508236
  0
LINE
  8
AUFNAHME
  6
CONTINUOUS
 62
     7
 10
14.113121434
 20
0.469508236
 11
14.174912015
 21
0.636068725
  0
LINE
  8
AUFNAHME
  6
CONTINUOUS
 62
     7
 10
14.174912015
 20
0.636068725
 11
14.180613077
 21
0.782969214
  0
ARC
  8
AUFNAHME
  6
CONTINUOUS
 62
     7
 10
16.280842153
 20
-0.927172787
 40
0.750000000
 50
147.947255589
 51
-67.947255589
  0
LINE
  8
AUFNAHME
  6
CONTINUOUS
 62
     7
 10
13.757034754
 20
2.456739400
 11
14.416775422
 21
1.581233963
  0
LINE
  8
AUFNAHME
  6
CONTINUOUS
 62
     7
 10
14.416775422
 20
1.581233963
 11
14.712634064
 21
1.188616283
  0
LINE
  8
AUFNAHME
  6
CONTINUOUS
 62
     7
 10
13.765864031
 20
2.331430565
 11
14.347563200
 21
1.559489695
  0
LINE
  8
AUFNAHME
  6
CONTINUOUS
 62
     7
 10
14.347563200
 20
1.559489695
 11
14.702809048
 21
1.088062533
  0
ARC
  8
AUFNAHME
  6
CONTINUOUS
 62
     7
 10
16.280842153
 20
-0.927172787
 40
0.750000000
 50
132.417051843
 51
147.947255589
  0
LINE
  8
AUFNAHME
  6
CONTINUOUS
 62
     7
 10
18.674880559
 20
-2.456739400
 11
18.500039028
 21
-2.343195983
  0
ARC
  8
AUFNAHME
  6
CONTINUOUS
 62
     7
 10
16.280842153
 20
-0.927172787
 40
0.750000000
 50
-67.947255589
 51
-38.401912946
  0
LINE
  8
AUFNAHME
  6
CONTINUOUS
 62
     7
 10
19.233171555
 20
-0.752270924
 11
19.147303789
 21
-2.390725513
  0
LINE
  8
AUFNAHME
  6
CONTINUOUS
 62
     7
 10
16.231462258
 20
-0.979293307
 11
16.868596692
 21
-1.393053246
  0
LINE
  8
AUFNAHME
  6
CONTINUOUS
 62
     7
 10
16.868596692
 20
-1.393053246
 11
18.309091814
 21
-2.328521717
  0
LINE
  8
AUFNAHME
  6
CONTINUOUS
 62
     7
 10
14.740592389
 20
0.999157832
 11
15.090345020
 21
0.535020415
  0
LINE
  8
AUFNAHME
  6
CONTINUOUS
 62
     7
 10
15.090345020
 20
0.535020415
 11
15.493511820
 21
0.000000000
  0
LINE
  8
AUFNAHME
  6
CONTINUOUS
 62
     7
 10
15.493511820
 20
0.000000000
 11
15.774950555
 21
-0.373481816
  0
LINE
  8
AUFNAHME
  6
CONTINUOUS
 62
     7
 10
15.774950555
 20
-0.373481816
 11
16.231462258
 21
-0.979293307
  0
ARC
  8
AUFNAHME
  6
CONTINUOUS
 62
     7
 10
14.900319491
 20
1.119520837
 40
0.200000000
 50
117.000000000
 51
159.789069432
  0
ARC
  8
AUFNAHME
  6
CONTINUOUS
 62
     7
 10
14.900319491
 20
1.119520837
 40
0.200000000
 50
159.789069432
 51
-170.950278819
  0
ARC
  8
AUFNAHME
  6
CONTINUOUS
 62
     7
 10
14.900319491
 20
1.119520837
 40
0.200000000
 50
-170.950278819
 51
-158.377289057
  0
ARC
  8
AUFNAHME
  6
CONTINUOUS
 62
     7
 10
14.900319491
 20
1.119520837
 40
0.200000000
 50
-158.377289057
 51
-143.000000000
  0
LINE
  8
AUFNAHME
  6
CONTINUOUS
 62
     7
 10
17.016802248
 20
2.422387912
 11
16.892370731
 21
2.358986888
  0
LINE
  8
AUFNAHME
  6
CONTINUOUS
 62
     7
 10
16.892370731
 20
2.358986888
 11
14.809521391
 21
1.297722142
  0
LINE
  8
AUFNAHME
  6
CONTINUOUS
 62
     7
 10
19.475626129
 20
2.724293523
 11
17.143817489
 21
2.437983423
  0
LINE
  8
AUFNAHME
  6
CONTINUOUS
 62
     7
 10
17.143817489
 20
2.437983423
 11
17.016802248
 21
2.422387912
  0
ARC
  8
AUFNAHME
  6
CONTINUOUS
 62
     7
 10
19.499999998
 20
2.525784293
 40
0.200000000
 50
-3.000000000
 51
23.883533561
  0
ARC
  8
AUFNAHME
  6
CONTINUOUS
 62
     7
 10
19.499999998
 20
2.525784293
 40
0.200000000
 50
23.883533561
 51
97.000000000
  0
LINE
  8
AUFNAHME
  6
CONTINUOUS
 62
     7
 10
19.570074604
 20
0.041422921
 11
19.671368819
 21
1.974231681
  0
LINE
  8
AUFNAHME
  6
CONTINUOUS
 62
     7
 10
19.671368819
 20
1.974231681
 11
19.699725905
 21
2.515317101
  0
LINE
  8
AUFNAHME
  6
CONTINUOUS
 62
     7
 10
18.602120592
 20
-2.238933829
 11
19.552491618
 21
0.000000000
  0
LINE
  8
AUFNAHME
  6
CONTINUOUS
 62
     7
 10
19.552491618
 20
0.000000000
 11
19.570074604
 21
0.041422921
  0
ARC
  8
AUFNAHME
  6
CONTINUOUS
 62
     7
 10
18.418019621
 20
-2.160787603
 40
0.200000000
 50
-123.000000000
 51
-23.000000000
  0
ARC
  8
AUFNAHME
  6
CONTINUOUS
 62
     7
 10
17.470877698
 20
0.349817030
 40
1.150000000
 50
-17.709362114
 51
68.162795286
  0
ARC
  8
AUFNAHME
  6
CONTINUOUS
 62
     7
 10
17.470877698
 20
0.349817030
 40
1.150000000
 50
68.162795286
 51
146.719308820
  0
ARC
  8
AUFNAHME
  6
CONTINUOUS
 62
     7
 10
17.470877698
 20
0.349817030
 40
1.150000000
 50
146.719308820
 51
-162.290637886
  0
ARC
  8
AUFNAHME
  6
CONTINUOUS
 62
     7
 10
17.470877698
 20
0.349817030
 40
1.150000000
 50
-162.290637886
 51
-17.709362114
  0
LINE
  8
ZAPFEN
  6
CONTINUOUS
 62
     4
 10
-1.335000000
 20
0.000000000
 11
-1.335000000
 21
-3.500000000
  0
LINE
  8
ZAPFEN
  6
CONTINUOUS
 62
     4
 10
-1.335000000
 20
3.500000000
 11
-1.335000000
 21
0.000000000
  0
LINE
  8
AUFNAHME
  6
CONTINUOUS
 62
     7
 10
-0.300000000
 20
2.465000000
 11
-0.300000000
 21
-2.465000000
  0
LINE
  8
ZAPFEN
  6
CONTINUOUS
 62
     4
 10
-31.800000000
 20
0.000000000
 11
-31.800000000
 21
-3.500000000
  0
LINE
  8
ZAPFEN
  6
CONTINUOUS
 62
     4
 10
-31.800000000
 20
3.500000000
 11
-31.800000000
 21
0.000000000
  0
LINE
  8
ZAPFEN
  6
CONTINUOUS
 62
     4
 10
-32.000000000
 20
0.000000000
 11
-32.000000000
 21
3.300000000
  0
LINE
  8
ZAPFEN
  6
CONTINUOUS
 62
     4
 10
-32.000000000
 20
-3.300000000
 11
-32.000000000
 21
0.000000000
  0
LINE
  8
ZAPFEN
  6
STRICHPUNKT
 62
     4
 10
15.745877698
 20
0.349817030
 11
19.195877698
 21
0.349817030
  0
LINE
  8
ZAPFEN
  6
STRICHPUNKT
 62
     4
 10
17.470877698
 20
-1.375182970
 11
17.470877698
 21
0.000000000
  0
LINE
  8
ZAPFEN
  6
STRICHPUNKT
 62
     4
 10
17.470877698
 20
0.000000000
 11
17.470877698
 21
1.282907699
  0
LINE
  8
ZAPFEN
  6
STRICHPUNKT
 62
     4
 10
17.470877698
 20
1.282907699
 11
17.470877698
 21
1.911821493
  0
LINE
  8
ZAPFEN
  6
STRICHPUNKT
 62
     4
 10
17.470877698
 20
1.911821493
 11
17.470877698
 21
2.074817030
  0
LINE
  8
ZAPFEN
  6
STRICHPUNKT
 62
     4
 10
-33.102017812
 20
0.000000000
 11
-0.300000000
 21
0.000000000
  0
LINE
  8
ZAPFEN
  6
STRICHPUNKT
 62
     4
 10
-0.300000000
 20
0.000000000
 11
12.428353966
 21
0.000000000
  0
LINE
  8
ZAPFEN
  6
STRICHPUNKT
 62
     4
 10
12.428353966
 20
0.000000000
 11
13.387369709
 21
0.000000000
  0
LINE
  8
ZAPFEN
  6
STRICHPUNKT
 62
     4
 10
13.387369709
 20
0.000000000
 11
15.493511820
 21
0.000000000
  0
LINE
  8
ZAPFEN
  6
STRICHPUNKT
 62
     4
 10
15.493511820
 20
0.000000000
 11
16.375374140
 21
0.000000000
  0
LINE
  8
ZAPFEN
  6
STRICHPUNKT
 62
     4
 10
16.375374140
 20
0.000000000
 11
17.470877698
 21
0.000000000
  0
LINE
  8
ZAPFEN
  6
STRICHPUNKT
 62
     4
 10
17.470877698
 20
0.000000000
 11
18.566381256
 21
0.000000000
  0
LINE
  8
ZAPFEN
  6
STRICHPUNKT
 62
     4
 10
18.566381256
 20
0.000000000
 11
19.552491618
 21
0.000000000
  0
LINE
  8
ZAPFEN
  6
STRICHPUNKT
 62
     4
 10
19.552491618
 20
0.000000000
 11
20.391063396
 21
0.000000000
  0
LINE
  8
UNSICHT
  6
GESTRICHELT
 62
     1
 10
-32.000000000
 20
1.000000000
 11
-0.300000000
 21
1.000000000
  0
LINE
  8
UNSICHT
  6
GESTRICHELT
 62
     1
 10
-0.300000000
 20
1.000000000
 11
11.226380338
 21
1.000000000
  0
LINE
  8
UNSICHT
  6
GESTRICHELT
 62
     1
 10
-32.000000000
 20
-1.000000000
 11
-0.300000000
 21
-1.000000000
  0
LINE
  8
UNSICHT
  6
GESTRICHELT
 62
     1
 10
-0.300000000
 20
-1.000000000
 11
11.226380338
 21
-1.000000000
  0
LINE
  8
UNSICHT
  6
GESTRICHELT
 62
     1
 10
11.226380338
 20
1.000000000
 11
11.226380338
 21
-1.000000000
  0
LINE
  8
ZAPFEN
  6
STRICHPUNKT
 62
     4
 10
11.226380338
 20
-0.050000000
 11
13.557875231
 21
0.682481180
  0
LINE
  8
UNSICHT
  6
GESTRICHELT
 62
     1
 10
11.363916252
 20
0.622123183
 11
11.918639295
 21
0.796399434
  0
LINE
  8
UNSICHT
  6
GESTRICHELT
 62
     1
 10
11.918639295
 20
0.796399434
 11
12.951329851
 21
1.120837801
  0
LINE
  8
UNSICHT
  6
GESTRICHELT
 62
     1
 10
12.951329851
 20
1.120837801
 11
12.982372937
 21
1.130590546
  0
LINE
  8
UNSICHT
  6
GESTRICHELT
 62
     1
 10
11.358334872
 20
-0.637457897
 11
12.619483477
 21
-0.241245312
  0
LINE
  8
UNSICHT
  6
GESTRICHELT
 62
     1
 10
12.619483477
 20
-0.241245312
 11
13.733985647
 21
0.108895650
  0
LINE
  8
UNSICHT
  6
GESTRICHELT
 62
     1
 10
11.226380338
 20
1.000000000
 11
11.590350572
 21
0.000000000
  0
LINE
  8
MASS
  6
CONTINUOUS
 62
     4
 10
-38.906462479
 20
-3.500000000
 11
-31.800000000
 21
-3.500000000
  0
LINE
  8
MASS
  6
CONTINUOUS
 62
     4
 10
-36.906462479
 20
-3.500000000
 11
-37.356462479
 21
-7.000000000
  0
LINE
  8
MASS
  6
CONTINUOUS
 62
     4
 10
-37.356462479
 20
-7.000000000
 11
-36.456462479
 21
-7.000000000
  0
LINE
  8
MASS
  6
CONTINUOUS
 62
     4
 10
-36.456462479
 20
-7.000000000
 11
-36.906462479
 21
-3.500000000
  0
LINE
  8
MASS
  6
CONTINUOUS
 62
     4
 10
-36.906462479
 20
-7.000000000
 11
-36.906462479
 21
-11.000000000
  0
LINE
  8
MASS
  6
CONTINUOUS
 62
     4
 10
-38.906462479
 20
3.500000000
 11
-31.800000000
 21
3.500000000
  0
LINE
  8
MASS
  6
CONTINUOUS
 62
     4
 10
-36.906462479
 20
3.500000000
 11
-36.456462479
 21
7.000000000
  0
LINE
  8
MASS
  6
CONTINUOUS
 62
     4
 10
-36.456462479
 20
7.000000000
 11
-37.356462479
 21
7.000000000
  0
LINE
  8
MASS
  6
CONTINUOUS
 62
     4
 10
-37.356462479
 20
7.000000000
 11
-36.906462479
 21
3.500000000
  0
LINE
  8
MASS
  6
CONTINUOUS
 62
     4
 10
-36.906462479
 20
7.000000000
 11
-36.906462479
 21
11.000000000
  0
LINE
  8
MASS
  6
CONTINUOUS
 62
     4
 10
-36.906462479
 20
-3.500000000
 11
-36.906462479
 21
3.500000000
  0
TEXT
  8
MASS
  6
CONTINUOUS
 62
     4
 10
-38.406462479
 20
1.206406172
 40
3.500000000
  1
7
 50
90.000000000
 41
1.000
 51
0.000000000
  7
STANDARD
  0
CIRCLE
  8
MASS
  6
CONTINUOUS
 62
     4
 10
-39.656462479
 20
-1.043593828
 40
1.250000000
  0
LINE
  8
MASS
  6
CONTINUOUS
 62
     4
 10
-38.406462479
 20
-2.293593828
 11
-40.906462479
 21
0.206406172
  0
LINE
  8
MASS
  6
CONTINUOUS
 62
     4
 10
-32.000000000
 20
-12.729291248
 11
-32.000000000
 21
-3.300000000
  0
LINE
  8
MASS
  6
CONTINUOUS
 62
     4
 10
-32.000000000
 20
-10.729291248
 11
-28.500000006
 21
-10.279291200
  0
LINE
  8
MASS
  6
CONTINUOUS
 62
     4
 10
-28.500000006
 20
-10.279291200
 11
-28.499999994
 21
-11.179291200
  0
LINE
  8
MASS
  6
CONTINUOUS
 62
     4
 10
-28.499999994
 20
-11.179291200
 11
-32.000000000
 21
-10.729291248
  0
LINE
  8
MASS
  6
CONTINUOUS
 62
     4
 10
-0.300000000
 20
-12.729290810
 11
-0.300000000
 21
-2.465000000
  0
LINE
  8
MASS
  6
CONTINUOUS
 62
     4
 10
-0.300000000
 20
-10.729290810
 11
-3.799999994
 21
-11.179290858
  0
LINE
  8
MASS
  6
CONTINUOUS
 62
     4
 10
-3.799999994
 20
-11.179290858
 11
-3.800000006
 21
-10.279290858
  0
LINE
  8
MASS
  6
CONTINUOUS
 62
     4
 10
-3.800000006
 20
-10.279290858
 11
-0.300000000
 21
-10.729290810
  0
LINE
  8
MASS
  6
CONTINUOUS
 62
     4
 10
-28.500000000
 20
-10.729291200
 11
-3.800000000
 21
-10.729290858
  0
TEXT
  8
MASS
  6
CONTINUOUS
 62
     4
 10
-17.623281625
 20
-9.229291049
 40
3.500000000
  1
32
 50
0.000000793
 41
1.000
 51
0.000000000
  7
STANDARD
  0
LINE
  8
MASS
  6
CONTINUOUS
 62
     4
 10
-0.300000000
 20
-12.771918144
 11
-0.300000000
 21
-2.465000000
  0
LINE
  8
MASS
  6
CONTINUOUS
 62
     4
 10
-0.300000000
 20
-10.771918144
 11
3.200000008
 21
-10.321918206
  0
LINE
  8
MASS
  6
CONTINUOUS
 62
     4
 10
3.200000008
 20
-10.321918206
 11
3.199999992
 21
-11.221918206
  0
LINE
  8
MASS
  6
CONTINUOUS
 62
     4
 10
3.199999992
 20
-11.221918206
 11
-0.300000000
 21
-10.771918144
  0
LINE
  8
MASS
  6
CONTINUOUS
 62
     4
 10
19.699999998
 20
-12.771918497
 11
19.699999998
 21
2.525784293
  0
LINE
  8
MASS
  6
CONTINUOUS
 62
     4
 10
19.699999998
 20
-10.771918497
 11
16.199999990
 21
-11.221918435
  0
LINE
  8
MASS
  6
CONTINUOUS
 62
     4
 10
16.199999990
 20
-11.221918435
 11
16.200000006
 21
-10.321918435
  0
LINE
  8
MASS
  6
CONTINUOUS
 62
     4
 10
16.200000006
 20
-10.321918435
 11
19.699999998
 21
-10.771918497
  0
LINE
  8
MASS
  6
CONTINUOUS
 62
     4
 10
3.200000000
 20
-10.771918206
 11
16.199999998
 21
-10.771918435
  0
TEXT
  8
MASS
  6
CONTINUOUS
 62
     4
 10
8.035312302
 20
-9.271918291
 40
3.500000000
  1
20
 50
359.999998991
 41
1.000
 51
0.000000000
  7
STANDARD
  0
LINE
  8
MASS
  6
CONTINUOUS
 62
     4
 10
-32.000000000
 20
13.168597507
 11
-32.000000000
 21
3.300000000
  0
LINE
  8
MASS
  6
CONTINUOUS
 62
     4
 10
-32.000000000
 20
11.168597507
 11
-28.500000004
 21
11.618597539
  0
LINE
  8
MASS
  6
CONTINUOUS
 62
     4
 10
-28.500000004
 20
11.618597539
 11
-28.499999996
 21
10.718597539
  0
LINE
  8
MASS
  6
CONTINUOUS
 62
     4
 10
-28.499999996
 20
10.718597539
 11
-32.000000000
 21
11.168597507
  0
LINE
  8
MASS
  6
CONTINUOUS
 62
     4
 10
19.699999998
 20
13.168597975
 11
19.699999998
 21
2.525784293
  0
LINE
  8
MASS
  6
CONTINUOUS
 62
     4
 10
19.699999998
 20
11.168597975
 11
16.200000002
 21
10.718597944
  0
LINE
  8
MASS
  6
CONTINUOUS
 62
     4
 10
16.200000002
 20
10.718597944
 11
16.199999994
 21
11.618597944
  0
LINE
  8
MASS
  6
CONTINUOUS
 62
     4
 10
16.199999994
 20
11.618597944
 11
19.699999998
 21
11.168597975
  0
LINE
  8
MASS
  6
CONTINUOUS
 62
     4
 10
-28.500000000
 20
11.168597539
 11
16.199999998
 21
11.168597944
  0
TEXT
  8
MASS
  6
CONTINUOUS
 62
     4
 10
-7.705313093
 20
12.668597727
 40
3.500000000
  1
52
 50
0.000000518
 41
1.000
 51
0.000000000
  7
STANDARD
  0
TEXT
  8
MASS
  6
CONTINUOUS
 62
     4
 10
-8.534688093
 20
12.668597720
 40
3.500000000
  1
(
 50
0.000000518
 41
1.000
 51
0.000000000
  7
STANDARD
  0
TEXT
  8
MASS
  6
CONTINUOUS
 62
     4
 10
-3.594688093
 20
12.668597764
 40
3.500000000
  1
)
 50
0.000000518
 41
1.000
 51
0.000000000
  7
STANDARD
  0
LINE
  8
MASS
  6
CONTINUOUS
 62
     4
 10
28.860566614
 20
2.725784702
 11
19.499999998
 21
2.725784293
  0
LINE
  8
MASS
  6
CONTINUOUS
 62
     4
 10
26.860566614
 20
2.725784614
 11
27.310566767
 21
-0.774215366
  0
LINE
  8
MASS
  6
CONTINUOUS
 62
     4
 10
27.310566767
 20
-0.774215366
 11
26.410566767
 21
-0.774215405
  0
LINE
  8
MASS
  6
CONTINUOUS
 62
     4
 10
26.410566767
 20
-0.774215405
 11
26.860566614
 21
2.725784614
  0
LINE
  8
MASS
  6
CONTINUOUS
 62
     4
 10
26.860567061
 20
-7.507234967
 11
26.860566767
 21
-0.774215386
  0
CIRCLE
  8
MASS
  6
CONTINUOUS
 62
     4
 10
24.651452799
 20
-12.766214782
 40
1.250000000
  0
LINE
  8
MASS
  6
CONTINUOUS
 62
     4
 10
25.901452854
 20
-14.016214727
 11
23.401452744
 21
-11.516214837
  0
TEXT
  8
MASS
  6
CONTINUOUS
 62
     4
 10
25.901452701
 20
-10.516214727
 40
3.500000000
  1
5.8-8.5
 50
90.000002504
 41
1.000
 51
0.000000000
  7
STANDARD
  0
TEXT
  8
MASS
  6
CONTINUOUS
 62
     4
 10
-20.748851166
 20
4.775834708
 40
3.500000000
  1
615.505
 50
0.000000000
 41
1.000
 51
0.000000000
  7
STANDARD
  0
TEXT
  8
MASS
  6
CONTINUOUS
 62
     4
 10
21.039244603
 20
4.182183031
 40
3.500000000
  1
WC 02
 50
0.000000000
 41
1.000
 51
0.000000000
  7
STANDARD
  0
ENDSEC
  0
EOF
