999
NT  : 16.0 - 919
  0
SECTION
  2
HEADER
  9
$ACADVER
  1
AC1006
  9
$INSBASE
 10
0.000000000
 20
0.000000000
  9
$EXTMIN
 10
-45.858757074
 20
-16.826956481
  9
$EXTMAX
 10
31.185143087
 20
22.867505455
  9
$LIMMIN
 10
-45.858757074
 20
-16.826956481
  9
$LIMMAX
 10
31.185143087
 20
22.867505455
  9
$AUNITS
 70
     2
  9
$ANGBASE
 50
0.000
  9
$ANGDIR
 70
     0
  0
ENDSEC
  0
SECTION
  2
TABLES
  0
TABLE
  2
LTYPE
 70
     8
  0
LTYPE
  2
PUNKT
 70
    64
  3
..............
 72
    65
 73
     2
 40
1.500
 49
0.700
 49
-0.800
  0
LTYPE
  2
GESTRICHELT
 70
    64
  3
-- -- -- -- --
 72
    65
 73
     7
 40
2.800
 49
0.900
 49
0.000
 49
0.900
 49
0.000
 49
0.200
 49
0.000
 49
-0.800
  0
LTYPE
  2
STRICHPUNKT
 70
    64
  3
--.--.--.--.--
 72
    65
 73
     4
 40
8.800
 49
5.500
 49
-1.300
 49
0.700
 49
-1.300
  0
LTYPE
  2
STRICHPUNKT
 70
    64
  3
--.--.--.--.--
 72
    65
 73
     4
 40
8.800
 49
5.500
 49
-1.300
 49
0.700
 49
-1.300
  0
LTYPE
  2
STRICHPUNKT
 70
    64
  3
--.--.--.--.--
 72
    65
 73
     4
 40
8.800
 49
5.500
 49
-1.300
 49
0.700
 49
-1.300
  0
LTYPE
  2
PHANTOM
 70
    64
  3
--..--..--..--
 72
    65
 73
     6
 40
14.200
 49
7.000
 49
-1.800
 49
0.900
 49
-1.800
 49
0.900
 49
-1.800
  0
LTYPE
  2
PHANTOM
 70
    64
  3
--..--..--..--
 72
    65
 73
     6
 40
14.200
 49
7.000
 49
-1.800
 49
0.900
 49
-1.800
 49
0.900
 49
-1.800
  0
LTYPE
  2
PHANTOM
 70
    64
  3
--..--..--..--
 72
    65
 73
     6
 40
14.200
 49
7.000
 49
-1.800
 49
0.900
 49
-1.800
 49
0.900
 49
-1.800
  0
ENDTAB
  0
ENDSEC
  0
SECTION
  2
BLOCKS
  0
ENDSEC
  0
SECTION
  2
ENTITIES
  0
LINE
  8
ZAPFEN
  6
CONTINUOUS
 62
     4
 10
-31.800000000
 20
3.500000000
 11
-32.000000000
 21
3.300000000
  0
LINE
  8
ZAPFEN
  6
CONTINUOUS
 62
     4
 10
-32.000000000
 20
-3.300000000
 11
-31.800000000
 21
-3.500000000
  0
LINE
  8
ZAPFEN
  6
CONTINUOUS
 62
     4
 10
-31.800000000
 20
-3.500000000
 11
0.000000000
 21
-3.500000000
  0
LINE
  8
ZAPFEN
  6
CONTINUOUS
 62
     4
 10
0.000000000
 20
3.500000000
 11
-31.800000000
 21
3.500000000
  0
ARC
  8
AUFNAHME
  6
CONTINUOUS
 62
     7
 10
3.600000000
 20
-8.300000000
 40
6.000000000
 50
90.000000000
 51
126.869897646
  0
ARC
  8
AUFNAHME
  6
CONTINUOUS
 62
     7
 10
3.600000000
 20
8.300000000
 40
6.000000000
 50
-126.869897646
 51
-90.000000000
  0
LINE
  8
AUFNAHME
  6
CONTINUOUS
 62
     7
 10
3.600000000
 20
-2.300000000
 11
15.113985575
 21
-2.149286274
  0
LINE
  8
AUFNAHME
  6
CONTINUOUS
 62
     7
 10
15.114213562
 20
2.149283290
 11
3.600000000
 21
2.300000000
  0
LINE
  8
ZAPFEN
  6
CONTINUOUS
 62
     4
 10
-32.000000000
 20
0.000000000
 11
-32.000000000
 21
3.300000000
  0
LINE
  8
ZAPFEN
  6
CONTINUOUS
 62
     4
 10
-32.000000000
 20
-3.300000000
 11
-32.000000000
 21
0.000000000
  0
LINE
  8
ZAPFEN
  6
CONTINUOUS
 62
     4
 10
-31.800000000
 20
0.000000000
 11
-31.800000000
 21
-3.500000000
  0
LINE
  8
ZAPFEN
  6
CONTINUOUS
 62
     4
 10
-31.800000000
 20
3.500000000
 11
-31.800000000
 21
0.000000000
  0
LINE
  8
AUFNAHME
  6
CONTINUOUS
 62
     7
 10
0.000000000
 20
-3.500000000
 11
0.000000000
 21
3.500000000
  0
ARC
  8
AUFNAHME
  6
CONTINUOUS
 62
     7
 10
19.513387630
 20
47.317980858
 40
45.232471836
 50
-91.958646301
 51
-90.803248587
  0
LINE
  8
AUFNAHME
  6
CONTINUOUS
 62
     7
 10
15.114213562
 20
2.149283290
 11
17.967424557
 21
2.111935835
  0
ARC
  8
AUFNAHME
  6
CONTINUOUS
 62
     7
 10
14.879485372
 20
-5.702758740
 40
7.855549718
 50
88.287715409
 51
93.447452882
  0
ARC
  8
AUFNAHME
  6
CONTINUOUS
 62
     7
 10
14.671583590
 20
0.000000000
 40
2.154867137
 50
97.049951957
 51
-97.049951957
  0
ARC
  8
AUFNAHME
  6
CONTINUOUS
 62
     7
 10
14.842452376
 20
3.257264255
 40
5.413373302
 50
-94.612730192
 51
-87.122438100
  0
LINE
  8
AUFNAHME
  6
CONTINUOUS
 62
     7
 10
18.875000000
 20
-2.100056015
 11
15.114213562
 21
-2.149283290
  0
ARC
  8
AUFNAHME
  6
CONTINUOUS
 62
     7
 10
14.000000000
 20
0.000000000
 40
0.600000000
 50
47.272579826
 51
-47.272579826
  0
ARC
  8
AUFNAHME
  6
CONTINUOUS
 62
     7
 10
14.184581056
 20
0.000000000
 40
0.493742612
 50
-63.211924969
 51
63.211924969
  0
LINE
  8
AUFNAHME
  6
CONTINUOUS
 62
     7
 10
18.879279337
 20
2.089953982
 11
19.208850343
 21
2.271249502
  0
ARC
  8
AUFNAHME
  6
CONTINUOUS
 62
     7
 10
127.388092425
 20
-3.766070381
 40
107.959430937
 50
177.316225370
 51
179.115733526
  0
LINE
  8
AUFNAHME
  6
CONTINUOUS
 62
     7
 10
19.417710370
 20
-2.100000000
 11
19.441518588
 21
-2.099959605
  0
LINE
  8
AUFNAHME
  6
CONTINUOUS
 62
     7
 10
19.595931552
 20
2.419755824
 11
19.598357456
 21
2.412710485
  0
ARC
  8
AUFNAHME
  6
CONTINUOUS
 62
     7
 10
19.550062738
 20
2.400048597
 40
0.049923170
 50
23.250452702
 51
118.128509304
  0
LINE
  8
AUFNAHME
  6
CONTINUOUS
 62
     7
 10
19.598357456
 20
2.412710485
 11
19.599989337
 21
2.401032442
  0
LINE
  8
AUFNAHME
  6
CONTINUOUS
 62
     7
 10
19.208850343
 20
2.271249502
 11
19.526526422
 21
2.444075460
  0
LINE
  8
AUFNAHME
  6
CONTINUOUS
 62
     7
 10
19.547074112
 20
1.288976354
 11
19.599989337
 21
2.401032442
  0
LINE
  8
AUFNAHME
  6
CONTINUOUS
 62
     7
 10
18.875000000
 20
-2.100000000
 11
19.417710370
 21
-2.100000000
  0
LINE
  8
AUFNAHME
  6
CONTINUOUS
 62
     7
 10
15.114213562
 20
2.149283290
 11
15.114213562
 21
-2.149283290
  0
LINE
  8
ZAPFEN
  6
STRICHPUNKT
 62
     4
 10
-33.048487596
 20
0.000000000
 11
20.491197747
 21
0.000000000
  0
LINE
  8
MASS
  6
CONTINUOUS
 62
     4
 10
-32.000000000
 20
-13.077389050
 11
-32.000000000
 21
-3.300000000
  0
LINE
  8
MASS
  6
CONTINUOUS
 62
     4
 10
-32.000000000
 20
-11.077389050
 11
-28.500000004
 21
-10.627389018
  0
LINE
  8
MASS
  6
CONTINUOUS
 62
     4
 10
-28.500000004
 20
-10.627389018
 11
-28.499999996
 21
-11.527389018
  0
LINE
  8
MASS
  6
CONTINUOUS
 62
     4
 10
-28.499999996
 20
-11.527389018
 11
-32.000000000
 21
-11.077389050
  0
LINE
  8
MASS
  6
CONTINUOUS
 62
     4
 10
0.000000000
 20
-13.077388763
 11
0.000000000
 21
-3.500000000
  0
LINE
  8
MASS
  6
CONTINUOUS
 62
     4
 10
0.000000000
 20
-11.077388763
 11
-3.499999996
 21
-11.527388795
  0
LINE
  8
MASS
  6
CONTINUOUS
 62
     4
 10
-3.499999996
 20
-11.527388795
 11
-3.500000004
 21
-10.627388795
  0
LINE
  8
MASS
  6
CONTINUOUS
 62
     4
 10
-3.500000004
 20
-10.627388795
 11
0.000000000
 21
-11.077388763
  0
LINE
  8
MASS
  6
CONTINUOUS
 62
     4
 10
-28.500000000
 20
-11.077389018
 11
-3.500000000
 21
-11.077388795
  0
TEXT
  8
MASS
  6
CONTINUOUS
 62
     4
 10
-17.473281621
 20
-9.577388920
 40
3.500000000
  1
32
 50
0.000000512
 41
1.000
 51
0.000000000
  7
STANDARD
  0
LINE
  8
MASS
  6
CONTINUOUS
 62
     4
 10
0.000000000
 20
-13.077388763
 11
0.000000000
 21
-3.500000000
  0
LINE
  8
MASS
  6
CONTINUOUS
 62
     4
 10
0.000000000
 20
-11.077388763
 11
3.500000014
 21
-10.627388873
  0
LINE
  8
MASS
  6
CONTINUOUS
 62
     4
 10
3.500000014
 20
-10.627388873
 11
3.499999986
 21
-11.527388873
  0
LINE
  8
MASS
  6
CONTINUOUS
 62
     4
 10
3.499999986
 20
-11.527388873
 11
0.000000000
 21
-11.077388763
  0
LINE
  8
MASS
  6
CONTINUOUS
 62
     4
 10
19.599985907
 20
-13.077389376
 11
19.599985907
 21
2.400048597
  0
LINE
  8
MASS
  6
CONTINUOUS
 62
     4
 10
19.599985907
 20
-11.077389376
 11
16.099985893
 21
-11.527389267
  0
LINE
  8
MASS
  6
CONTINUOUS
 62
     4
 10
16.099985893
 20
-11.527389267
 11
16.099985921
 21
-10.627389267
  0
LINE
  8
MASS
  6
CONTINUOUS
 62
     4
 10
16.099985921
 20
-10.627389267
 11
19.599985907
 21
-11.077389376
  0
LINE
  8
MASS
  6
CONTINUOUS
 62
     4
 10
3.500000000
 20
-11.077388873
 11
16.099985907
 21
-11.077389267
  0
TEXT
  8
MASS
  6
CONTINUOUS
 62
     4
 10
8.135305282
 20
-9.577389018
 40
3.500000000
  1
20
 50
359.999998209
 41
1.000
 51
0.000000000
  7
STANDARD
  0
LINE
  8
MASS
  6
CONTINUOUS
 62
     4
 10
-39.729856300
 20
-3.500000000
 11
-31.800000000
 21
-3.500000000
  0
LINE
  8
MASS
  6
CONTINUOUS
 62
     4
 10
-37.729856300
 20
-3.500000000
 11
-38.179856300
 21
-7.000000000
  0
LINE
  8
MASS
  6
CONTINUOUS
 62
     4
 10
-38.179856300
 20
-7.000000000
 11
-37.279856300
 21
-7.000000000
  0
LINE
  8
MASS
  6
CONTINUOUS
 62
     4
 10
-37.279856300
 20
-7.000000000
 11
-37.729856300
 21
-3.500000000
  0
LINE
  8
MASS
  6
CONTINUOUS
 62
     4
 10
-37.729856300
 20
-7.000000000
 11
-37.729856300
 21
-11.000000000
  0
LINE
  8
MASS
  6
CONTINUOUS
 62
     4
 10
-39.729856300
 20
3.500000000
 11
-31.800000000
 21
3.500000000
  0
LINE
  8
MASS
  6
CONTINUOUS
 62
     4
 10
-37.729856300
 20
3.500000000
 11
-37.279856300
 21
7.000000000
  0
LINE
  8
MASS
  6
CONTINUOUS
 62
     4
 10
-37.279856300
 20
7.000000000
 11
-38.179856300
 21
7.000000000
  0
LINE
  8
MASS
  6
CONTINUOUS
 62
     4
 10
-38.179856300
 20
7.000000000
 11
-37.729856300
 21
3.500000000
  0
LINE
  8
MASS
  6
CONTINUOUS
 62
     4
 10
-37.729856300
 20
7.000000000
 11
-37.729856300
 21
11.000000000
  0
LINE
  8
MASS
  6
CONTINUOUS
 62
     4
 10
-37.729856300
 20
-3.500000000
 11
-37.729856300
 21
3.500000000
  0
TEXT
  8
MASS
  6
CONTINUOUS
 62
     4
 10
-39.229856300
 20
1.206406172
 40
3.500000000
  1
7
 50
90.000000000
 41
1.000
 51
0.000000000
  7
STANDARD
  0
CIRCLE
  8
MASS
  6
CONTINUOUS
 62
     4
 10
-40.479856300
 20
-1.043593828
 40
1.250000000
  0
LINE
  8
MASS
  6
CONTINUOUS
 62
     4
 10
-39.229856300
 20
-2.293593828
 11
-41.729856300
 21
0.206406172
  0
LINE
  8
MASS
  6
CONTINUOUS
 62
     4
 10
-32.000000000
 20
19.478343773
 11
-32.000000000
 21
3.300000000
  0
LINE
  8
MASS
  6
CONTINUOUS
 62
     4
 10
-32.000000000
 20
17.478343773
 11
-28.500000005
 21
17.928343809
  0
LINE
  8
MASS
  6
CONTINUOUS
 62
     4
 10
-28.500000005
 20
17.928343809
 11
-28.499999995
 21
17.028343809
  0
LINE
  8
MASS
  6
CONTINUOUS
 62
     4
 10
-28.499999995
 20
17.028343809
 11
-32.000000000
 21
17.478343773
  0
LINE
  8
MASS
  6
CONTINUOUS
 62
     4
 10
19.599985907
 20
19.478344305
 11
19.599985907
 21
2.400048597
  0
LINE
  8
MASS
  6
CONTINUOUS
 62
     4
 10
19.599985907
 20
17.478344305
 11
16.099985912
 21
17.028344269
  0
LINE
  8
MASS
  6
CONTINUOUS
 62
     4
 10
16.099985912
 20
17.028344269
 11
16.099985903
 21
17.928344269
  0
LINE
  8
MASS
  6
CONTINUOUS
 62
     4
 10
16.099985903
 20
17.928344269
 11
19.599985907
 21
17.478344305
  0
LINE
  8
MASS
  6
CONTINUOUS
 62
     4
 10
-28.500000000
 20
17.478343809
 11
16.099985907
 21
17.478344269
  0
TEXT
  8
MASS
  6
CONTINUOUS
 62
     4
 10
-7.755320138
 20
18.978344023
 40
3.500000000
  1
52
 50
0.000000591
 41
1.000
 51
0.000000000
  7
STANDARD
  0
TEXT
  8
MASS
  6
CONTINUOUS
 62
     4
 10
-8.584695138
 20
18.978344014
 40
3.500000000
  1
(
 50
0.000000591
 41
1.000
 51
0.000000000
  7
STANDARD
  0
TEXT
  8
MASS
  6
CONTINUOUS
 62
     4
 10
-3.644695138
 20
18.978344065
 40
3.500000000
  1
)
 50
0.000000591
 41
1.000
 51
0.000000000
  7
STANDARD
  0
LINE
  8
UNSICHT
  6
GESTRICHELT
 62
     1
 10
-32.000000000
 20
0.600000000
 11
14.000000000
 21
0.600000000
  0
LINE
  8
UNSICHT
  6
GESTRICHELT
 62
     1
 10
-32.000000000
 20
-0.600000000
 11
14.000000000
 21
-0.600000000
  0
LINE
  8
MASS
  6
CONTINUOUS
 62
     4
 10
30.056241594
 20
2.449972226
 11
19.550062738
 21
2.449971767
  0
LINE
  8
MASS
  6
CONTINUOUS
 62
     4
 10
28.056241594
 20
2.449972138
 11
28.506241747
 21
-1.050027842
  0
LINE
  8
MASS
  6
CONTINUOUS
 62
     4
 10
28.506241747
 20
-1.050027842
 11
27.606241747
 21
-1.050027881
  0
LINE
  8
MASS
  6
CONTINUOUS
 62
     4
 10
27.606241747
 20
-1.050027881
 11
28.056241594
 21
2.449972138
  0
LINE
  8
MASS
  6
CONTINUOUS
 62
     4
 10
28.056242314
 20
-14.025621612
 11
28.056241747
 21
-1.050027862
  0
CIRCLE
  8
MASS
  6
CONTINUOUS
 62
     4
 10
25.496743459
 20
-15.187794992
 40
1.250000000
  0
LINE
  8
MASS
  6
CONTINUOUS
 62
     4
 10
26.746743513
 20
-16.437794937
 11
24.246743404
 21
-13.937795046
  0
TEXT
  8
MASS
  6
CONTINUOUS
 62
     4
 10
26.746743360
 20
-12.937794937
 40
3.500000000
  1
4.9-7.5
 50
90.000002504
 41
1.000
 51
0.000000000
  7
STANDARD
  0
LINE
  8
MASS
  6
CONTINUOUS
 62
     4
 10
4.000000000
 20
11.802388196
 11
4.000000000
 21
2.899217133
  0
LINE
  8
MASS
  6
CONTINUOUS
 62
     4
 10
4.000000000
 20
9.802388196
 11
7.500000004
 21
10.252388164
  0
LINE
  8
MASS
  6
CONTINUOUS
 62
     4
 10
7.500000004
 20
10.252388164
 11
7.499999996
 21
9.352388164
  0
LINE
  8
MASS
  6
CONTINUOUS
 62
     4
 10
7.499999996
 20
9.352388164
 11
4.000000000
 21
9.802388196
  0
LINE
  8
MASS
  6
CONTINUOUS
 62
     4
 10
19.599985907
 20
11.802388055
 11
19.599985907
 21
2.400048597
  0
LINE
  8
MASS
  6
CONTINUOUS
 62
     4
 10
19.599985907
 20
9.802388055
 11
16.099985903
 21
9.352388087
  0
LINE
  8
MASS
  6
CONTINUOUS
 62
     4
 10
16.099985903
 20
9.352388087
 11
16.099985911
 21
10.252388087
  0
LINE
  8
MASS
  6
CONTINUOUS
 62
     4
 10
16.099985911
 20
10.252388087
 11
19.599985907
 21
9.802388055
  0
LINE
  8
MASS
  6
CONTINUOUS
 62
     4
 10
7.500000000
 20
9.802388164
 11
16.099985907
 21
9.802388087
  0
TEXT
  8
MASS
  6
CONTINUOUS
 62
     4
 10
10.572805293
 20
11.302388137
 40
3.500000000
  1
16
 50
359.999999485
 41
1.000
 51
0.000000000
  7
STANDARD
  0
TEXT
  8
MASS
  6
CONTINUOUS
 62
     4
 10
-22.398889475
 20
4.996932050
 40
3.500000000
  1
615.504
 50
0.000000000
 41
1.000
 51
0.000000000
  7
STANDARD
  0
ENDSEC
  0
EOF
