999
NT  : 16.0 - 919
  0
SECTION
  2
HEADER
  9
$ACADVER
  1
AC1006
  9
$INSBASE
 10
0.000000000
 20
0.000000000
  9
$EXTMIN
 10
-45.059919405
 20
-20.257920217
  9
$EXTMAX
 10
28.278625909
 20
26.463316807
  9
$LIMMIN
 10
-45.059919405
 20
-20.257920217
  9
$LIMMAX
 10
28.278625909
 20
26.463316807
  9
$AUNITS
 70
     2
  9
$ANGBASE
 50
0.000
  9
$ANGDIR
 70
     0
  0
ENDSEC
  0
SECTION
  2
TABLES
  0
TABLE
  2
LTYPE
 70
     8
  0
LTYPE
  2
PUNKT
 70
    64
  3
..............
 72
    65
 73
     2
 40
1.500
 49
0.700
 49
-0.800
  0
LTYPE
  2
GESTRICHELT
 70
    64
  3
-- -- -- -- --
 72
    65
 73
     7
 40
2.800
 49
0.900
 49
0.000
 49
0.900
 49
0.000
 49
0.200
 49
0.000
 49
-0.800
  0
LTYPE
  2
STRICHPUNKT
 70
    64
  3
--.--.--.--.--
 72
    65
 73
     4
 40
8.800
 49
5.500
 49
-1.300
 49
0.700
 49
-1.300
  0
LTYPE
  2
STRICHPUNKT
 70
    64
  3
--.--.--.--.--
 72
    65
 73
     4
 40
8.800
 49
5.500
 49
-1.300
 49
0.700
 49
-1.300
  0
LTYPE
  2
STRICHPUNKT
 70
    64
  3
--.--.--.--.--
 72
    65
 73
     4
 40
8.800
 49
5.500
 49
-1.300
 49
0.700
 49
-1.300
  0
LTYPE
  2
PHANTOM
 70
    64
  3
--..--..--..--
 72
    65
 73
     6
 40
14.200
 49
7.000
 49
-1.800
 49
0.900
 49
-1.800
 49
0.900
 49
-1.800
  0
LTYPE
  2
PHANTOM
 70
    64
  3
--..--..--..--
 72
    65
 73
     6
 40
14.200
 49
7.000
 49
-1.800
 49
0.900
 49
-1.800
 49
0.900
 49
-1.800
  0
LTYPE
  2
PHANTOM
 70
    64
  3
--..--..--..--
 72
    65
 73
     6
 40
14.200
 49
7.000
 49
-1.800
 49
0.900
 49
-1.800
 49
0.900
 49
-1.800
  0
ENDTAB
  0
ENDSEC
  0
SECTION
  2
BLOCKS
  0
ENDSEC
  0
SECTION
  2
ENTITIES
  0
LINE
  8
AUFNAHME
  6
CONTINUOUS
 62
     7
 10
0.000000000
 20
-3.500000000
 11
2.415504809
 21
-3.500000000
  0
LINE
  8
AUFNAHME
  6
CONTINUOUS
 62
     7
 10
2.415504809
 20
3.500000000
 11
0.000000000
 21
3.500000000
  0
ARC
  8
AUFNAHME
  6
CONTINUOUS
 62
     7
 10
6.600000000
 20
-7.800000000
 40
6.000000000
 50
90.000000000
 51
134.220044428
  0
ARC
  8
AUFNAHME
  6
CONTINUOUS
 62
     7
 10
6.600000000
 20
7.800000000
 40
6.000000000
 50
-134.220044428
 51
-90.000000000
  0
LINE
  8
AUFNAHME
  6
CONTINUOUS
 62
     7
 10
6.600000000
 20
-1.800000000
 11
16.113978743
 21
-1.645040112
  0
LINE
  8
AUFNAHME
  6
CONTINUOUS
 62
     7
 10
16.114213562
 20
1.645036288
 11
6.600000000
 21
1.800000000
  0
LINE
  8
AUFNAHME
  6
CONTINUOUS
 62
     7
 10
2.415504809
 20
-3.500000000
 11
2.415504809
 21
3.500000000
  0
LINE
  8
AUFNAHME
  6
CONTINUOUS
 62
     7
 10
18.434392448
 20
1.607246140
 11
18.780119911
 21
1.595782745
  0
LINE
  8
AUFNAHME
  6
CONTINUOUS
 62
     7
 10
18.780119911
 20
1.595782745
 11
18.879279337
 21
1.592659541
  0
LINE
  8
AUFNAHME
  6
CONTINUOUS
 62
     7
 10
16.114213562
 20
1.645036288
 11
18.434392448
 21
1.607246140
  0
ARC
  8
AUFNAHME
  6
CONTINUOUS
 62
     7
 10
15.922710187
 20
-6.220578072
 40
7.867945272
 50
88.605300565
 51
93.757408503
  0
ARC
  8
AUFNAHME
  6
CONTINUOUS
 62
     7
 10
15.672834845
 20
0.000000000
 40
1.651966708
 50
99.256560665
 51
-99.256560665
  0
ARC
  8
AUFNAHME
  6
CONTINUOUS
 62
     7
 10
15.823544006
 20
1.411692746
 40
3.070518064
 50
-97.794728483
 51
-84.567980586
  0
LINE
  8
AUFNAHME
  6
CONTINUOUS
 62
     7
 10
18.875000000
 20
-1.600069700
 11
16.114213562
 21
-1.645036288
  0
ARC
  8
AUFNAHME
  6
CONTINUOUS
 62
     7
 10
15.000000000
 20
0.000000000
 40
0.600000000
 50
47.272579827
 51
-47.272579826
  0
ARC
  8
AUFNAHME
  6
CONTINUOUS
 62
     7
 10
15.184581056
 20
0.000000000
 40
0.493742612
 50
-63.211924969
 51
63.211924969
  0
LINE
  8
AUFNAHME
  6
CONTINUOUS
 62
     7
 10
18.879279337
 20
1.592659541
 11
19.182026082
 21
1.755474871
  0
LINE
  8
AUFNAHME
  6
CONTINUOUS
 62
     7
 10
19.182026082
 20
1.755474871
 11
19.269632080
 21
1.804050865
  0
ARC
  8
AUFNAHME
  6
CONTINUOUS
 62
     7
 10
90.938592532
 20
-2.376989478
 40
71.461326241
 50
177.313174899
 51
179.248200332
  0
LINE
  8
AUFNAHME
  6
CONTINUOUS
 62
     7
 10
19.269632080
 20
1.804050865
 11
19.526526422
 21
1.944056944
  0
ARC
  8
AUFNAHME
  6
CONTINUOUS
 62
     7
 10
19.550078859
 20
1.900061101
 40
0.049903422
 50
23.244568929
 51
118.161623106
  0
LINE
  8
AUFNAHME
  6
CONTINUOUS
 62
     7
 10
19.595931551
 20
1.919755824
 11
19.598357456
 21
1.912710485
  0
LINE
  8
AUFNAHME
  6
CONTINUOUS
 62
     7
 10
19.598357456
 20
1.912710485
 11
19.599989337
 21
1.901032433
  0
LINE
  8
AUFNAHME
  6
CONTINUOUS
 62
     7
 10
19.555825124
 20
0.972885916
 11
19.599989337
 21
1.901032433
  0
LINE
  8
AUFNAHME
  6
CONTINUOUS
 62
     7
 10
19.483417973
 20
-1.439345202
 11
19.477807784
 21
-1.600000000
  0
LINE
  8
AUFNAHME
  6
CONTINUOUS
 62
     7
 10
18.879279337
 20
-1.600000000
 11
19.477807784
 21
-1.600000000
  0
LINE
  8
AUFNAHME
  6
CONTINUOUS
 62
     7
 10
18.875000000
 20
-1.600000000
 11
18.879279337
 21
-1.600000000
  0
LINE
  8
AUFNAHME
  6
CONTINUOUS
 62
     7
 10
16.114213562
 20
1.645036288
 11
16.114213562
 21
-1.645036288
  0
LINE
  8
ZAPFEN
  6
CONTINUOUS
 62
     4
 10
-31.800000000
 20
3.500000000
 11
-32.000000000
 21
3.300000000
  0
LINE
  8
ZAPFEN
  6
CONTINUOUS
 62
     4
 10
-32.000000000
 20
-3.300000000
 11
-31.800000000
 21
-3.500000000
  0
LINE
  8
ZAPFEN
  6
CONTINUOUS
 62
     4
 10
-31.800000000
 20
-3.500000000
 11
0.000000000
 21
-3.500000000
  0
LINE
  8
ZAPFEN
  6
CONTINUOUS
 62
     4
 10
0.000000000
 20
3.500000000
 11
-31.800000000
 21
3.500000000
  0
LINE
  8
ZAPFEN
  6
CONTINUOUS
 62
     4
 10
-32.000000000
 20
0.000000000
 11
-32.000000000
 21
3.300000000
  0
LINE
  8
ZAPFEN
  6
CONTINUOUS
 62
     4
 10
-32.000000000
 20
-3.300000000
 11
-32.000000000
 21
0.000000000
  0
LINE
  8
ZAPFEN
  6
CONTINUOUS
 62
     4
 10
-31.800000000
 20
0.000000000
 11
-31.800000000
 21
-3.500000000
  0
LINE
  8
ZAPFEN
  6
CONTINUOUS
 62
     4
 10
-31.800000000
 20
3.500000000
 11
-31.800000000
 21
0.000000000
  0
LINE
  8
ZAPFEN
  6
STRICHPUNKT
 62
     4
 10
-33.151284445
 20
0.000000000
 11
20.341114132
 21
0.000000000
  0
LINE
  8
MASS
  6
CONTINUOUS
 62
     4
 10
-41.340914059
 20
-3.500000000
 11
-31.800000000
 21
-3.500000000
  0
LINE
  8
MASS
  6
CONTINUOUS
 62
     4
 10
-39.340914059
 20
-3.500000000
 11
-39.790914059
 21
-7.000000000
  0
LINE
  8
MASS
  6
CONTINUOUS
 62
     4
 10
-39.790914059
 20
-7.000000000
 11
-38.890914059
 21
-7.000000000
  0
LINE
  8
MASS
  6
CONTINUOUS
 62
     4
 10
-38.890914059
 20
-7.000000000
 11
-39.340914059
 21
-3.500000000
  0
LINE
  8
MASS
  6
CONTINUOUS
 62
     4
 10
-39.340914059
 20
-7.000000000
 11
-39.340914059
 21
-11.000000000
  0
LINE
  8
MASS
  6
CONTINUOUS
 62
     4
 10
-41.340914059
 20
3.500000000
 11
-31.800000000
 21
3.500000000
  0
LINE
  8
MASS
  6
CONTINUOUS
 62
     4
 10
-39.340914059
 20
3.500000000
 11
-38.890914059
 21
7.000000000
  0
LINE
  8
MASS
  6
CONTINUOUS
 62
     4
 10
-38.890914059
 20
7.000000000
 11
-39.790914059
 21
7.000000000
  0
LINE
  8
MASS
  6
CONTINUOUS
 62
     4
 10
-39.790914059
 20
7.000000000
 11
-39.340914059
 21
3.500000000
  0
LINE
  8
MASS
  6
CONTINUOUS
 62
     4
 10
-39.340914059
 20
7.000000000
 11
-39.340914059
 21
11.000000000
  0
LINE
  8
MASS
  6
CONTINUOUS
 62
     4
 10
-39.340914059
 20
-3.500000000
 11
-39.340914059
 21
3.500000000
  0
TEXT
  8
MASS
  6
CONTINUOUS
 62
     4
 10
-40.840914059
 20
1.206406172
 40
3.500000000
  1
7
 50
90.000000000
 41
1.000
 51
0.000000000
  7
STANDARD
  0
CIRCLE
  8
MASS
  6
CONTINUOUS
 62
     4
 10
-42.090914059
 20
-1.043593828
 40
1.250000000
  0
LINE
  8
MASS
  6
CONTINUOUS
 62
     4
 10
-40.840914059
 20
-2.293593828
 11
-43.340914059
 21
0.206406172
  0
LINE
  8
MASS
  6
CONTINUOUS
 62
     4
 10
6.600000000
 20
12.593577301
 11
6.600000000
 21
2.194607651
  0
LINE
  8
MASS
  6
CONTINUOUS
 62
     4
 10
6.600000000
 20
10.593577301
 11
3.100000004
 21
11.043577335
  0
LINE
  8
MASS
  6
CONTINUOUS
 62
     4
 10
3.100000004
 20
11.043577335
 11
3.099999996
 21
10.143577335
  0
LINE
  8
MASS
  6
CONTINUOUS
 62
     4
 10
3.099999996
 20
10.143577335
 11
6.600000000
 21
10.593577301
  0
LINE
  8
MASS
  6
CONTINUOUS
 62
     4
 10
3.100000000
 20
10.593577335
 11
-0.900000000
 21
10.593577374
  0
LINE
  8
MASS
  6
CONTINUOUS
 62
     4
 10
19.599963999
 20
12.593577175
 11
19.599963999
 21
1.900125294
  0
LINE
  8
MASS
  6
CONTINUOUS
 62
     4
 10
19.599963999
 20
10.593577175
 11
23.099963994
 21
10.143577142
  0
LINE
  8
MASS
  6
CONTINUOUS
 62
     4
 10
23.099963994
 20
10.143577142
 11
23.099964003
 21
11.043577142
  0
LINE
  8
MASS
  6
CONTINUOUS
 62
     4
 10
23.099964003
 20
11.043577142
 11
19.599963999
 21
10.593577175
  0
LINE
  8
MASS
  6
CONTINUOUS
 62
     4
 10
23.099963999
 20
10.593577142
 11
27.099963999
 21
10.593577103
  0
LINE
  8
MASS
  6
CONTINUOUS
 62
     4
 10
6.600000000
 20
10.593577301
 11
19.599963999
 21
10.593577175
  0
TEXT
  8
MASS
  6
CONTINUOUS
 62
     4
 10
12.009513119
 20
12.093577249
 40
3.500000000
  1
13
 50
359.999999446
 41
1.000
 51
0.000000000
  7
STANDARD
  0
LINE
  8
MASS
  6
CONTINUOUS
 62
     4
 10
-32.000000000
 20
19.614442616
 11
-32.000000000
 21
0.900125294
  0
LINE
  8
MASS
  6
CONTINUOUS
 62
     4
 10
-32.000000000
 20
17.614442616
 11
-28.500000008
 21
18.064442680
  0
LINE
  8
MASS
  6
CONTINUOUS
 62
     4
 10
-28.500000008
 20
18.064442680
 11
-28.499999992
 21
17.164442680
  0
LINE
  8
MASS
  6
CONTINUOUS
 62
     4
 10
-28.499999992
 20
17.164442680
 11
-32.000000000
 21
17.614442616
  0
LINE
  8
MASS
  6
CONTINUOUS
 62
     4
 10
19.599963999
 20
19.614443569
 11
19.599963999
 21
1.900125294
  0
LINE
  8
MASS
  6
CONTINUOUS
 62
     4
 10
19.599963999
 20
17.614443569
 11
16.099964007
 21
17.164443505
  0
LINE
  8
MASS
  6
CONTINUOUS
 62
     4
 10
16.099964007
 20
17.164443505
 11
16.099963990
 21
18.064443505
  0
LINE
  8
MASS
  6
CONTINUOUS
 62
     4
 10
16.099963990
 20
18.064443505
 11
19.599963999
 21
17.614443569
  0
LINE
  8
MASS
  6
CONTINUOUS
 62
     4
 10
-28.500000000
 20
17.614442680
 11
16.099963999
 21
17.614443505
  0
TEXT
  8
MASS
  6
CONTINUOUS
 62
     4
 10
-7.755331105
 20
19.114443064
 40
3.500000000
  1
52
 50
0.000001059
 41
1.000
 51
0.000000000
  7
STANDARD
  0
TEXT
  8
MASS
  6
CONTINUOUS
 62
     4
 10
-8.584706105
 20
19.114443049
 40
3.500000000
  1
(
 50
0.000001059
 41
1.000
 51
0.000000000
  7
STANDARD
  0
TEXT
  8
MASS
  6
CONTINUOUS
 62
     4
 10
-3.644706105
 20
19.114443140
 40
3.500000000
  1
)
 50
0.000001059
 41
1.000
 51
0.000000000
  7
STANDARD
  0
LINE
  8
MASS
  6
CONTINUOUS
 62
     4
 10
-32.000000000
 20
-13.169275093
 11
-32.000000000
 21
-3.300000000
  0
LINE
  8
MASS
  6
CONTINUOUS
 62
     4
 10
-32.000000000
 20
-11.169275093
 11
-28.499999997
 21
-10.719275114
  0
LINE
  8
MASS
  6
CONTINUOUS
 62
     4
 10
-28.499999997
 20
-10.719275114
 11
-28.500000003
 21
-11.619275114
  0
LINE
  8
MASS
  6
CONTINUOUS
 62
     4
 10
-28.500000003
 20
-11.619275114
 11
-32.000000000
 21
-11.169275093
  0
LINE
  8
MASS
  6
CONTINUOUS
 62
     4
 10
0.000000000
 20
-13.169275284
 11
0.000000000
 21
-3.500000000
  0
LINE
  8
MASS
  6
CONTINUOUS
 62
     4
 10
0.000000000
 20
-11.169275284
 11
-3.500000003
 21
-11.619275263
  0
LINE
  8
MASS
  6
CONTINUOUS
 62
     4
 10
-3.500000003
 20
-11.619275263
 11
-3.499999997
 21
-10.719275263
  0
LINE
  8
MASS
  6
CONTINUOUS
 62
     4
 10
-3.499999997
 20
-10.719275263
 11
0.000000000
 21
-11.169275284
  0
LINE
  8
MASS
  6
CONTINUOUS
 62
     4
 10
-28.500000000
 20
-11.169275114
 11
-3.500000000
 21
-11.169275263
  0
TEXT
  8
MASS
  6
CONTINUOUS
 62
     4
 10
-17.473281599
 20
-9.669275180
 40
3.500000000
  1
32
 50
359.999999658
 41
1.000
 51
0.000000000
  7
STANDARD
  0
LINE
  8
MASS
  6
CONTINUOUS
 62
     4
 10
29.559619933
 20
1.949927423
 11
19.550162307
 21
1.949926986
  0
LINE
  8
MASS
  6
CONTINUOUS
 62
     4
 10
27.559619933
 20
1.949927336
 11
28.009620086
 21
-1.550072644
  0
LINE
  8
MASS
  6
CONTINUOUS
 62
     4
 10
28.009620086
 20
-1.550072644
 11
27.109620086
 21
-1.550072684
  0
LINE
  8
MASS
  6
CONTINUOUS
 62
     4
 10
27.109620086
 20
-1.550072684
 11
27.559619933
 21
1.949927336
  0
LINE
  8
MASS
  6
CONTINUOUS
 62
     4
 10
27.559620563
 20
-12.457419433
 11
27.559620086
 21
-1.550072664
  0
CIRCLE
  8
MASS
  6
CONTINUOUS
 62
     4
 10
24.973906580
 20
-15.159046449
 40
1.250000000
  0
LINE
  8
MASS
  6
CONTINUOUS
 62
     4
 10
26.223906634
 20
-16.409046394
 11
23.723906525
 21
-13.909046504
  0
TEXT
  8
MASS
  6
CONTINUOUS
 62
     4
 10
26.223906481
 20
-12.909046394
 40
3.500000000
  1
2.9-6.5
 50
90.000002504
 41
1.000
 51
0.000000000
  7
STANDARD
  0
LINE
  8
UNSICHT
  6
GESTRICHELT
 62
     1
 10
-32.000000000
 20
0.600000000
 11
15.000000000
 21
0.600000000
  0
LINE
  8
UNSICHT
  6
GESTRICHELT
 62
     1
 10
-32.000000000
 20
-0.600000000
 11
15.000000000
 21
-0.600000000
  0
TEXT
  8
MASS
  6
GESTRICHELT
 62
     4
 10
-18.632832982
 20
4.701510989
 40
3.500000000
  1
615.503
 50
0.000000000
 41
1.000
 51
0.000000000
  7
STANDARD
  0
LINE
  8
MASS
  6
CONTINUOUS
 62
     4
 10
0.000000000
 20
-13.171700478
 11
0.000000000
 21
-3.500000000
  0
LINE
  8
MASS
  6
CONTINUOUS
 62
     4
 10
0.000000000
 20
-11.171700478
 11
3.500000005
 21
-10.721700515
  0
LINE
  8
MASS
  6
CONTINUOUS
 62
     4
 10
3.500000005
 20
-10.721700515
 11
3.499999995
 21
-11.621700515
  0
LINE
  8
MASS
  6
CONTINUOUS
 62
     4
 10
3.499999995
 20
-11.621700515
 11
0.000000000
 21
-11.171700478
  0
LINE
  8
MASS
  6
CONTINUOUS
 62
     4
 10
19.599963999
 20
-13.171700687
 11
19.599963999
 21
1.900125294
  0
LINE
  8
MASS
  6
CONTINUOUS
 62
     4
 10
19.599963999
 20
-11.171700687
 11
16.099963994
 21
-11.621700650
  0
LINE
  8
MASS
  6
CONTINUOUS
 62
     4
 10
16.099963994
 20
-11.621700650
 11
16.099964004
 21
-10.721700650
  0
LINE
  8
MASS
  6
CONTINUOUS
 62
     4
 10
16.099964004
 20
-10.721700650
 11
19.599963999
 21
-11.171700687
  0
LINE
  8
MASS
  6
CONTINUOUS
 62
     4
 10
3.500000000
 20
-11.171700515
 11
16.099963999
 21
-11.171700650
  0
TEXT
  8
MASS
  6
CONTINUOUS
 62
     4
 10
8.135294296
 20
-9.671700565
 40
3.500000000
  1
20
 50
359.999999387
 41
1.000
 51
0.000000000
  7
STANDARD
  0
ENDSEC
  0
EOF
