999
NT  : 16.0 - 919
  0
SECTION
  2
HEADER
  9
$ACADVER
  1
AC1006
  9
$INSBASE
 10
0.000000000
 20
0.000000000
  9
$EXTMIN
 10
-45.059919405
 20
-20.351438133
  9
$EXTMAX
 10
28.278625887
 20
26.369798877
  9
$LIMMIN
 10
-45.059919405
 20
-20.351438133
  9
$LIMMAX
 10
28.278625887
 20
26.369798877
  9
$AUNITS
 70
     2
  9
$ANGBASE
 50
0.000
  9
$ANGDIR
 70
     0
  0
ENDSEC
  0
SECTION
  2
TABLES
  0
TABLE
  2
LTYPE
 70
     8
  0
LTYPE
  2
PUNKT
 70
    64
  3
..............
 72
    65
 73
     2
 40
1.500
 49
0.700
 49
-0.800
  0
LTYPE
  2
GESTRICHELT
 70
    64
  3
-- -- -- -- --
 72
    65
 73
     7
 40
2.800
 49
0.900
 49
0.000
 49
0.900
 49
0.000
 49
0.200
 49
0.000
 49
-0.800
  0
LTYPE
  2
STRICHPUNKT
 70
    64
  3
--.--.--.--.--
 72
    65
 73
     4
 40
8.800
 49
5.500
 49
-1.300
 49
0.700
 49
-1.300
  0
LTYPE
  2
STRICHPUNKT
 70
    64
  3
--.--.--.--.--
 72
    65
 73
     4
 40
8.800
 49
5.500
 49
-1.300
 49
0.700
 49
-1.300
  0
LTYPE
  2
STRICHPUNKT
 70
    64
  3
--.--.--.--.--
 72
    65
 73
     4
 40
8.800
 49
5.500
 49
-1.300
 49
0.700
 49
-1.300
  0
LTYPE
  2
PHANTOM
 70
    64
  3
--..--..--..--
 72
    65
 73
     6
 40
14.200
 49
7.000
 49
-1.800
 49
0.900
 49
-1.800
 49
0.900
 49
-1.800
  0
LTYPE
  2
PHANTOM
 70
    64
  3
--..--..--..--
 72
    65
 73
     6
 40
14.200
 49
7.000
 49
-1.800
 49
0.900
 49
-1.800
 49
0.900
 49
-1.800
  0
LTYPE
  2
PHANTOM
 70
    64
  3
--..--..--..--
 72
    65
 73
     6
 40
14.200
 49
7.000
 49
-1.800
 49
0.900
 49
-1.800
 49
0.900
 49
-1.800
  0
ENDTAB
  0
ENDSEC
  0
SECTION
  2
BLOCKS
  0
ENDSEC
  0
SECTION
  2
ENTITIES
  0
LINE
  8
ZAPFEN
  6
CONTINUOUS
 62
     4
 10
-31.800000000
 20
3.500000000
 11
-32.000000000
 21
3.300000000
  0
LINE
  8
ZAPFEN
  6
CONTINUOUS
 62
     4
 10
-32.000000000
 20
-3.300000000
 11
-31.800000000
 21
-3.500000000
  0
LINE
  8
ZAPFEN
  6
CONTINUOUS
 62
     4
 10
-31.800000000
 20
-3.500000000
 11
0.000000000
 21
-3.500000000
  0
LINE
  8
ZAPFEN
  6
CONTINUOUS
 62
     4
 10
0.000000000
 20
3.500000000
 11
-31.800000000
 21
3.500000000
  0
LINE
  8
ZAPFEN
  6
CONTINUOUS
 62
     4
 10
-32.000000000
 20
0.000000000
 11
-32.000000000
 21
3.300000000
  0
LINE
  8
ZAPFEN
  6
CONTINUOUS
 62
     4
 10
-32.000000000
 20
-3.300000000
 11
-32.000000000
 21
0.000000000
  0
LINE
  8
ZAPFEN
  6
CONTINUOUS
 62
     4
 10
-31.800000000
 20
0.000000000
 11
-31.800000000
 21
-3.500000000
  0
LINE
  8
ZAPFEN
  6
CONTINUOUS
 62
     4
 10
-31.800000000
 20
3.500000000
 11
-31.800000000
 21
0.000000000
  0
LINE
  8
ZAPFEN
  6
STRICHPUNKT
 62
     4
 10
-33.151284445
 20
0.000000000
 11
20.341114132
 21
0.000000000
  0
LINE
  8
MASS
  6
CONTINUOUS
 62
     4
 10
-41.340914059
 20
-3.500000000
 11
-31.800000000
 21
-3.500000000
  0
LINE
  8
MASS
  6
CONTINUOUS
 62
     4
 10
-39.340914059
 20
-3.500000000
 11
-39.790914059
 21
-7.000000000
  0
LINE
  8
MASS
  6
CONTINUOUS
 62
     4
 10
-39.790914059
 20
-7.000000000
 11
-38.890914059
 21
-7.000000000
  0
LINE
  8
MASS
  6
CONTINUOUS
 62
     4
 10
-38.890914059
 20
-7.000000000
 11
-39.340914059
 21
-3.500000000
  0
LINE
  8
MASS
  6
CONTINUOUS
 62
     4
 10
-39.340914059
 20
-7.000000000
 11
-39.340914059
 21
-11.000000000
  0
LINE
  8
MASS
  6
CONTINUOUS
 62
     4
 10
-41.340914059
 20
3.500000000
 11
-31.800000000
 21
3.500000000
  0
LINE
  8
MASS
  6
CONTINUOUS
 62
     4
 10
-39.340914059
 20
3.500000000
 11
-38.890914059
 21
7.000000000
  0
LINE
  8
MASS
  6
CONTINUOUS
 62
     4
 10
-38.890914059
 20
7.000000000
 11
-39.790914059
 21
7.000000000
  0
LINE
  8
MASS
  6
CONTINUOUS
 62
     4
 10
-39.790914059
 20
7.000000000
 11
-39.340914059
 21
3.500000000
  0
LINE
  8
MASS
  6
CONTINUOUS
 62
     4
 10
-39.340914059
 20
7.000000000
 11
-39.340914059
 21
11.000000000
  0
LINE
  8
MASS
  6
CONTINUOUS
 62
     4
 10
-39.340914059
 20
-3.500000000
 11
-39.340914059
 21
3.500000000
  0
TEXT
  8
MASS
  6
CONTINUOUS
 62
     4
 10
-40.840914059
 20
1.206406172
 40
3.500000000
  1
7
 50
90.000000000
 41
1.000
 51
0.000000000
  7
STANDARD
  0
CIRCLE
  8
MASS
  6
CONTINUOUS
 62
     4
 10
-42.090914059
 20
-1.043593828
 40
1.250000000
  0
LINE
  8
MASS
  6
CONTINUOUS
 62
     4
 10
-40.840914059
 20
-2.293593828
 11
-43.340914059
 21
0.206406172
  0
LINE
  8
MASS
  6
CONTINUOUS
 62
     4
 10
9.600000000
 20
12.593577301
 11
9.600000000
 21
2.194607651
  0
LINE
  8
MASS
  6
CONTINUOUS
 62
     4
 10
9.600000000
 20
10.593577301
 11
6.100000006
 21
11.043577345
  0
LINE
  8
MASS
  6
CONTINUOUS
 62
     4
 10
6.100000006
 20
11.043577345
 11
6.099999994
 21
10.143577345
  0
LINE
  8
MASS
  6
CONTINUOUS
 62
     4
 10
6.099999994
 20
10.143577345
 11
9.600000000
 21
10.593577301
  0
LINE
  8
MASS
  6
CONTINUOUS
 62
     4
 10
6.100000000
 20
10.593577345
 11
2.100000000
 21
10.593577395
  0
LINE
  8
MASS
  6
CONTINUOUS
 62
     4
 10
19.599963999
 20
12.593577175
 11
19.599963999
 21
1.400125294
  0
LINE
  8
MASS
  6
CONTINUOUS
 62
     4
 10
19.599963999
 20
10.593577175
 11
23.099963993
 21
10.143577131
  0
LINE
  8
MASS
  6
CONTINUOUS
 62
     4
 10
23.099963993
 20
10.143577131
 11
23.099964004
 21
11.043577131
  0
LINE
  8
MASS
  6
CONTINUOUS
 62
     4
 10
23.099964004
 20
11.043577131
 11
19.599963999
 21
10.593577175
  0
LINE
  8
MASS
  6
CONTINUOUS
 62
     4
 10
23.099963999
 20
10.593577131
 11
27.099963999
 21
10.593577081
  0
LINE
  8
MASS
  6
CONTINUOUS
 62
     4
 10
9.600000000
 20
10.593577301
 11
19.599963999
 21
10.593577175
  0
TEXT
  8
MASS
  6
CONTINUOUS
 62
     4
 10
13.318106906
 20
12.093577254
 40
3.500000000
  1
10
 50
359.999999280
 41
1.000
 51
0.000000000
  7
STANDARD
  0
LINE
  8
MASS
  6
CONTINUOUS
 62
     4
 10
-32.000000000
 20
19.114442616
 11
-32.000000000
 21
0.900125294
  0
LINE
  8
MASS
  6
CONTINUOUS
 62
     4
 10
-32.000000000
 20
17.114442616
 11
-28.500000008
 21
17.564442680
  0
LINE
  8
MASS
  6
CONTINUOUS
 62
     4
 10
-28.500000008
 20
17.564442680
 11
-28.499999992
 21
16.664442680
  0
LINE
  8
MASS
  6
CONTINUOUS
 62
     4
 10
-28.499999992
 20
16.664442680
 11
-32.000000000
 21
17.114442616
  0
LINE
  8
MASS
  6
CONTINUOUS
 62
     4
 10
19.599963999
 20
19.114443569
 11
19.599963999
 21
1.400125294
  0
LINE
  8
MASS
  6
CONTINUOUS
 62
     4
 10
19.599963999
 20
17.114443569
 11
16.099964007
 21
16.664443505
  0
LINE
  8
MASS
  6
CONTINUOUS
 62
     4
 10
16.099964007
 20
16.664443505
 11
16.099963990
 21
17.564443505
  0
LINE
  8
MASS
  6
CONTINUOUS
 62
     4
 10
16.099963990
 20
17.564443505
 11
19.599963999
 21
17.114443569
  0
LINE
  8
MASS
  6
CONTINUOUS
 62
     4
 10
-28.500000000
 20
17.114442680
 11
16.099963999
 21
17.114443505
  0
TEXT
  8
MASS
  6
CONTINUOUS
 62
     4
 10
-7.755331105
 20
18.614443064
 40
3.500000000
  1
52
 50
0.000001059
 41
1.000
 51
0.000000000
  7
STANDARD
  0
TEXT
  8
MASS
  6
CONTINUOUS
 62
     4
 10
-8.584706105
 20
18.614443049
 40
3.500000000
  1
(
 50
0.000001059
 41
1.000
 51
0.000000000
  7
STANDARD
  0
TEXT
  8
MASS
  6
CONTINUOUS
 62
     4
 10
-3.644706105
 20
18.614443140
 40
3.500000000
  1
)
 50
0.000001059
 41
1.000
 51
0.000000000
  7
STANDARD
  0
LINE
  8
MASS
  6
CONTINUOUS
 62
     4
 10
-32.000000000
 20
-13.169275093
 11
-32.000000000
 21
-3.300000000
  0
LINE
  8
MASS
  6
CONTINUOUS
 62
     4
 10
-32.000000000
 20
-11.169275093
 11
-28.499999997
 21
-10.719275114
  0
LINE
  8
MASS
  6
CONTINUOUS
 62
     4
 10
-28.499999997
 20
-10.719275114
 11
-28.500000003
 21
-11.619275114
  0
LINE
  8
MASS
  6
CONTINUOUS
 62
     4
 10
-28.500000003
 20
-11.619275114
 11
-32.000000000
 21
-11.169275093
  0
LINE
  8
MASS
  6
CONTINUOUS
 62
     4
 10
0.000000000
 20
-13.169275284
 11
0.000000000
 21
-3.500000000
  0
LINE
  8
MASS
  6
CONTINUOUS
 62
     4
 10
0.000000000
 20
-11.169275284
 11
-3.500000003
 21
-11.619275263
  0
LINE
  8
MASS
  6
CONTINUOUS
 62
     4
 10
-3.500000003
 20
-11.619275263
 11
-3.499999997
 21
-10.719275263
  0
LINE
  8
MASS
  6
CONTINUOUS
 62
     4
 10
-3.499999997
 20
-10.719275263
 11
0.000000000
 21
-11.169275284
  0
LINE
  8
MASS
  6
CONTINUOUS
 62
     4
 10
-28.500000000
 20
-11.169275114
 11
-3.500000000
 21
-11.169275263
  0
TEXT
  8
MASS
  6
CONTINUOUS
 62
     4
 10
-17.473281599
 20
-9.669275180
 40
3.500000000
  1
32
 50
359.999999658
 41
1.000
 51
0.000000000
  7
STANDARD
  0
LINE
  8
MASS
  6
CONTINUOUS
 62
     4
 10
29.559619955
 20
1.449927423
 11
19.550162307
 21
1.449926986
  0
LINE
  8
MASS
  6
CONTINUOUS
 62
     4
 10
27.559619955
 20
1.449927336
 11
28.009620108
 21
-2.050072644
  0
LINE
  8
MASS
  6
CONTINUOUS
 62
     4
 10
28.009620108
 20
-2.050072644
 11
27.109620108
 21
-2.050072684
  0
LINE
  8
MASS
  6
CONTINUOUS
 62
     4
 10
27.109620108
 20
-2.050072684
 11
27.559619955
 21
1.449927336
  0
LINE
  8
MASS
  6
CONTINUOUS
 62
     4
 10
27.559620541
 20
-11.957419433
 11
27.559620108
 21
-2.050072664
  0
CIRCLE
  8
MASS
  6
CONTINUOUS
 62
     4
 10
24.973906566
 20
-14.846082280
 40
1.250000000
  0
LINE
  8
MASS
  6
CONTINUOUS
 62
     4
 10
26.223906621
 20
-16.096082225
 11
23.723906511
 21
-13.596082334
  0
TEXT
  8
MASS
  6
CONTINUOUS
 62
     4
 10
26.223906468
 20
-12.596082225
 40
3.500000000
  1
2.9-5.5
 50
90.000002504
 41
1.000
 51
0.000000000
  7
STANDARD
  0
LINE
  8
UNSICHT
  6
GESTRICHELT
 62
     1
 10
-32.000000000
 20
0.600000000
 11
6.614648453
 21
0.600000000
  0
LINE
  8
UNSICHT
  6
GESTRICHELT
 62
     1
 10
-32.000000000
 20
-0.600000000
 11
6.706319791
 21
-0.600000000
  0
TEXT
  8
MASS
  6
GESTRICHELT
 62
     4
 10
-18.632832982
 20
4.701510989
 40
3.500000000
  1
615.502
 50
0.000000000
 41
1.000
 51
0.000000000
  7
STANDARD
  0
LINE
  8
AUFNAHME
  6
CONTINUOUS
 62
     7
 10
0.000000000
 20
-3.500000000
 11
4.956725293
 21
-3.500000000
  0
LINE
  8
AUFNAHME
  6
CONTINUOUS
 62
     7
 10
4.956725293
 20
3.500000000
 11
0.000000000
 21
3.500000000
  0
ARC
  8
AUFNAHME
  6
CONTINUOUS
 62
     7
 10
9.600000000
 20
-7.300000000
 40
6.000000000
 50
90.000000000
 51
140.703519761
  0
ARC
  8
AUFNAHME
  6
CONTINUOUS
 62
     7
 10
9.600000000
 20
7.300000000
 40
6.000000000
 50
-140.703519761
 51
-90.000000000
  0
LINE
  8
AUFNAHME
  6
CONTINUOUS
 62
     7
 10
9.600000000
 20
-1.300000000
 11
17.113947059
 21
-1.179755243
  0
LINE
  8
AUFNAHME
  6
CONTINUOUS
 62
     7
 10
17.114213562
 20
1.179750979
 11
9.600000000
 21
1.300000000
  0
LINE
  8
AUFNAHME
  6
CONTINUOUS
 62
     7
 10
4.956725293
 20
-3.500000000
 11
4.956725293
 21
3.500000000
  0
LINE
  8
AUFNAHME
  6
CONTINUOUS
 62
     7
 10
5.977909614
 20
0.341434490
 11
5.906308344
 21
0.206255917
  0
LINE
  8
AUFNAHME
  6
CONTINUOUS
 62
     7
 10
5.906308344
 20
0.206255917
 11
5.871976915
 21
0.044296270
  0
LINE
  8
AUFNAHME
  6
CONTINUOUS
 62
     7
 10
5.871976915
 20
0.044296270
 11
5.879997679
 21
-0.108421168
  0
LINE
  8
AUFNAHME
  6
CONTINUOUS
 62
     7
 10
5.879997679
 20
-0.108421168
 11
5.920764359
 21
-0.242093198
  0
LINE
  8
AUFNAHME
  6
CONTINUOUS
 62
     7
 10
5.920764359
 20
-0.242093198
 11
5.994636992
 21
-0.363259846
  0
LINE
  8
AUFNAHME
  6
CONTINUOUS
 62
     7
 10
5.994636992
 20
-0.363259846
 11
6.151369971
 21
-0.495625406
  0
LINE
  8
AUFNAHME
  6
CONTINUOUS
 62
     7
 10
6.151369971
 20
-0.495625406
 11
6.289462902
 21
-0.555053956
  0
LINE
  8
AUFNAHME
  6
CONTINUOUS
 62
     7
 10
6.289462902
 20
-0.555053956
 11
6.438649897
 21
-0.587786336
  0
LINE
  8
AUFNAHME
  6
CONTINUOUS
 62
     7
 10
6.438649897
 20
-0.587786336
 11
6.706319791
 21
-0.598503690
  0
LINE
  8
AUFNAHME
  6
CONTINUOUS
 62
     7
 10
6.706319791
 20
-0.598503690
 11
6.986483943
 21
-0.569674172
  0
LINE
  8
AUFNAHME
  6
CONTINUOUS
 62
     7
 10
6.986483943
 20
-0.569674172
 11
7.530839375
 21
-0.454978251
  0
LINE
  8
AUFNAHME
  6
CONTINUOUS
 62
     7
 10
7.530839375
 20
-0.454978251
 11
8.081651757
 21
-0.279308218
  0
LINE
  8
AUFNAHME
  6
CONTINUOUS
 62
     7
 10
8.081651757
 20
-0.279308218
 11
8.317515184
 21
-0.179374626
  0
LINE
  8
AUFNAHME
  6
CONTINUOUS
 62
     7
 10
8.317515184
 20
-0.179374626
 11
8.395603325
 21
-0.135967596
  0
LINE
  8
AUFNAHME
  6
CONTINUOUS
 62
     7
 10
8.395603325
 20
-0.135967596
 11
8.468273131
 21
-0.080355023
  0
LINE
  8
AUFNAHME
  6
CONTINUOUS
 62
     7
 10
8.468273131
 20
-0.080355023
 11
8.492837744
 21
-0.050477303
  0
LINE
  8
AUFNAHME
  6
CONTINUOUS
 62
     7
 10
8.492837744
 20
-0.050477303
 11
8.507823449
 21
-0.014242448
  0
LINE
  8
AUFNAHME
  6
CONTINUOUS
 62
     7
 10
8.507823449
 20
-0.014242448
 11
8.508148246
 21
0.012343135
  0
LINE
  8
AUFNAHME
  6
CONTINUOUS
 62
     7
 10
8.508148246
 20
0.012343135
 11
8.500073172
 21
0.037575684
  0
LINE
  8
AUFNAHME
  6
CONTINUOUS
 62
     7
 10
8.500073172
 20
0.037575684
 11
8.473961168
 21
0.074462386
  0
LINE
  8
AUFNAHME
  6
CONTINUOUS
 62
     7
 10
8.473961168
 20
0.074462386
 11
8.371473449
 21
0.150445432
  0
LINE
  8
AUFNAHME
  6
CONTINUOUS
 62
     7
 10
8.371473449
 20
0.150445432
 11
8.114124782
 21
0.269428685
  0
LINE
  8
AUFNAHME
  6
CONTINUOUS
 62
     7
 10
8.114124782
 20
0.269428685
 11
7.846750569
 21
0.359814323
  0
LINE
  8
AUFNAHME
  6
CONTINUOUS
 62
     7
 10
7.846750569
 20
0.359814323
 11
7.312555295
 21
0.508349608
  0
LINE
  8
AUFNAHME
  6
CONTINUOUS
 62
     7
 10
7.312555295
 20
0.508349608
 11
6.791997463
 21
0.592847489
  0
LINE
  8
AUFNAHME
  6
CONTINUOUS
 62
     7
 10
6.791997463
 20
0.592847489
 11
6.437299444
 21
0.587596753
  0
LINE
  8
AUFNAHME
  6
CONTINUOUS
 62
     7
 10
6.437299444
 20
0.587596753
 11
6.270279333
 21
0.548792327
  0
LINE
  8
AUFNAHME
  6
CONTINUOUS
 62
     7
 10
6.270279333
 20
0.548792327
 11
6.118183057
 21
0.475163049
  0
LINE
  8
AUFNAHME
  6
CONTINUOUS
 62
     7
 10
6.118183057
 20
0.475163049
 11
5.977909614
 21
0.341434490
  0
LINE
  8
AUFNAHME
  6
CONTINUOUS
 62
     7
 10
18.629299641
 20
1.155505245
 11
18.973315660
 21
1.144934747
  0
LINE
  8
AUFNAHME
  6
CONTINUOUS
 62
     7
 10
17.114213562
 20
1.179750979
 11
18.629299641
 21
1.155505245
  0
ARC
  8
AUFNAHME
  6
CONTINUOUS
 62
     7
 10
16.955749590
 20
-4.294425561
 40
5.476469631
 50
88.341890874
 51
95.749641769
  0
ARC
  8
AUFNAHME
  6
CONTINUOUS
 62
     7
 10
16.680822630
 20
0.000000000
 40
1.186496465
 50
103.337846193
 51
-103.337846193
  0
ARC
  8
AUFNAHME
  6
CONTINUOUS
 62
     7
 10
16.838468517
 20
1.011130407
 40
2.208165885
 50
-101.265078536
 51
-82.826454106
  0
LINE
  8
AUFNAHME
  6
CONTINUOUS
 62
     7
 10
18.965000000
 20
-1.150133074
 11
17.114213562
 21
-1.179750979
  0
ARC
  8
AUFNAHME
  6
CONTINUOUS
 62
     7
 10
9.118667943
 20
19.899707850
 40
21.186212399
 50
-62.280433261
 51
-61.016479005
  0
ARC
  8
AUFNAHME
  6
CONTINUOUS
 62
     7
 10
91.943384114
 20
-2.568074031
 40
72.450304551
 50
177.318464444
 51
178.877968772
  0
LINE
  8
AUFNAHME
  6
CONTINUOUS
 62
     7
 10
19.423148760
 20
-1.150000000
 11
19.506971442
 21
-1.149360312
  0
ARC
  8
AUFNAHME
  6
CONTINUOUS
 62
     7
 10
19.550106131
 20
1.400082269
 40
0.049870010
 50
23.234588560
 51
118.217727384
  0
LINE
  8
AUFNAHME
  6
CONTINUOUS
 62
     7
 10
19.595931551
 20
1.419755824
 11
19.598357456
 21
1.412710485
  0
LINE
  8
AUFNAHME
  6
CONTINUOUS
 62
     7
 10
19.598357456
 20
1.412710485
 11
19.599989336
 21
1.401032418
  0
LINE
  8
AUFNAHME
  6
CONTINUOUS
 62
     7
 10
19.572412367
 20
0.821480190
 11
19.599989336
 21
1.401032418
  0
LINE
  8
AUFNAHME
  6
CONTINUOUS
 62
     7
 10
19.384617673
 20
1.366875581
 11
19.526526422
 21
1.444025588
  0
LINE
  8
AUFNAHME
  6
CONTINUOUS
 62
     7
 10
18.973315660
 20
-1.150000000
 11
19.423148760
 21
-1.150000000
  0
LINE
  8
AUFNAHME
  6
CONTINUOUS
 62
     7
 10
18.965000000
 20
-1.150000000
 11
18.973315660
 21
-1.150000000
  0
LINE
  8
AUFNAHME
  6
CONTINUOUS
 62
     7
 10
17.114213562
 20
1.179750979
 11
17.114213562
 21
-1.179750979
  0
LINE
  8
MASS
  6
CONTINUOUS
 62
     4
 10
0.000000000
 20
-13.187557697
 11
0.000000000
 21
-3.500000000
  0
LINE
  8
MASS
  6
CONTINUOUS
 62
     4
 10
0.000000000
 20
-11.187557697
 11
3.499999996
 21
-10.737557669
  0
LINE
  8
MASS
  6
CONTINUOUS
 62
     4
 10
3.499999996
 20
-10.737557669
 11
3.500000004
 21
-11.637557669
  0
LINE
  8
MASS
  6
CONTINUOUS
 62
     4
 10
3.500000004
 20
-11.637557669
 11
0.000000000
 21
-11.187557697
  0
LINE
  8
MASS
  6
CONTINUOUS
 62
     4
 10
19.599976141
 20
-13.187557540
 11
19.599976141
 21
1.400082269
  0
LINE
  8
MASS
  6
CONTINUOUS
 62
     4
 10
19.599976141
 20
-11.187557540
 11
16.099976145
 21
-11.637557568
  0
LINE
  8
MASS
  6
CONTINUOUS
 62
     4
 10
16.099976145
 20
-11.637557568
 11
16.099976138
 21
-10.737557568
  0
LINE
  8
MASS
  6
CONTINUOUS
 62
     4
 10
16.099976138
 20
-10.737557568
 11
19.599976141
 21
-11.187557540
  0
LINE
  8
MASS
  6
CONTINUOUS
 62
     4
 10
3.500000000
 20
-11.187557669
 11
16.099976141
 21
-11.187557568
  0
TEXT
  8
MASS
  6
CONTINUOUS
 62
     4
 10
8.135300339
 20
-9.687557632
 40
3.500000000
  1
20
 50
0.000000461
 41
1.000
 51
0.000000000
  7
STANDARD
  0
ENDSEC
  0
EOF
