999
NT  : 16.0 - 919
  0
SECTION
  2
HEADER
  9
$ACADVER
  1
AC1006
  9
$INSBASE
 10
0.000000000
 20
0.000000000
  9
$EXTMIN
 10
-45.059919404
 20
-20.335580818
  9
$EXTMAX
 10
28.278625865
 20
26.385656178
  9
$LIMMIN
 10
-45.059919404
 20
-20.335580818
  9
$LIMMAX
 10
28.278625865
 20
26.385656178
  9
$AUNITS
 70
     2
  9
$ANGBASE
 50
0.000
  9
$ANGDIR
 70
     0
  0
ENDSEC
  0
SECTION
  2
TABLES
  0
TABLE
  2
LTYPE
 70
     8
  0
LTYPE
  2
PUNKT
 70
    64
  3
..............
 72
    65
 73
     2
 40
1.500
 49
0.700
 49
-0.800
  0
LTYPE
  2
GESTRICHELT
 70
    64
  3
-- -- -- -- --
 72
    65
 73
     7
 40
2.800
 49
0.900
 49
0.000
 49
0.900
 49
0.000
 49
0.200
 49
0.000
 49
-0.800
  0
LTYPE
  2
STRICHPUNKT
 70
    64
  3
--.--.--.--.--
 72
    65
 73
     4
 40
8.800
 49
5.500
 49
-1.300
 49
0.700
 49
-1.300
  0
LTYPE
  2
STRICHPUNKT
 70
    64
  3
--.--.--.--.--
 72
    65
 73
     4
 40
8.800
 49
5.500
 49
-1.300
 49
0.700
 49
-1.300
  0
LTYPE
  2
STRICHPUNKT
 70
    64
  3
--.--.--.--.--
 72
    65
 73
     4
 40
8.800
 49
5.500
 49
-1.300
 49
0.700
 49
-1.300
  0
LTYPE
  2
PHANTOM
 70
    64
  3
--..--..--..--
 72
    65
 73
     6
 40
14.200
 49
7.000
 49
-1.800
 49
0.900
 49
-1.800
 49
0.900
 49
-1.800
  0
LTYPE
  2
PHANTOM
 70
    64
  3
--..--..--..--
 72
    65
 73
     6
 40
14.200
 49
7.000
 49
-1.800
 49
0.900
 49
-1.800
 49
0.900
 49
-1.800
  0
LTYPE
  2
PHANTOM
 70
    64
  3
--..--..--..--
 72
    65
 73
     6
 40
14.200
 49
7.000
 49
-1.800
 49
0.900
 49
-1.800
 49
0.900
 49
-1.800
  0
ENDTAB
  0
ENDSEC
  0
SECTION
  2
BLOCKS
  0
ENDSEC
  0
SECTION
  2
ENTITIES
  0
LINE
  8
ZAPFEN
  6
CONTINUOUS
 62
     4
 10
-31.800000000
 20
3.500000000
 11
-32.000000000
 21
3.300000000
  0
LINE
  8
ZAPFEN
  6
CONTINUOUS
 62
     4
 10
-32.000000000
 20
-3.300000000
 11
-31.800000000
 21
-3.500000000
  0
LINE
  8
ZAPFEN
  6
CONTINUOUS
 62
     4
 10
-31.800000000
 20
-3.500000000
 11
0.000000000
 21
-3.500000000
  0
LINE
  8
AUFNAHME
  6
CONTINUOUS
 62
     7
 10
0.000000000
 20
-3.500000000
 11
7.622299728
 21
-3.500000000
  0
LINE
  8
AUFNAHME
  6
CONTINUOUS
 62
     7
 10
7.622299728
 20
3.500000000
 11
0.000000000
 21
3.500000000
  0
LINE
  8
ZAPFEN
  6
CONTINUOUS
 62
     4
 10
0.000000000
 20
3.500000000
 11
-31.800000000
 21
3.500000000
  0
ARC
  8
AUFNAHME
  6
CONTINUOUS
 62
     7
 10
12.600000000
 20
-6.850000000
 40
6.000000000
 50
90.000000000
 51
146.059385174
  0
ARC
  8
AUFNAHME
  6
CONTINUOUS
 62
     7
 10
12.600000000
 20
6.850000000
 40
6.000000000
 50
-146.059385174
 51
-90.000000000
  0
LINE
  8
AUFNAHME
  6
CONTINUOUS
 62
     7
 10
12.600000000
 20
-0.850000000
 11
18.113964910
 21
-0.765963442
  0
LINE
  8
AUFNAHME
  6
CONTINUOUS
 62
     7
 10
18.114213562
 20
0.765959652
 11
12.600000000
 21
0.850000000
  0
LINE
  8
ZAPFEN
  6
CONTINUOUS
 62
     4
 10
-32.000000000
 20
0.000000000
 11
-32.000000000
 21
3.300000000
  0
LINE
  8
ZAPFEN
  6
CONTINUOUS
 62
     4
 10
-32.000000000
 20
-3.300000000
 11
-32.000000000
 21
0.000000000
  0
LINE
  8
ZAPFEN
  6
CONTINUOUS
 62
     4
 10
-31.800000000
 20
0.000000000
 11
-31.800000000
 21
-3.500000000
  0
LINE
  8
ZAPFEN
  6
CONTINUOUS
 62
     4
 10
-31.800000000
 20
3.500000000
 11
-31.800000000
 21
0.000000000
  0
LINE
  8
AUFNAHME
  6
CONTINUOUS
 62
     7
 10
7.622299728
 20
-3.500000000
 11
7.622299728
 21
3.500000000
  0
LINE
  8
AUFNAHME
  6
CONTINUOUS
 62
     7
 10
8.946567565
 20
0.301635271
 11
8.890564904
 21
0.161086883
  0
LINE
  8
AUFNAHME
  6
CONTINUOUS
 62
     7
 10
8.890564904
 20
0.161086883
 11
8.870389109
 21
0.000678532
  0
LINE
  8
AUFNAHME
  6
CONTINUOUS
 62
     7
 10
8.870389109
 20
0.000678532
 11
8.887776151
 21
-0.149815992
  0
LINE
  8
AUFNAHME
  6
CONTINUOUS
 62
     7
 10
8.887776151
 20
-0.149815992
 11
8.936825643
 21
-0.283509842
  0
LINE
  8
AUFNAHME
  6
CONTINUOUS
 62
     7
 10
8.936825643
 20
-0.283509842
 11
9.020507520
 21
-0.403189881
  0
LINE
  8
AUFNAHME
  6
CONTINUOUS
 62
     7
 10
9.020507520
 20
-0.403189881
 11
9.193877006
 21
-0.527268516
  0
LINE
  8
AUFNAHME
  6
CONTINUOUS
 62
     7
 10
9.193877006
 20
-0.527268516
 11
9.344548090
 21
-0.576699584
  0
LINE
  8
AUFNAHME
  6
CONTINUOUS
 62
     7
 10
9.344548090
 20
-0.576699584
 11
9.506509486
 21
-0.597830325
  0
LINE
  8
AUFNAHME
  6
CONTINUOUS
 62
     7
 10
9.506509486
 20
-0.597830325
 11
9.797053147
 21
-0.587942578
  0
LINE
  8
AUFNAHME
  6
CONTINUOUS
 62
     7
 10
9.797053147
 20
-0.587942578
 11
10.100490317
 21
-0.539286680
  0
LINE
  8
AUFNAHME
  6
CONTINUOUS
 62
     7
 10
10.100490317
 20
-0.539286680
 11
10.707043633
 21
-0.394583286
  0
LINE
  8
AUFNAHME
  6
CONTINUOUS
 62
     7
 10
10.707043633
 20
-0.394583286
 11
11.310042508
 21
-0.172154288
  0
LINE
  8
AUFNAHME
  6
CONTINUOUS
 62
     7
 10
11.310042508
 20
-0.172154288
 11
11.424207045
 21
-0.109615847
  0
LINE
  8
AUFNAHME
  6
CONTINUOUS
 62
     7
 10
11.424207045
 20
-0.109615847
 11
11.466108536
 21
-0.077266819
  0
LINE
  8
AUFNAHME
  6
CONTINUOUS
 62
     7
 10
11.466108536
 20
-0.077266819
 11
11.499798811
 21
-0.035698637
  0
LINE
  8
AUFNAHME
  6
CONTINUOUS
 62
     7
 10
11.499798811
 20
-0.035698637
 11
11.508075098
 21
-0.011973275
  0
LINE
  8
AUFNAHME
  6
CONTINUOUS
 62
     7
 10
11.508075098
 20
-0.011973275
 11
11.507820815
 21
0.013340809
  0
LINE
  8
AUFNAHME
  6
CONTINUOUS
 62
     7
 10
11.507820815
 20
0.013340809
 11
11.500141731
 21
0.035033598
  0
LINE
  8
AUFNAHME
  6
CONTINUOUS
 62
     7
 10
11.500141731
 20
0.035033598
 11
11.475300489
 21
0.068369468
  0
LINE
  8
AUFNAHME
  6
CONTINUOUS
 62
     7
 10
11.475300489
 20
0.068369468
 11
11.375930646
 21
0.138788965
  0
LINE
  8
AUFNAHME
  6
CONTINUOUS
 62
     7
 10
11.375930646
 20
0.138788965
 11
11.125111788
 21
0.250646853
  0
LINE
  8
AUFNAHME
  6
CONTINUOUS
 62
     7
 10
11.125111788
 20
0.250646853
 11
10.865435814
 21
0.337031074
  0
LINE
  8
AUFNAHME
  6
CONTINUOUS
 62
     7
 10
10.865435814
 20
0.337031074
 11
10.347470310
 21
0.485227799
  0
LINE
  8
AUFNAHME
  6
CONTINUOUS
 62
     7
 10
10.347470310
 20
0.485227799
 11
9.842699882
 21
0.582272645
  0
LINE
  8
AUFNAHME
  6
CONTINUOUS
 62
     7
 10
9.842699882
 20
0.582272645
 11
9.492552530
 21
0.596963211
  0
LINE
  8
AUFNAHME
  6
CONTINUOUS
 62
     7
 10
9.492552530
 20
0.596963211
 11
9.326877738
 21
0.572668514
  0
LINE
  8
AUFNAHME
  6
CONTINUOUS
 62
     7
 10
9.326877738
 20
0.572668514
 11
9.173725421
 21
0.517519291
  0
LINE
  8
AUFNAHME
  6
CONTINUOUS
 62
     7
 10
9.173725421
 20
0.517519291
 11
9.016609705
 21
0.398951373
  0
LINE
  8
AUFNAHME
  6
CONTINUOUS
 62
     7
 10
9.016609705
 20
0.398951373
 11
8.946567565
 21
0.301635271
  0
LINE
  8
AUFNAHME
  6
CONTINUOUS
 62
     7
 10
18.806443922
 20
0.755409593
 11
19.161388307
 21
0.745850506
  0
LINE
  8
AUFNAHME
  6
CONTINUOUS
 62
     7
 10
18.114213562
 20
0.765959652
 11
18.806443922
 21
0.755409593
  0
ARC
  8
AUFNAHME
  6
CONTINUOUS
 62
     7
 10
17.966459192
 20
-2.382660553
 40
3.152085111
 50
87.313268880
 51
100.221539957
  0
ARC
  8
AUFNAHME
  6
CONTINUOUS
 62
     7
 10
17.688105329
 20
0.000000000
 40
0.772329749
 50
111.335741208
 51
-111.335741208
  0
ARC
  8
AUFNAHME
  6
CONTINUOUS
 62
     7
 10
17.873068152
 20
0.964390054
 40
1.747072183
 50
-105.468577542
 51
-82.066231295
  0
LINE
  8
AUFNAHME
  6
CONTINUOUS
 62
     7
 10
19.155000000
 20
-0.750097362
 11
18.114213562
 21
-0.765959652
  0
LINE
  8
AUFNAHME
  6
CONTINUOUS
 62
     7
 10
19.161388307
 20
0.745850506
 11
19.461978065
 21
0.908870419
  0
LINE
  8
AUFNAHME
  6
CONTINUOUS
 62
     7
 10
19.461978065
 20
0.908870419
 11
19.491053203
 21
0.924742791
  0
ARC
  8
AUFNAHME
  6
CONTINUOUS
 62
     7
 10
90.707794832
 20
-2.698441954
 40
71.198536023
 50
177.309316357
 51
178.429772271
  0
LINE
  8
AUFNAHME
  6
CONTINUOUS
 62
     7
 10
19.324798014
 20
-0.750000000
 11
19.535994654
 21
-0.747444475
  0
LINE
  8
AUFNAHME
  6
CONTINUOUS
 62
     7
 10
19.596034691
 20
0.919514281
 11
19.598290023
 21
0.912964323
  0
ARC
  8
AUFNAHME
  6
CONTINUOUS
 62
     7
 10
19.550162307
 20
0.900125294
 40
0.049801692
 50
22.912435476
 51
118.333312056
  0
LINE
  8
AUFNAHME
  6
CONTINUOUS
 62
     7
 10
19.598290023
 20
0.912964323
 11
19.599989132
 21
0.901042141
  0
LINE
  8
AUFNAHME
  6
CONTINUOUS
 62
     7
 10
19.587753678
 20
0.643904221
 11
19.599989132
 21
0.901042141
  0
LINE
  8
AUFNAHME
  6
CONTINUOUS
 62
     7
 10
19.491053203
 20
0.924742791
 11
19.526526422
 21
0.943960821
  0
LINE
  8
AUFNAHME
  6
CONTINUOUS
 62
     7
 10
19.161388307
 20
-0.750000000
 11
19.324798014
 21
-0.750000000
  0
LINE
  8
AUFNAHME
  6
CONTINUOUS
 62
     7
 10
19.155000000
 20
-0.750000000
 11
19.161388307
 21
-0.750000000
  0
LINE
  8
AUFNAHME
  6
CONTINUOUS
 62
     7
 10
18.114213562
 20
0.765959652
 11
18.114213562
 21
-0.765959652
  0
LINE
  8
ZAPFEN
  6
STRICHPUNKT
 62
     4
 10
-33.151284445
 20
0.000000000
 11
20.341114132
 21
0.000000000
  0
LINE
  8
MASS
  6
CONTINUOUS
 62
     4
 10
-41.340914059
 20
-3.500000000
 11
-31.800000000
 21
-3.500000000
  0
LINE
  8
MASS
  6
CONTINUOUS
 62
     4
 10
-39.340914059
 20
-3.500000000
 11
-39.790914059
 21
-7.000000000
  0
LINE
  8
MASS
  6
CONTINUOUS
 62
     4
 10
-39.790914059
 20
-7.000000000
 11
-38.890914059
 21
-7.000000000
  0
LINE
  8
MASS
  6
CONTINUOUS
 62
     4
 10
-38.890914059
 20
-7.000000000
 11
-39.340914059
 21
-3.500000000
  0
LINE
  8
MASS
  6
CONTINUOUS
 62
     4
 10
-39.340914059
 20
-7.000000000
 11
-39.340914059
 21
-11.000000000
  0
LINE
  8
MASS
  6
CONTINUOUS
 62
     4
 10
-41.340914059
 20
3.500000000
 11
-31.800000000
 21
3.500000000
  0
LINE
  8
MASS
  6
CONTINUOUS
 62
     4
 10
-39.340914059
 20
3.500000000
 11
-38.890914059
 21
7.000000000
  0
LINE
  8
MASS
  6
CONTINUOUS
 62
     4
 10
-38.890914059
 20
7.000000000
 11
-39.790914059
 21
7.000000000
  0
LINE
  8
MASS
  6
CONTINUOUS
 62
     4
 10
-39.790914059
 20
7.000000000
 11
-39.340914059
 21
3.500000000
  0
LINE
  8
MASS
  6
CONTINUOUS
 62
     4
 10
-39.340914059
 20
7.000000000
 11
-39.340914059
 21
11.000000000
  0
LINE
  8
MASS
  6
CONTINUOUS
 62
     4
 10
-39.340914059
 20
-3.500000000
 11
-39.340914059
 21
3.500000000
  0
TEXT
  8
MASS
  6
CONTINUOUS
 62
     4
 10
-40.840914059
 20
1.206406172
 40
3.500000000
  1
7
 50
90.000000000
 41
1.000
 51
0.000000000
  7
STANDARD
  0
CIRCLE
  8
MASS
  6
CONTINUOUS
 62
     4
 10
-42.090914059
 20
-1.043593828
 40
1.250000000
  0
LINE
  8
MASS
  6
CONTINUOUS
 62
     4
 10
-40.840914059
 20
-2.293593828
 11
-43.340914059
 21
0.206406172
  0
LINE
  8
MASS
  6
CONTINUOUS
 62
     4
 10
12.600000000
 20
11.593577301
 11
12.600000000
 21
1.194607651
  0
LINE
  8
MASS
  6
CONTINUOUS
 62
     4
 10
12.600000000
 20
9.593577301
 11
9.100000008
 21
10.043577364
  0
LINE
  8
MASS
  6
CONTINUOUS
 62
     4
 10
9.100000008
 20
10.043577364
 11
9.099999992
 21
9.143577364
  0
LINE
  8
MASS
  6
CONTINUOUS
 62
     4
 10
9.099999992
 20
9.143577364
 11
12.600000000
 21
9.593577301
  0
LINE
  8
MASS
  6
CONTINUOUS
 62
     4
 10
9.100000000
 20
9.593577364
 11
5.100000000
 21
9.593577436
  0
LINE
  8
MASS
  6
CONTINUOUS
 62
     4
 10
19.599963999
 20
11.593577175
 11
19.599963999
 21
0.900125294
  0
LINE
  8
MASS
  6
CONTINUOUS
 62
     4
 10
19.599963999
 20
9.593577175
 11
23.099963991
 21
9.143577113
  0
LINE
  8
MASS
  6
CONTINUOUS
 62
     4
 10
23.099963991
 20
9.143577113
 11
23.099964007
 21
10.043577113
  0
LINE
  8
MASS
  6
CONTINUOUS
 62
     4
 10
23.099964007
 20
10.043577113
 11
19.599963999
 21
9.593577175
  0
LINE
  8
MASS
  6
CONTINUOUS
 62
     4
 10
23.099963999
 20
9.593577113
 11
27.099963999
 21
9.593577041
  0
LINE
  8
MASS
  6
CONTINUOUS
 62
     4
 10
12.600000000
 20
9.593577301
 11
19.599963999
 21
9.593577175
  0
TEXT
  8
MASS
  6
CONTINUOUS
 62
     4
 10
15.556388198
 20
11.093577248
 40
3.500000000
  1
7
 50
359.999998971
 41
1.000
 51
0.000000000
  7
STANDARD
  0
LINE
  8
MASS
  6
CONTINUOUS
 62
     4
 10
-32.000000000
 20
18.614443569
 11
-32.000000000
 21
0.900125294
  0
LINE
  8
MASS
  6
CONTINUOUS
 62
     4
 10
-32.000000000
 20
16.614443569
 11
-28.500000000
 21
17.064443569
  0
LINE
  8
MASS
  6
CONTINUOUS
 62
     4
 10
-28.500000000
 20
17.064443569
 11
-28.500000000
 21
16.164443569
  0
LINE
  8
MASS
  6
CONTINUOUS
 62
     4
 10
-28.500000000
 20
16.164443569
 11
-32.000000000
 21
16.614443569
  0
LINE
  8
MASS
  6
CONTINUOUS
 62
     4
 10
19.599963999
 20
18.614443569
 11
19.599963999
 21
0.900125294
  0
LINE
  8
MASS
  6
CONTINUOUS
 62
     4
 10
19.599963999
 20
16.614443569
 11
16.099963999
 21
16.164443569
  0
LINE
  8
MASS
  6
CONTINUOUS
 62
     4
 10
16.099963999
 20
16.164443569
 11
16.099963999
 21
17.064443569
  0
LINE
  8
MASS
  6
CONTINUOUS
 62
     4
 10
16.099963999
 20
17.064443569
 11
19.599963999
 21
16.614443569
  0
LINE
  8
MASS
  6
CONTINUOUS
 62
     4
 10
-28.500000000
 20
16.614443569
 11
16.099963999
 21
16.614443569
  0
TEXT
  8
MASS
  6
CONTINUOUS
 62
     4
 10
-7.755331077
 20
18.114443569
 40
3.500000000
  1
52
 50
0.000000000
 41
1.000
 51
0.000000000
  7
STANDARD
  0
TEXT
  8
MASS
  6
CONTINUOUS
 62
     4
 10
-8.584706077
 20
18.114443569
 40
3.500000000
  1
(
 50
0.000000000
 41
1.000
 51
0.000000000
  7
STANDARD
  0
TEXT
  8
MASS
  6
CONTINUOUS
 62
     4
 10
-3.644706077
 20
18.114443569
 40
3.500000000
  1
)
 50
0.000000000
 41
1.000
 51
0.000000000
  7
STANDARD
  0
LINE
  8
MASS
  6
CONTINUOUS
 62
     4
 10
-32.000000000
 20
-13.169275570
 11
-32.000000000
 21
-3.300000000
  0
LINE
  8
MASS
  6
CONTINUOUS
 62
     4
 10
-32.000000000
 20
-11.169275570
 11
-28.500000004
 21
-10.719275539
  0
LINE
  8
MASS
  6
CONTINUOUS
 62
     4
 10
-28.500000004
 20
-10.719275539
 11
-28.499999996
 21
-11.619275539
  0
LINE
  8
MASS
  6
CONTINUOUS
 62
     4
 10
-28.499999996
 20
-11.619275539
 11
-32.000000000
 21
-11.169275570
  0
LINE
  8
MASS
  6
CONTINUOUS
 62
     4
 10
0.000000000
 20
-13.169275284
 11
0.000000000
 21
-3.500000000
  0
LINE
  8
MASS
  6
CONTINUOUS
 62
     4
 10
0.000000000
 20
-11.169275284
 11
-3.499999996
 21
-11.619275315
  0
LINE
  8
MASS
  6
CONTINUOUS
 62
     4
 10
-3.499999996
 20
-11.619275315
 11
-3.500000004
 21
-10.719275315
  0
LINE
  8
MASS
  6
CONTINUOUS
 62
     4
 10
-3.500000004
 20
-10.719275315
 11
0.000000000
 21
-11.169275284
  0
LINE
  8
MASS
  6
CONTINUOUS
 62
     4
 10
-28.500000000
 20
-11.169275539
 11
-3.500000000
 21
-11.169275315
  0
TEXT
  8
MASS
  6
CONTINUOUS
 62
     4
 10
-17.473281621
 20
-9.669275440
 40
3.500000000
  1
32
 50
0.000000512
 41
1.000
 51
0.000000000
  7
STANDARD
  0
LINE
  8
MASS
  6
CONTINUOUS
 62
     4
 10
29.559619977
 20
0.949927423
 11
19.550162307
 21
0.949926986
  0
LINE
  8
MASS
  6
CONTINUOUS
 62
     4
 10
27.559619977
 20
0.949927336
 11
28.009620130
 21
-2.550072644
  0
LINE
  8
MASS
  6
CONTINUOUS
 62
     4
 10
28.009620130
 20
-2.550072644
 11
27.109620130
 21
-2.550072684
  0
LINE
  8
MASS
  6
CONTINUOUS
 62
     4
 10
27.109620130
 20
-2.550072684
 11
27.559619977
 21
0.949927336
  0
LINE
  8
MASS
  6
CONTINUOUS
 62
     4
 10
27.559620520
 20
-11.457419433
 11
27.559620130
 21
-2.550072664
  0
CIRCLE
  8
MASS
  6
CONTINUOUS
 62
     4
 10
24.973906543
 20
-14.314368110
 40
1.250000000
  0
LINE
  8
MASS
  6
CONTINUOUS
 62
     4
 10
26.223906597
 20
-15.564368056
 11
23.723906488
 21
-13.064368165
  0
TEXT
  8
MASS
  6
CONTINUOUS
 62
     4
 10
26.223906444
 20
-12.064368056
 40
3.500000000
  1
1.9-4.5
 50
90.000002504
 41
1.000
 51
0.000000000
  7
STANDARD
  0
LINE
  8
UNSICHT
  6
GESTRICHELT
 62
     1
 10
-32.000000000
 20
0.600000000
 11
9.492552530
 21
0.600000000
  0
LINE
  8
UNSICHT
  6
GESTRICHELT
 62
     1
 10
-32.000000000
 20
-0.600000000
 11
9.506509486
 21
-0.600000000
  0
TEXT
  8
MASS
  6
GESTRICHELT
 62
     4
 10
-18.632832982
 20
4.701510989
 40
3.500000000
  1
615.501
 50
0.000000000
 41
1.000
 51
0.000000000
  7
STANDARD
  0
LINE
  8
MASS
  6
CONTINUOUS
 62
     4
 10
0.000000000
 20
-13.171700478
 11
0.000000000
 21
-3.500000000
  0
LINE
  8
MASS
  6
CONTINUOUS
 62
     4
 10
0.000000000
 20
-11.171700478
 11
3.500000005
 21
-10.721700515
  0
LINE
  8
MASS
  6
CONTINUOUS
 62
     4
 10
3.500000005
 20
-10.721700515
 11
3.499999995
 21
-11.621700515
  0
LINE
  8
MASS
  6
CONTINUOUS
 62
     4
 10
3.499999995
 20
-11.621700515
 11
0.000000000
 21
-11.171700478
  0
LINE
  8
MASS
  6
CONTINUOUS
 62
     4
 10
19.599963999
 20
-13.171700687
 11
19.599963999
 21
0.900125294
  0
LINE
  8
MASS
  6
CONTINUOUS
 62
     4
 10
19.599963999
 20
-11.171700687
 11
16.099963994
 21
-11.621700650
  0
LINE
  8
MASS
  6
CONTINUOUS
 62
     4
 10
16.099963994
 20
-11.621700650
 11
16.099964004
 21
-10.721700650
  0
LINE
  8
MASS
  6
CONTINUOUS
 62
     4
 10
16.099964004
 20
-10.721700650
 11
19.599963999
 21
-11.171700687
  0
LINE
  8
MASS
  6
CONTINUOUS
 62
     4
 10
3.500000000
 20
-11.171700515
 11
16.099963999
 21
-11.171700650
  0
TEXT
  8
MASS
  6
CONTINUOUS
 62
     4
 10
8.135294296
 20
-9.671700565
 40
3.500000000
  1
20
 50
359.999999387
 41
1.000
 51
0.000000000
  7
STANDARD
  0
ENDSEC
  0
EOF
