999
NT  : 16.0 - 919
  0
SECTION
  2
HEADER
  9
$ACADVER
  1
AC1006
  9
$INSBASE
 10
0.000000000
 20
0.000000000
  9
$EXTMIN
 10
-32.982519931
 20
-15.471804773
  9
$EXTMAX
 10
60.806529347
 20
41.982780632
  9
$LIMMIN
 10
-32.982519931
 20
-15.471804773
  9
$LIMMAX
 10
60.806529347
 20
41.982780632
  9
$AUNITS
 70
     2
  9
$ANGBASE
 50
0.000
  9
$ANGDIR
 70
     0
  0
ENDSEC
  0
SECTION
  2
TABLES
  0
TABLE
  2
LTYPE
 70
     8
  0
LTYPE
  2
PUNKT
 70
    64
  3
..............
 72
    65
 73
     2
 40
1.500
 49
0.700
 49
-0.800
  0
LTYPE
  2
GESTRICHELT
 70
    64
  3
-- -- -- -- --
 72
    65
 73
     7
 40
2.800
 49
0.900
 49
0.000
 49
0.900
 49
0.000
 49
0.200
 49
0.000
 49
-0.800
  0
LTYPE
  2
STRICHPUNKT
 70
    64
  3
--.--.--.--.--
 72
    65
 73
     4
 40
8.800
 49
5.500
 49
-1.300
 49
0.700
 49
-1.300
  0
LTYPE
  2
STRICHPUNKT
 70
    64
  3
--.--.--.--.--
 72
    65
 73
     4
 40
8.800
 49
5.500
 49
-1.300
 49
0.700
 49
-1.300
  0
LTYPE
  2
STRICHPUNKT
 70
    64
  3
--.--.--.--.--
 72
    65
 73
     4
 40
8.800
 49
5.500
 49
-1.300
 49
0.700
 49
-1.300
  0
LTYPE
  2
PHANTOM
 70
    64
  3
--..--..--..--
 72
    65
 73
     6
 40
14.200
 49
7.000
 49
-1.800
 49
0.900
 49
-1.800
 49
0.900
 49
-1.800
  0
LTYPE
  2
PHANTOM
 70
    64
  3
--..--..--..--
 72
    65
 73
     6
 40
14.200
 49
7.000
 49
-1.800
 49
0.900
 49
-1.800
 49
0.900
 49
-1.800
  0
LTYPE
  2
PHANTOM
 70
    64
  3
--..--..--..--
 72
    65
 73
     6
 40
14.200
 49
7.000
 49
-1.800
 49
0.900
 49
-1.800
 49
0.900
 49
-1.800
  0
ENDTAB
  0
ENDSEC
  0
SECTION
  2
BLOCKS
  0
ENDSEC
  0
SECTION
  2
ENTITIES
  0
LINE
  8
AUFNAHME
  6
CONTINUOUS
 62
     7
 10
7.895565443
 20
12.057351994
 11
3.500000000
 21
12.057351994
  0
LINE
  8
AUFNAHME
  6
CONTINUOUS
 62
     7
 10
3.500000000
 20
12.057351994
 11
3.500000000
 21
-12.787194107
  0
LINE
  8
AUFNAHME
  6
CONTINUOUS
 62
     7
 10
3.500000000
 20
-12.787194107
 11
5.000000000
 21
-12.787194107
  0
LINE
  8
AUFNAHME
  6
CONTINUOUS
 62
     7
 10
5.000000000
 20
-12.787194107
 11
5.000000000
 21
-9.487194107
  0
ARC
  8
AUFNAHME
  6
CONTINUOUS
 62
     7
 10
10.000000000
 20
-9.487194107
 40
5.000000000
 50
0.000000000
 51
180.000000000
  0
LINE
  8
AUFNAHME
  6
CONTINUOUS
 62
     7
 10
15.000000000
 20
-9.487194107
 11
15.000000000
 21
-12.231740208
  0
LINE
  8
AUFNAHME
  6
CONTINUOUS
 62
     7
 10
15.000000000
 20
-12.231740208
 11
15.169524222
 21
-12.231740208
  0
LINE
  8
AUFNAHME
  6
CONTINUOUS
 62
     7
 10
15.169524222
 20
-12.231740208
 11
16.123118008
 21
-10.838761348
  0
LINE
  8
AUFNAHME
  6
CONTINUOUS
 62
     7
 10
16.123118008
 20
-10.838761348
 11
17.026938624
 21
-9.412581223
  0
LINE
  8
AUFNAHME
  6
CONTINUOUS
 62
     7
 10
17.026938624
 20
-9.412581223
 11
17.865100379
 21
-7.948117868
  0
LINE
  8
AUFNAHME
  6
CONTINUOUS
 62
     7
 10
17.865100379
 20
-7.948117868
 11
18.455976498
 21
-6.787232987
  0
LINE
  8
AUFNAHME
  6
CONTINUOUS
 62
     7
 10
18.455976498
 20
-6.787232987
 11
18.984948917
 21
-5.594072773
  0
LINE
  8
AUFNAHME
  6
CONTINUOUS
 62
     7
 10
18.984948917
 20
-5.594072773
 11
19.435125087
 21
-4.370899481
  0
LINE
  8
AUFNAHME
  6
CONTINUOUS
 62
     7
 10
19.435125087
 20
-4.370899481
 11
19.789612459
 21
-3.119975367
  0
LINE
  8
AUFNAHME
  6
CONTINUOUS
 62
     7
 10
19.789612459
 20
-3.119975367
 11
20.018971533
 21
-1.930795230
  0
LINE
  8
AUFNAHME
  6
CONTINUOUS
 62
     7
 10
20.018971533
 20
-1.930795230
 11
20.139334441
 21
-0.725962869
  0
LINE
  8
AUFNAHME
  6
CONTINUOUS
 62
     7
 10
20.139334441
 20
-0.725962869
 11
20.139945688
 21
0.530429383
  0
LINE
  8
AUFNAHME
  6
CONTINUOUS
 62
     7
 10
20.139945688
 20
0.530429383
 11
20.015662781
 21
1.780780724
  0
LINE
  8
AUFNAHME
  6
CONTINUOUS
 62
     7
 10
20.015662781
 20
1.780780724
 11
19.858490795
 21
2.641630147
  0
LINE
  8
AUFNAHME
  6
CONTINUOUS
 62
     7
 10
19.858490795
 20
2.641630147
 11
19.648723774
 21
3.491288504
  0
LINE
  8
AUFNAHME
  6
CONTINUOUS
 62
     7
 10
19.648723774
 20
3.491288504
 11
19.387697109
 21
4.338945803
  0
LINE
  8
AUFNAHME
  6
CONTINUOUS
 62
     7
 10
19.387697109
 20
4.338945803
 11
18.813376358
 21
5.912805893
  0
LINE
  8
AUFNAHME
  6
CONTINUOUS
 62
     7
 10
7.000000000
 20
17.328075055
 11
7.000000000
 21
15.942597181
  0
LINE
  8
AUFNAHME
  6
CONTINUOUS
 62
     7
 10
7.000000000
 20
15.942597181
 11
7.000000000
 21
14.912805893
  0
ARC
  8
AUFNAHME
  6
CONTINUOUS
 62
     7
 10
12.000000000
 20
14.912805893
 40
5.000000000
 50
180.000000000
 51
-135.000000000
  0
LINE
  8
AUFNAHME
  6
CONTINUOUS
 62
     7
 10
8.464466094
 20
11.377271987
 11
12.464466094
 21
7.377271987
  0
ARC
  8
AUFNAHME
  6
CONTINUOUS
 62
     7
 10
16.000000000
 20
10.912805893
 40
5.000000000
 50
-135.000000000
 51
-90.000000000
  0
LINE
  8
AUFNAHME
  6
CONTINUOUS
 62
     7
 10
16.000000000
 20
5.912805893
 11
22.576093185
 21
5.912805893
  0
LINE
  8
AUFNAHME
  6
CONTINUOUS
 62
     7
 10
22.576093185
 20
5.912805893
 11
25.600000000
 21
3.148091090
  0
LINE
  8
AUFNAHME
  6
CONTINUOUS
 62
     7
 10
25.600000000
 20
3.148091090
 11
25.600000000
 21
3.083247481
  0
LINE
  8
AUFNAHME
  6
CONTINUOUS
 62
     7
 10
25.600000000
 20
3.083247481
 11
25.600000000
 21
-7.228622536
  0
LINE
  8
AUFNAHME
  6
CONTINUOUS
 62
     7
 10
25.600000000
 20
-7.228622536
 11
24.915719323
 21
-7.910401085
  0
LINE
  8
AUFNAHME
  6
CONTINUOUS
 62
     7
 10
24.915719323
 20
-7.910401085
 11
19.181190159
 21
-13.587194107
  0
LINE
  8
AUFNAHME
  6
CONTINUOUS
 62
     7
 10
19.181190159
 20
-13.587194107
 11
18.620280694
 21
-14.087194107
  0
LINE
  8
AUFNAHME
  6
CONTINUOUS
 62
     7
 10
18.620280694
 20
-14.087194107
 11
15.169524222
 21
-14.087194107
  0
LINE
  8
AUFNAHME
  6
CONTINUOUS
 62
     7
 10
15.169524222
 20
-14.087194107
 11
15.169524222
 21
-12.231740208
  0
LINE
  8
AUFNAHME
  6
CONTINUOUS
 62
     7
 10
16.315782432
 20
7.887269464
 11
16.621341635
 21
7.581710260
  0
ARC
  8
AUFNAHME
  6
CONTINUOUS
 62
     7
 10
17.449490624
 20
8.330503696
 40
1.116477656
 50
-137.880831966
 51
-99.504311114
  0
ARC
  8
AUFNAHME
  6
CONTINUOUS
 62
     7
 10
17.751672787
 20
8.434873094
 40
1.300000000
 50
-111.978535307
 51
-100.000000002
  0
LINE
  8
AUFNAHME
  6
CONTINUOUS
 62
     7
 10
17.525930156
 20
7.154623015
 11
18.897343207
 21
6.912805893
  0
LINE
  8
AUFNAHME
  6
CONTINUOUS
 62
     7
 10
18.897343207
 20
6.912805893
 11
22.100000000
 21
6.348091090
  0
LINE
  8
AUFNAHME
  6
CONTINUOUS
 62
     7
 10
22.100000000
 20
6.348091090
 11
22.576093185
 21
5.912805893
  0
LINE
  8
AUFNAHME
  6
CONTINUOUS
 62
     7
 10
12.687830017
 20
14.974934345
 11
10.091771365
 21
16.326356940
  0
ARC
  8
AUFNAHME
  6
CONTINUOUS
 62
     7
 10
9.491498168
 20
15.173242857
 40
1.300000000
 50
62.500000000
 51
-117.500000000
  0
LINE
  8
AUFNAHME
  6
CONTINUOUS
 62
     7
 10
8.891224971
 20
14.020128774
 11
11.484033719
 21
12.670397971
  0
LINE
  8
AUFNAHME
  6
CONTINUOUS
 62
     7
 10
12.000000000
 20
-8.332493569
 11
10.000000000
 21
-7.177793031
  0
LINE
  8
AUFNAHME
  6
CONTINUOUS
 62
     7
 10
10.000000000
 20
-7.177793031
 11
8.000000000
 21
-8.332493569
  0
LINE
  8
AUFNAHME
  6
CONTINUOUS
 62
     7
 10
8.000000000
 20
-8.332493569
 11
8.000000000
 21
-10.641894646
  0
LINE
  8
AUFNAHME
  6
CONTINUOUS
 62
     7
 10
8.000000000
 20
-10.641894646
 11
10.000000000
 21
-11.796595184
  0
LINE
  8
AUFNAHME
  6
CONTINUOUS
 62
     7
 10
10.000000000
 20
-11.796595184
 11
12.000000000
 21
-10.641894646
  0
LINE
  8
AUFNAHME
  6
CONTINUOUS
 62
     7
 10
12.000000000
 20
-10.641894646
 11
12.000000000
 21
-8.332493569
  0
LINE
  8
AUFNAHME
  6
CONTINUOUS
 62
     7
 10
26.935183785
 20
6.199504026
 11
19.331150025
 21
13.803537786
  0
LINE
  8
AUFNAHME
  6
CONTINUOUS
 62
     7
 10
19.331150025
 20
13.803537786
 11
8.740621992
 21
15.669918191
  0
ARC
  8
AUFNAHME
  6
CONTINUOUS
 62
     7
 10
8.723430822
 20
15.572422224
 40
0.099000000
 50
80.000000000
 51
-135.000000000
  0
LINE
  8
AUFNAHME
  6
CONTINUOUS
 62
     7
 10
8.653427251
 20
15.502418653
 11
16.256753904
 21
7.897677786
  0
LINE
  8
AUFNAHME
  6
CONTINUOUS
 62
     7
 10
16.256753904
 20
7.897677786
 11
26.847281937
 21
6.031297380
  0
ARC
  8
AUFNAHME
  6
CONTINUOUS
 62
     7
 10
26.864473107
 20
6.128793348
 40
0.099000000
 50
-100.000000000
 51
45.000000000
  0
ARC
  8
AUFNAHME
  6
CONTINUOUS
 62
     7
 10
26.864473107
 20
6.128793348
 40
0.100000000
 50
-100.000000000
 51
45.000000000
  0
LINE
  8
AUFNAHME
  6
CONTINUOUS
 62
     7
 10
18.735455726
 20
13.908574763
 11
15.169524222
 21
17.412805893
  0
LINE
  8
AUFNAHME
  6
CONTINUOUS
 62
     7
 10
15.169524222
 20
17.412805893
 11
3.500000000
 21
17.412805893
  0
LINE
  8
AUFNAHME
  6
CONTINUOUS
 62
     7
 10
3.500000000
 20
17.412805893
 11
3.000000000
 21
16.912805893
  0
LINE
  8
AUFNAHME
  6
CONTINUOUS
 62
     7
 10
3.000000000
 20
16.912805893
 11
3.000000000
 21
-13.587194107
  0
LINE
  8
AUFNAHME
  6
CONTINUOUS
 62
     7
 10
3.000000000
 20
-13.587194107
 11
3.500000000
 21
-14.087194107
  0
LINE
  8
AUFNAHME
  6
CONTINUOUS
 62
     7
 10
3.500000000
 20
-14.087194107
 11
5.000000000
 21
-14.087194107
  0
LINE
  8
AUFNAHME
  6
CONTINUOUS
 62
     7
 10
5.000000000
 20
-14.087194107
 11
5.000000000
 21
-12.787194107
  0
LINE
  8
AUFNAHME
  6
CONTINUOUS
 62
     7
 10
15.169524222
 20
-13.278100066
 11
15.189462012
 21
-13.252095758
  0
LINE
  8
AUFNAHME
  6
CONTINUOUS
 62
     7
 10
15.169524222
 20
17.397988191
 11
15.169524222
 21
17.412805893
  0
LINE
  8
AUFNAHME
  6
CONTINUOUS
 62
     7
 10
3.500000000
 20
17.412805893
 11
3.500000000
 21
12.057351994
  0
LINE
  8
AUFNAHME
  6
CONTINUOUS
 62
     7
 10
3.500000000
 20
12.057351994
 11
3.000000000
 21
11.853911369
  0
LINE
  8
AUFNAHME
  6
CONTINUOUS
 62
     7
 10
3.000000000
 20
-12.580087326
 11
3.500000000
 21
-12.787194107
  0
LINE
  8
AUFNAHME
  6
CONTINUOUS
 62
     7
 10
3.500000000
 20
-12.787194107
 11
3.500000000
 21
-14.087194107
  0
LINE
  8
AUFNAHME
  6
CONTINUOUS
 62
     7
 10
15.000000000
 20
-12.231740208
 11
15.000000000
 21
-14.087194107
  0
LINE
  8
AUFNAHME
  6
CONTINUOUS
 62
     7
 10
15.000000000
 20
-14.087194107
 11
15.169524222
 21
-14.087194107
  0
LINE
  8
AUFNAHME
  6
CONTINUOUS
 62
     7
 10
23.024579600
 20
5.502761170
 11
25.600000000
 21
5.502761170
  0
LINE
  8
AUFNAHME
  6
CONTINUOUS
 62
     7
 10
15.000000000
 20
-14.087194107
 11
5.000000000
 21
-14.087194107
  0
LINE
  8
AUFNAHME
  6
CONTINUOUS
 62
     7
 10
25.600000000
 20
6.250211412
 11
25.600000000
 21
5.716907890
  0
LINE
  8
AUFNAHME
  6
CONTINUOUS
 62
     7
 10
25.600000000
 20
5.716907890
 11
25.600000000
 21
3.148091090
  0
LINE
  8
UNSICHT
  6
GESTRICHELT
 62
     1
 10
25.600000000
 20
-5.912805893
 11
3.000000000
 21
-5.912805893
  0
LINE
  8
UNSICHT
  6
GESTRICHELT
 62
     1
 10
16.000000000
 20
5.912805893
 11
3.000000000
 21
5.912805893
  0
CIRCLE
  8
AUFNAHME
  6
CONTINUOUS
 62
     7
 10
17.793951965
 20
10.850607786
 40
1.875000000
  0
CIRCLE
  8
AUFNAHME
  6
CONTINUOUS
 62
     7
 10
10.000000000
 20
-9.487194107
 40
4.600000000
  0
LINE
  8
ZAPFEN
  6
STRICHPUNKT
 62
     4
 10
1.358578950
 20
0.000000000
 11
26.953747037
 21
0.000000000
  0
LINE
  8
ZAPFEN
  6
STRICHPUNKT
 62
     4
 10
14.981451965
 20
10.850607786
 11
20.606451965
 21
10.850607786
  0
LINE
  8
ZAPFEN
  6
STRICHPUNKT
 62
     4
 10
17.793951965
 20
8.038107786
 11
17.793951965
 21
13.663107786
  0
LINE
  8
ZAPFEN
  6
STRICHPUNKT
 62
     4
 10
4.353365925
 20
-9.487194107
 11
15.833244005
 21
-9.487194107
  0
LINE
  8
ZAPFEN
  6
STRICHPUNKT
 62
     4
 10
10.000000000
 20
-14.908524524
 11
10.000000000
 21
-3.209864562
  0
LINE
  8
MASS
  6
CONTINUOUS
 62
     4
 10
-14.824378507
 20
17.412805092
 11
3.500000000
 21
17.412805893
  0
LINE
  8
MASS
  6
CONTINUOUS
 62
     4
 10
-12.824378507
 20
17.412805179
 11
-12.374378354
 21
13.912805199
  0
LINE
  8
MASS
  6
CONTINUOUS
 62
     4
 10
-12.374378354
 20
13.912805199
 11
-13.274378354
 21
13.912805159
  0
LINE
  8
MASS
  6
CONTINUOUS
 62
     4
 10
-13.274378354
 20
13.912805159
 11
-12.824378507
 21
17.412805179
  0
LINE
  8
MASS
  6
CONTINUOUS
 62
     4
 10
-12.824378358
 20
14.012805179
 11
-12.824378502
 21
17.312805179
  0
LINE
  8
MASS
  6
CONTINUOUS
 62
     4
 10
-13.024378358
 20
14.012805170
 11
-13.024378434
 21
15.757249615
  0
LINE
  8
MASS
  6
CONTINUOUS
 62
     4
 10
-12.624378358
 20
14.012805188
 11
-12.624378434
 21
15.757249632
  0
LINE
  8
MASS
  6
CONTINUOUS
 62
     4
 10
-13.224378358
 20
14.012805162
 11
-13.224378366
 21
14.201694050
  0
LINE
  8
MASS
  6
CONTINUOUS
 62
     4
 10
-12.424378358
 20
14.012805196
 11
-12.424378366
 21
14.201694085
  0
LINE
  8
MASS
  6
CONTINUOUS
 62
     4
 10
-12.824377669
 20
-1.741281200
 11
-12.824378354
 21
13.912805179
  0
TEXT
  8
MASS
  6
CONTINUOUS
 62
     4
 10
-13.760091489
 20
2.172309655
 40
3.500000000
  1
35
 50
90.000002504
 41
1.000
 51
0.000000000
  7
STANDARD
  0
CIRCLE
  8
MASS
  6
CONTINUOUS
 62
     4
 10
-15.010091391
 20
-0.077690399
 40
1.250000000
  0
LINE
  8
MASS
  6
CONTINUOUS
 62
     4
 10
-13.760091336
 20
-1.327690345
 11
-16.260091446
 21
1.172309546
  0
LINE
  8
MASS
  6
CONTINUOUS
 62
     4
 10
3.000000000
 20
38.419500686
 11
3.000000000
 21
16.912805893
  0
LINE
  8
MASS
  6
CONTINUOUS
 62
     4
 10
3.000000000
 20
36.419500686
 11
6.500000013
 21
36.869500583
  0
LINE
  8
MASS
  6
CONTINUOUS
 62
     4
 10
6.500000013
 20
36.869500583
 11
6.499999987
 21
35.969500583
  0
LINE
  8
MASS
  6
CONTINUOUS
 62
     4
 10
6.499999987
 20
35.969500583
 11
3.000000000
 21
36.419500686
  0
LINE
  8
MASS
  6
CONTINUOUS
 62
     4
 10
6.400000000
 20
36.419500586
 11
3.100000000
 21
36.419500683
  0
LINE
  8
MASS
  6
CONTINUOUS
 62
     4
 10
6.399999994
 20
36.219500586
 11
4.655555550
 21
36.219500638
  0
LINE
  8
MASS
  6
CONTINUOUS
 62
     4
 10
6.400000006
 20
36.619500586
 11
4.655555561
 21
36.619500638
  0
LINE
  8
MASS
  6
CONTINUOUS
 62
     4
 10
6.399999988
 20
36.019500586
 11
6.211111099
 21
36.019500592
  0
LINE
  8
MASS
  6
CONTINUOUS
 62
     4
 10
6.400000012
 20
36.819500586
 11
6.211111123
 21
36.819500592
  0
LINE
  8
MASS
  6
CONTINUOUS
 62
     4
 10
26.963473107
 20
38.419499982
 11
26.963473107
 21
6.128793348
  0
LINE
  8
MASS
  6
CONTINUOUS
 62
     4
 10
26.963473107
 20
36.419499982
 11
23.463473094
 21
35.969500085
  0
LINE
  8
MASS
  6
CONTINUOUS
 62
     4
 10
23.463473094
 20
35.969500085
 11
23.463473120
 21
36.869500085
  0
LINE
  8
MASS
  6
CONTINUOUS
 62
     4
 10
23.463473120
 20
36.869500085
 11
26.963473107
 21
36.419499982
  0
LINE
  8
MASS
  6
CONTINUOUS
 62
     4
 10
23.563473107
 20
36.419500082
 11
26.863473107
 21
36.419499985
  0
LINE
  8
MASS
  6
CONTINUOUS
 62
     4
 10
23.563473113
 20
36.619500082
 11
25.307917557
 21
36.619500031
  0
LINE
  8
MASS
  6
CONTINUOUS
 62
     4
 10
23.563473101
 20
36.219500082
 11
25.307917545
 21
36.219500031
  0
LINE
  8
MASS
  6
CONTINUOUS
 62
     4
 10
23.563473119
 20
36.819500082
 11
23.752362008
 21
36.819500077
  0
LINE
  8
MASS
  6
CONTINUOUS
 62
     4
 10
23.563473095
 20
36.019500082
 11
23.752361984
 21
36.019500077
  0
LINE
  8
MASS
  6
CONTINUOUS
 62
     4
 10
6.500000000
 20
36.419500583
 11
23.463473107
 21
36.419500085
  0
TEXT
  8
MASS
  6
CONTINUOUS
 62
     4
 10
13.317048830
 20
37.919500383
 40
3.500000000
  1
24
 50
359.999998317
 41
1.000
 51
0.000000000
  7
STANDARD
  0
LINE
  8
ZAPFEN
  6
CONTINUOUS
 62
     4
 10
26.963473107
 20
6.128793348
 11
26.963473107
 21
17.412805893
  0
LINE
  8
MASS
  6
CONTINUOUS
 62
     4
 10
9.217077915
 20
23.917609897
 11
26.963473107
 21
6.171214704
  0
LINE
  8
MASS
  6
CONTINUOUS
 62
     4
 10
10.631291477
 20
22.503396334
 11
12.992820621
 21
25.125548142
  0
LINE
  8
MASS
  6
CONTINUOUS
 62
     4
 10
12.992820621
 20
25.125548142
 11
13.579318022
 21
24.442890982
  0
LINE
  8
MASS
  6
CONTINUOUS
 62
     4
 10
13.579318022
 20
24.442890982
 11
10.631291477
 21
22.503396334
  0
LINE
  8
MASS
  6
CONTINUOUS
 62
     4
 10
13.210218526
 20
24.719053184
 11
10.707142273
 21
22.568562712
  0
LINE
  8
MASS
  6
CONTINUOUS
 62
     4
 10
13.340551282
 20
24.567351593
 11
12.017376293
 21
23.430560333
  0
LINE
  8
MASS
  6
CONTINUOUS
 62
     4
 10
13.079885770
 20
24.870754775
 11
11.756710781
 21
23.733963515
  0
LINE
  8
MASS
  6
CONTINUOUS
 62
     4
 10
13.470884038
 20
24.415650002
 11
13.327610313
 21
24.292557954
  0
LINE
  8
MASS
  6
CONTINUOUS
 62
     4
 10
12.949553014
 20
25.022456366
 11
12.806279289
 21
24.899364319
  0
LINE
  8
MASS
  6
CONTINUOUS
 62
     4
 10
26.963473107
 20
31.268407468
 11
26.963473107
 21
6.171214704
  0
LINE
  8
MASS
  6
CONTINUOUS
 62
     4
 10
26.963473107
 20
29.268407468
 11
23.507473728
 21
28.555267724
  0
LINE
  8
MASS
  6
CONTINUOUS
 62
     4
 10
23.507473728
 20
28.555267724
 11
23.439478511
 21
29.452695521
  0
LINE
  8
MASS
  6
CONTINUOUS
 62
     4
 10
23.439478511
 20
29.452695521
 11
26.963473107
 21
29.268407468
  0
LINE
  8
MASS
  6
CONTINUOUS
 62
     4
 10
23.573190319
 20
29.011536647
 11
26.863758907
 21
29.260852444
  0
LINE
  8
MASS
  6
CONTINUOUS
 62
     4
 10
23.558080271
 20
29.210965046
 11
25.297539087
 21
29.342758245
  0
LINE
  8
MASS
  6
CONTINUOUS
 62
     4
 10
23.588300367
 20
28.812108248
 11
25.327759183
 21
28.943901447
  0
LINE
  8
MASS
  6
CONTINUOUS
 62
     4
 10
23.542970222
 20
29.410393445
 11
23.731319266
 21
29.424664047
  0
LINE
  8
MASS
  6
CONTINUOUS
 62
     4
 10
23.603410416
 20
28.612679848
 11
23.791759460
 21
28.626950450
  0
ARC
  8
MASS
  6
CONTINUOUS
 62
     4
 10
26.963473107
 20
6.171214704
 40
23.097950648
 50
98.690419183
 51
126.309580817
  0
TEXT
  8
MASS
  6
CONTINUOUS
 62
     4
 10
15.178907131
 20
27.913697223
 40
3.500000000
  1
45°
 50
22.500000503
 41
1.000
 51
0.000000000
  7
STANDARD
  0
LINE
  8
MASS
  6
CONTINUOUS
 62
     4
 10
37.058000534
 20
6.199504468
 11
26.935183785
 21
6.199504026
  0
LINE
  8
MASS
  6
CONTINUOUS
 62
     4
 10
35.058000534
 20
6.199504381
 11
35.508000687
 21
2.699504401
  0
LINE
  8
MASS
  6
CONTINUOUS
 62
     4
 10
35.508000687
 20
2.699504401
 11
34.608000687
 21
2.699504361
  0
LINE
  8
MASS
  6
CONTINUOUS
 62
     4
 10
34.608000687
 20
2.699504361
 11
35.058000534
 21
6.199504381
  0
LINE
  8
MASS
  6
CONTINUOUS
 62
     4
 10
35.058000683
 20
2.799504381
 11
35.058000539
 21
6.099504381
  0
LINE
  8
MASS
  6
CONTINUOUS
 62
     4
 10
34.858000683
 20
2.799504372
 11
34.858000607
 21
4.543948817
  0
LINE
  8
MASS
  6
CONTINUOUS
 62
     4
 10
35.258000683
 20
2.799504390
 11
35.258000607
 21
4.543948834
  0
LINE
  8
MASS
  6
CONTINUOUS
 62
     4
 10
34.658000683
 20
2.799504364
 11
34.658000675
 21
2.988393252
  0
LINE
  8
MASS
  6
CONTINUOUS
 62
     4
 10
35.458000683
 20
2.799504398
 11
35.458000675
 21
2.988393287
  0
LINE
  8
MASS
  6
CONTINUOUS
 62
     4
 10
35.058000976
 20
-3.899526869
 11
35.058000687
 21
2.699504381
  0
TEXT
  8
MASS
  6
CONTINUOUS
 62
     4
 10
33.480246880
 20
-2.178541769
 40
3.500000000
  1
12.6
 50
90.000002504
 41
1.000
 51
0.000000000
  7
STANDARD
  0
CIRCLE
  8
MASS
  6
CONTINUOUS
 62
     4
 10
32.230246978
 20
-4.428541824
 40
1.250000000
  0
LINE
  8
MASS
  6
CONTINUOUS
 62
     4
 10
33.480247033
 20
-5.678541769
 11
30.980246924
 21
-3.178541878
  0
LINE
  8
MASS
  6
CONTINUOUS
 62
     4
 10
47.084100361
 20
13.803538999
 11
19.331150025
 21
13.803537786
  0
LINE
  8
MASS
  6
CONTINUOUS
 62
     4
 10
45.084100361
 20
13.803538912
 11
45.534100514
 21
10.303538931
  0
LINE
  8
MASS
  6
CONTINUOUS
 62
     4
 10
45.534100514
 20
10.303538931
 11
44.634100514
 21
10.303538892
  0
LINE
  8
MASS
  6
CONTINUOUS
 62
     4
 10
44.634100514
 20
10.303538892
 11
45.084100361
 21
13.803538912
  0
LINE
  8
MASS
  6
CONTINUOUS
 62
     4
 10
45.084100509
 20
10.403538912
 11
45.084100365
 21
13.703538912
  0
LINE
  8
MASS
  6
CONTINUOUS
 62
     4
 10
44.884100509
 20
10.403538903
 11
44.884100433
 21
12.147983347
  0
LINE
  8
MASS
  6
CONTINUOUS
 62
     4
 10
45.284100509
 20
10.403538920
 11
45.284100433
 21
12.147983365
  0
LINE
  8
MASS
  6
CONTINUOUS
 62
     4
 10
44.684100509
 20
10.403538894
 11
44.684100501
 21
10.592427783
  0
LINE
  8
MASS
  6
CONTINUOUS
 62
     4
 10
45.484100509
 20
10.403538929
 11
45.484100501
 21
10.592427818
  0
LINE
  8
MASS
  6
CONTINUOUS
 62
     4
 10
45.084101024
 20
-1.380353019
 11
45.084100514
 21
10.303538912
  0
TEXT
  8
MASS
  6
CONTINUOUS
 62
     4
 10
44.054704461
 20
-0.694687954
 40
3.500000000
  1
27.7
 50
90.000002504
 41
1.000
 51
0.000000000
  7
STANDARD
  0
CIRCLE
  8
MASS
  6
CONTINUOUS
 62
     4
 10
42.804704559
 20
-2.944688009
 40
1.250000000
  0
LINE
  8
MASS
  6
CONTINUOUS
 62
     4
 10
44.054704614
 20
-4.194687954
 11
41.554704504
 21
-1.694688063
  0
LINE
  8
MASS
  6
CONTINUOUS
 62
     4
 10
-6.311518669
 20
-5.912805893
 11
3.000000000
 21
-5.912805893
  0
LINE
  8
MASS
  6
CONTINUOUS
 62
     4
 10
-4.311518669
 20
-5.912805893
 11
-4.761518669
 21
-2.412805893
  0
LINE
  8
MASS
  6
CONTINUOUS
 62
     4
 10
-4.761518669
 20
-2.412805893
 11
-3.861518669
 21
-2.412805893
  0
LINE
  8
MASS
  6
CONTINUOUS
 62
     4
 10
-3.861518669
 20
-2.412805893
 11
-4.311518669
 21
-5.912805893
  0
LINE
  8
MASS
  6
CONTINUOUS
 62
     4
 10
-4.311518669
 20
-2.512805893
 11
-4.311518669
 21
-5.812805893
  0
LINE
  8
MASS
  6
CONTINUOUS
 62
     4
 10
-4.111518669
 20
-2.512805893
 11
-4.111518669
 21
-4.257250337
  0
LINE
  8
MASS
  6
CONTINUOUS
 62
     4
 10
-4.511518669
 20
-2.512805893
 11
-4.511518669
 21
-4.257250337
  0
LINE
  8
MASS
  6
CONTINUOUS
 62
     4
 10
-3.911518669
 20
-2.512805893
 11
-3.911518669
 21
-2.701694781
  0
LINE
  8
MASS
  6
CONTINUOUS
 62
     4
 10
-4.711518669
 20
-2.512805893
 11
-4.711518669
 21
-2.701694781
  0
LINE
  8
MASS
  6
CONTINUOUS
 62
     4
 10
-6.311518669
 20
5.912805893
 11
3.000000000
 21
5.912805893
  0
LINE
  8
MASS
  6
CONTINUOUS
 62
     4
 10
-4.311518669
 20
5.912805893
 11
-3.861518669
 21
2.412805893
  0
LINE
  8
MASS
  6
CONTINUOUS
 62
     4
 10
-3.861518669
 20
2.412805893
 11
-4.761518669
 21
2.412805893
  0
LINE
  8
MASS
  6
CONTINUOUS
 62
     4
 10
-4.761518669
 20
2.412805893
 11
-4.311518669
 21
5.912805893
  0
LINE
  8
MASS
  6
CONTINUOUS
 62
     4
 10
-4.311518669
 20
2.512805893
 11
-4.311518669
 21
5.812805893
  0
LINE
  8
MASS
  6
CONTINUOUS
 62
     4
 10
-4.511518669
 20
2.512805893
 11
-4.511518669
 21
4.257250337
  0
LINE
  8
MASS
  6
CONTINUOUS
 62
     4
 10
-4.111518669
 20
2.512805893
 11
-4.111518669
 21
4.257250337
  0
LINE
  8
MASS
  6
CONTINUOUS
 62
     4
 10
-4.711518669
 20
2.512805893
 11
-4.711518669
 21
2.701694781
  0
LINE
  8
MASS
  6
CONTINUOUS
 62
     4
 10
-3.911518669
 20
2.512805893
 11
-3.911518669
 21
2.701694781
  0
LINE
  8
MASS
  6
CONTINUOUS
 62
     4
 10
-4.311518669
 20
-2.412805893
 11
-4.311518669
 21
2.412805893
  0
TEXT
  8
MASS
  6
CONTINUOUS
 62
     4
 10
-5.811518669
 20
0.468124868
 40
3.500000000
  1
12
 50
90.000000000
 41
1.000
 51
0.000000000
  7
STANDARD
  0
CIRCLE
  8
MASS
  6
CONTINUOUS
 62
     4
 10
-7.061518669
 20
-1.781875132
 40
1.250000000
  0
LINE
  8
MASS
  6
CONTINUOUS
 62
     4
 10
-5.811518669
 20
-3.031875132
 11
-8.311518669
 21
-0.531875132
  0
TEXT
  8
TEXT
  6
CONTINUOUS
 62
     4
 10
4.758779680
 20
1.339882310
 40
3.500000000
  1
615.394
 50
0.000000000
 41
1.000
 51
0.000000000
  7
STANDARD
  0
ENDSEC
  0
EOF
