999
NT  : 16.0 - 919
  0
SECTION
  2
HEADER
  9
$ACADVER
  1
AC1006
  9
$INSBASE
 10
0.000000000
 20
0.000000000
  9
$EXTMIN
 10
-46.370000010
 20
-25.099932305
  9
$EXTMAX
 10
93.370000962
 20
46.896736320
  9
$LIMMIN
 10
-46.370000010
 20
-25.099932305
  9
$LIMMAX
 10
93.370000962
 20
46.896736320
  9
$AUNITS
 70
     2
  9
$ANGBASE
 50
0.000
  9
$ANGDIR
 70
     0
  0
ENDSEC
  0
SECTION
  2
TABLES
  0
TABLE
  2
LTYPE
 70
     8
  0
LTYPE
  2
PUNKT
 70
    64
  3
..............
 72
    65
 73
     2
 40
1.500
 49
0.700
 49
-0.800
  0
LTYPE
  2
GESTRICHELT
 70
    64
  3
-- -- -- -- --
 72
    65
 73
     7
 40
2.800
 49
0.900
 49
0.000
 49
0.900
 49
0.000
 49
0.200
 49
0.000
 49
-0.800
  0
LTYPE
  2
STRICHPUNKT
 70
    64
  3
--.--.--.--.--
 72
    65
 73
     4
 40
8.800
 49
5.500
 49
-1.300
 49
0.700
 49
-1.300
  0
LTYPE
  2
STRICHPUNKT
 70
    64
  3
--.--.--.--.--
 72
    65
 73
     4
 40
8.800
 49
5.500
 49
-1.300
 49
0.700
 49
-1.300
  0
LTYPE
  2
STRICHPUNKT
 70
    64
  3
--.--.--.--.--
 72
    65
 73
     4
 40
8.800
 49
5.500
 49
-1.300
 49
0.700
 49
-1.300
  0
LTYPE
  2
PHANTOM
 70
    64
  3
--..--..--..--
 72
    65
 73
     6
 40
14.200
 49
7.000
 49
-1.800
 49
0.900
 49
-1.800
 49
0.900
 49
-1.800
  0
LTYPE
  2
PHANTOM
 70
    64
  3
--..--..--..--
 72
    65
 73
     6
 40
14.200
 49
7.000
 49
-1.800
 49
0.900
 49
-1.800
 49
0.900
 49
-1.800
  0
LTYPE
  2
PHANTOM
 70
    64
  3
--..--..--..--
 72
    65
 73
     6
 40
14.200
 49
7.000
 49
-1.800
 49
0.900
 49
-1.800
 49
0.900
 49
-1.800
  0
ENDTAB
  0
ENDSEC
  0
SECTION
  2
BLOCKS
  0
ENDSEC
  0
SECTION
  2
ENTITIES
  0
LINE
  8
AUFNAHME
  6
CONTINUOUS
 62
     7
 10
53.000000000
 20
8.000000000
 11
53.000000000
 21
-8.000000000
  0
LINE
  8
AUFNAHME
  6
CONTINUOUS
 62
     7
 10
53.000000000
 20
8.000000000
 11
0.000000000
 21
8.000000000
  0
LINE
  8
AUFNAHME
  6
CONTINUOUS
 62
     7
 10
53.000000000
 20
-8.000000000
 11
0.000000000
 21
-8.000000000
  0
LINE
  8
EW
  6
CONTINUOUS
 10
70.817001340
 20
3.800369260
 11
78.879058840
 21
-1.435180660
  0
LINE
  8
EW
  6
CONTINUOUS
 10
70.853256230
 20
4.492233280
 11
79.418396000
 21
8.856399540
  0
LINE
  8
EW
  6
CONTINUOUS
 10
79.496368410
 20
-1.120651250
 11
79.999450680
 21
8.479049680
  0
ARC
  8
EW
  6
CONTINUOUS
 10
71.034858700
 20
4.135833740
 40
0.400000630
 50
117.000549320
 51
-123.000000000
  0
ARC
  8
EW
  6
CONTINUOUS
 10
79.599990840
 20
8.499984740
 40
0.400008260
 50
-3.000549320
 51
116.998657230
  0
CIRCLE
  8
EW
  6
CONTINUOUS
 10
76.577255250
 20
3.845367430
 40
1.250000000
  0
LINE
  8
EW
  6
CONTINUOUS
 10
58.000000000
 20
8.000000000
 11
53.000000000
 21
8.000000000
  0
LINE
  8
EW
  6
CONTINUOUS
 10
58.000000000
 20
8.000000000
 11
59.000000000
 21
7.000000000
  0
LINE
  8
EW
  6
CONTINUOUS
 10
69.999954220
 20
7.000000000
 11
65.000000000
 21
7.000000000
  0
LINE
  8
EW
  6
CONTINUOUS
 10
59.500000000
 20
7.000000000
 11
59.500000000
 21
6.000000000
  0
LINE
  8
EW
  6
CONTINUOUS
 10
65.000000000
 20
7.000000000
 11
65.000000000
 21
6.000000000
  0
LINE
  8
EW
  6
CONTINUOUS
 10
65.000000000
 20
6.000000000
 11
59.500000000
 21
6.000000000
  0
LINE
  8
EW
  6
CONTINUOUS
 10
59.500000000
 20
7.000000000
 11
59.000000000
 21
7.000000000
  0
LINE
  8
EW
  6
CONTINUOUS
 10
74.000000000
 20
-5.267944340
 11
66.917099000
 21
7.000000000
  0
LINE
  8
EW
  6
CONTINUOUS
 10
70.000000000
 20
7.000000000
 11
77.974609380
 21
8.120742800
  0
ARC
  8
EW
  6
CONTINUOUS
 10
68.194898629
 20
4.949727313
 40
2.415861754
 50
121.932569321
 51
161.862300615
  0
ARC
  8
EW
  6
CONTINUOUS
 10
70.928211930
 20
4.029306135
 40
5.299941941
 50
161.604993800
 51
-174.654252358
  0
ARC
  8
EW
  6
CONTINUOUS
 10
76.382241218
 20
4.348086432
 40
10.761639351
 50
-175.669788051
 51
-160.924447196
  0
ARC
  8
EW
  6
CONTINUOUS
 10
80.807628231
 20
5.739186971
 40
15.399215610
 50
-161.413978891
 51
-149.829810314
  0
ARC
  8
EW
  6
CONTINUOUS
 10
80.853379511
 20
5.659964177
 40
15.399225990
 50
-150.170196937
 51
-138.586028361
  0
ARC
  8
EW
  6
CONTINUOUS
 10
77.435942973
 20
2.523011569
 40
10.761635222
 50
-139.075533033
 51
-124.330185332
  0
ARC
  8
EW
  6
CONTINUOUS
 10
75.548523782
 20
-0.094635450
 40
7.535998061
 50
-123.703827839
 51
-120.543153004
  0
ARC
  8
EW
  6
CONTINUOUS
 10
67.597405356
 20
2.855017995
 40
0.555204692
 50
121.720918161
 51
160.569479932
  0
ARC
  8
EW
  6
CONTINUOUS
 10
68.161552668
 20
2.653406211
 40
1.154292828
 50
160.447478004
 51
-175.617144490
  0
ARC
  8
EW
  6
CONTINUOUS
 10
69.277520674
 20
2.701474469
 40
2.270978028
 50
-176.559645897
 51
-161.369185233
  0
ARC
  8
EW
  6
CONTINUOUS
 10
70.179040280
 20
2.976705490
 40
3.213297955
 50
-161.854181540
 51
-149.828576467
  0
ARC
  8
EW
  6
CONTINUOUS
 10
70.188678957
 20
2.960042733
 40
3.213313981
 50
-150.171814486
 51
-138.146209413
  0
ARC
  8
EW
  6
CONTINUOUS
 10
69.499534641
 20
2.316920937
 40
2.270974674
 50
-138.630876867
 51
-123.440416203
  0
ARC
  8
EW
  6
CONTINUOUS
 10
68.899925144
 20
1.374509333
 40
1.154300121
 50
-124.382790879
 51
-100.447395239
  0
ARC
  8
EW
  6
CONTINUOUS
 10
68.792452471
 20
0.785127798
 40
0.555202418
 50
-100.569496430
 51
-61.720954698
  0
ARC
  8
EW
  6
CONTINUOUS
 10
68.763571709
 20
0.768456221
 40
0.555204783
 50
-58.279073677
 51
-19.430514133
  0
ARC
  8
EW
  6
CONTINUOUS
 10
68.199424616
 20
0.970068038
 40
1.154292723
 50
-19.552524315
 51
4.382855457
  0
ARC
  8
EW
  6
CONTINUOUS
 10
67.083460871
 20
0.922000622
 40
2.270973619
 50
3.440339271
 51
18.630829599
  0
ARC
  8
EW
  6
CONTINUOUS
 10
66.181929638
 20
0.646765447
 40
3.213305884
 50
18.145834093
 51
30.171409453
  0
ARC
  8
EW
  6
CONTINUOUS
 10
66.172297644
 20
0.663431567
 40
3.213314445
 50
29.828179534
 51
41.853784606
  0
ARC
  8
EW
  6
CONTINUOUS
 10
66.861442979
 20
1.306553363
 40
2.270974376
 50
41.369131772
 51
56.559592436
  0
ARC
  8
EW
  6
CONTINUOUS
 10
67.461052028
 20
2.248963357
 40
1.154301400
 50
55.617252650
 51
79.552616554
  0
ARC
  8
EW
  6
CONTINUOUS
 10
67.568524364
 20
2.838346749
 40
0.555201931
 50
79.430459094
 51
118.279031999
  0
ARC
  8
EW
  6
CONTINUOUS
 10
79.096908570
 20
-1.099716190
 40
0.400014880
 50
-123.000000000
 51
-2.999206540
  0
LINE
  8
EW
  6
CONTINUOUS
 10
78.411132810
 20
-2.721191410
 11
78.491714480
 21
-1.183639530
  0
LINE
  8
EW
  6
CONTINUOUS
 10
71.000000000
 20
-7.000000000
 11
78.411132810
 21
-2.721191410
  0
LINE
  8
EW
  6
CONTINUOUS
 10
58.000000000
 20
-8.000000000
 11
53.000000000
 21
-8.000000000
  0
LINE
  8
EW
  6
CONTINUOUS
 10
58.000000000
 20
-8.000000000
 11
59.000000000
 21
-7.000000000
  0
LINE
  8
EW
  6
CONTINUOUS
 10
71.000000000
 20
-7.000000000
 11
65.049987790
 21
-7.000000000
  0
LINE
  8
EW
  6
CONTINUOUS
 10
65.000000000
 20
-6.000000000
 11
59.500000000
 21
-6.000000000
  0
LINE
  8
EW
  6
CONTINUOUS
 10
59.500000000
 20
-7.000000000
 11
59.000000000
 21
-7.000000000
  0
LINE
  8
EW
  6
CONTINUOUS
 10
65.000000000
 20
-6.000000000
 11
65.000000000
 21
-7.000000000
  0
LINE
  8
EW
  6
CONTINUOUS
 10
59.500000000
 20
-6.000000000
 11
59.500000000
 21
-7.000000000
  0
LINE
  8
UNSICHT
  6
GESTRICHELT
 62
     1
 10
50.000000000
 20
2.500000000
 11
50.000000000
 21
-2.500000000
  0
LINE
  8
UNSICHT
  6
GESTRICHELT
 62
     1
 10
50.000000000
 20
2.500000000
 11
-35.000000000
 21
2.500000000
  0
LINE
  8
UNSICHT
  6
GESTRICHELT
 62
     1
 10
62.500000000
 20
1.500000000
 11
50.577339170
 21
1.500000000
  0
LINE
  8
UNSICHT
  6
GESTRICHELT
 62
     1
 10
50.000000000
 20
2.500000000
 11
50.577339170
 21
1.500000000
  0
LINE
  8
UNSICHT
  6
GESTRICHELT
 62
     1
 10
50.577339170
 20
1.500000000
 11
50.577346800
 21
-1.500000000
  0
LINE
  8
UNSICHT
  6
GESTRICHELT
 62
     1
 10
50.000000000
 20
-2.500000000
 11
-35.000000000
 21
-2.500000000
  0
LINE
  8
UNSICHT
  6
GESTRICHELT
 62
     1
 10
62.500000000
 20
-1.500000000
 11
50.577346800
 21
-1.500000000
  0
LINE
  8
UNSICHT
  6
GESTRICHELT
 62
     1
 10
50.000000000
 20
-2.500000000
 11
50.577346800
 21
-1.500000000
  0
LINE
  8
ZAPFEN
  6
STRICHPUNKT
 62
     4
 10
64.500000000
 20
0.000000000
 11
-37.000000000
 21
0.000000000
  0
LINE
  8
ZAPFEN
  6
CONTINUOUS
 62
     4
 10
-35.000000000
 20
7.000000000
 11
-35.000000000
 21
-7.000000000
  0
LINE
  8
ZAPFEN
  6
CONTINUOUS
 62
     4
 10
-35.000000000
 20
7.000000000
 11
-34.000000000
 21
8.000000000
  0
LINE
  8
ZAPFEN
  6
CONTINUOUS
 62
     4
 10
0.000000000
 20
8.000000000
 11
-34.000000000
 21
8.000000000
  0
LINE
  8
ZAPFEN
  6
CONTINUOUS
 62
     4
 10
53.000000000
 20
4.100006100
 11
62.500000000
 21
4.100006100
  0
LINE
  8
ZAPFEN
  6
CONTINUOUS
 62
     4
 10
61.600006100
 20
5.000000000
 11
61.600006100
 21
-5.000000000
  0
LINE
  8
ZAPFEN
  6
CONTINUOUS
 62
     4
 10
62.500000000
 20
4.100006100
 11
62.500000000
 21
-4.100006100
  0
LINE
  8
ZAPFEN
  6
CONTINUOUS
 62
     4
 10
61.600006100
 20
5.000000000
 11
62.500000000
 21
4.100006100
  0
LINE
  8
ZAPFEN
  6
CONTINUOUS
 62
     4
 10
53.000000000
 20
5.000000000
 11
61.600006100
 21
5.000000000
  0
LINE
  8
ZAPFEN
  6
CONTINUOUS
 62
     4
 10
0.000000000
 20
-8.000000000
 11
-34.000000000
 21
-8.000000000
  0
LINE
  8
ZAPFEN
  6
CONTINUOUS
 62
     4
 10
-35.000000000
 20
-7.000000000
 11
-34.000000000
 21
-8.000000000
  0
LINE
  8
ZAPFEN
  6
CONTINUOUS
 62
     4
 10
53.000000000
 20
-4.100006100
 11
62.500000000
 21
-4.100006100
  0
LINE
  8
ZAPFEN
  6
CONTINUOUS
 62
     4
 10
61.600006100
 20
-5.000000000
 11
53.000000000
 21
-5.000000000
  0
LINE
  8
ZAPFEN
  6
CONTINUOUS
 62
     4
 10
62.500000000
 20
-4.100006100
 11
61.600006100
 21
-5.000000000
  0
LINE
  8
MASS
  6
CONTINUOUS
 62
     4
 10
-42.000000000
 20
-8.000000000
 11
-34.000000000
 21
-8.000000000
  0
LINE
  8
MASS
  6
CONTINUOUS
 62
     4
 10
-40.000000000
 20
-8.000000000
 11
-40.450000000
 21
-4.500000000
  0
LINE
  8
MASS
  6
CONTINUOUS
 62
     4
 10
-40.450000000
 20
-4.500000000
 11
-39.550000000
 21
-4.500000000
  0
LINE
  8
MASS
  6
CONTINUOUS
 62
     4
 10
-39.550000000
 20
-4.500000000
 11
-40.000000000
 21
-8.000000000
  0
LINE
  8
MASS
  6
CONTINUOUS
 62
     4
 10
-42.000000000
 20
8.000000000
 11
-34.000000000
 21
8.000000000
  0
LINE
  8
MASS
  6
CONTINUOUS
 62
     4
 10
-40.000000000
 20
8.000000000
 11
-39.550000000
 21
4.500000000
  0
LINE
  8
MASS
  6
CONTINUOUS
 62
     4
 10
-39.550000000
 20
4.500000000
 11
-40.450000000
 21
4.500000000
  0
LINE
  8
MASS
  6
CONTINUOUS
 62
     4
 10
-40.450000000
 20
4.500000000
 11
-40.000000000
 21
8.000000000
  0
LINE
  8
MASS
  6
CONTINUOUS
 62
     4
 10
-40.000000000
 20
-4.500000000
 11
-40.000000000
 21
4.500000000
  0
TEXT
  8
MASS
  6
CONTINUOUS
 62
     4
 10
-41.500000000
 20
0.522812321
 40
3.500000000
  1
16
 50
90.000000000
 41
1.000
 51
0.000000000
  7
STANDARD
  0
CIRCLE
  8
MASS
  6
CONTINUOUS
 62
     4
 10
-42.750000000
 20
-1.727187679
 40
1.250000000
  0
LINE
  8
MASS
  6
CONTINUOUS
 62
     4
 10
-41.500000000
 20
-2.977187679
 11
-44.000000000
 21
-0.477187679
  0
LINE
  8
MASS
  6
CONTINUOUS
 62
     4
 10
-35.000000000
 20
-22.000000000
 11
-35.000000000
 21
-7.000000000
  0
LINE
  8
MASS
  6
CONTINUOUS
 62
     4
 10
-35.000000000
 20
-20.000000000
 11
-31.500000000
 21
-19.550000000
  0
LINE
  8
MASS
  6
CONTINUOUS
 62
     4
 10
-31.500000000
 20
-19.550000000
 11
-31.500000000
 21
-20.450000000
  0
LINE
  8
MASS
  6
CONTINUOUS
 62
     4
 10
-31.500000000
 20
-20.450000000
 11
-35.000000000
 21
-20.000000000
  0
LINE
  8
MASS
  6
CONTINUOUS
 62
     4
 10
0.000000000
 20
-22.000000000
 11
0.000000000
 21
-10.891128540
  0
LINE
  8
MASS
  6
CONTINUOUS
 62
     4
 10
0.000000000
 20
-20.000000000
 11
-3.500000000
 21
-20.450000000
  0
LINE
  8
MASS
  6
CONTINUOUS
 62
     4
 10
-3.500000000
 20
-20.450000000
 11
-3.500000000
 21
-19.550000000
  0
LINE
  8
MASS
  6
CONTINUOUS
 62
     4
 10
-3.500000000
 20
-19.550000000
 11
0.000000000
 21
-20.000000000
  0
LINE
  8
MASS
  6
CONTINUOUS
 62
     4
 10
-31.500000000
 20
-20.000000000
 11
-3.500000000
 21
-20.000000000
  0
TEXT
  8
MASS
  6
CONTINUOUS
 62
     4
 10
-15.437500391
 20
-18.500000000
 40
3.500000000
  1
35
 50
0.000000000
 41
1.000
 51
0.000000000
  7
STANDARD
  0
TEXT
  8
MASS
  6
CONTINUOUS
 62
     4
 10
-22.290312891
 20
-18.500000000
 40
3.500000000
  1
min.
 50
0.000000000
 41
1.000
 51
0.000000000
  7
STANDARD
  0
LINE
  8
MASS
  6
CONTINUOUS
 62
     4
 10
0.000000000
 20
-22.000000000
 11
0.000000000
 21
-10.891128540
  0
LINE
  8
MASS
  6
CONTINUOUS
 62
     4
 10
0.000000000
 20
-20.000000000
 11
3.500000000
 21
-19.550000000
  0
LINE
  8
MASS
  6
CONTINUOUS
 62
     4
 10
3.500000000
 20
-19.550000000
 11
3.500000000
 21
-20.450000000
  0
LINE
  8
MASS
  6
CONTINUOUS
 62
     4
 10
3.500000000
 20
-20.450000000
 11
0.000000000
 21
-20.000000000
  0
LINE
  8
MASS
  6
CONTINUOUS
 62
     4
 10
79.999999100
 20
-22.000000001
 11
79.999999100
 21
8.499984740
  0
LINE
  8
MASS
  6
CONTINUOUS
 62
     4
 10
79.999999100
 20
-20.000000001
 11
76.499999100
 21
-20.450000001
  0
LINE
  8
MASS
  6
CONTINUOUS
 62
     4
 10
76.499999100
 20
-20.450000001
 11
76.499999100
 21
-19.550000001
  0
LINE
  8
MASS
  6
CONTINUOUS
 62
     4
 10
76.499999100
 20
-19.550000001
 11
79.999999100
 21
-20.000000001
  0
LINE
  8
MASS
  6
CONTINUOUS
 62
     4
 10
3.500000000
 20
-20.000000000
 11
76.499999100
 21
-20.000000001
  0
TEXT
  8
MASS
  6
CONTINUOUS
 62
     4
 10
41.570311156
 20
-18.500000001
 40
3.500000000
  1
80
 50
359.999999999
 41
1.000
 51
0.000000000
  7
STANDARD
  0
TEXT
  8
MASS
  6
CONTINUOUS
 62
     4
 10
35.100311156
 20
-18.500000001
 40
3.500000000
  1
30-
 50
359.999999999
 41
1.000
 51
0.000000000
  7
STANDARD
  0
LINE
  8
MASS
  6
CONTINUOUS
 62
     4
 10
-35.000000000
 20
18.000000000
 11
-35.000000000
 21
7.000000000
  0
LINE
  8
MASS
  6
CONTINUOUS
 62
     4
 10
-35.000000000
 20
16.000000000
 11
-31.500000000
 21
16.450000000
  0
LINE
  8
MASS
  6
CONTINUOUS
 62
     4
 10
-31.500000000
 20
16.450000000
 11
-31.500000000
 21
15.550000000
  0
LINE
  8
MASS
  6
CONTINUOUS
 62
     4
 10
-31.500000000
 20
15.550000000
 11
-35.000000000
 21
16.000000000
  0
LINE
  8
MASS
  6
CONTINUOUS
 62
     4
 10
53.000000000
 20
18.000000000
 11
53.000000000
 21
8.000000000
  0
LINE
  8
MASS
  6
CONTINUOUS
 62
     4
 10
53.000000000
 20
16.000000000
 11
49.500000000
 21
15.550000000
  0
LINE
  8
MASS
  6
CONTINUOUS
 62
     4
 10
49.500000000
 20
15.550000000
 11
49.500000000
 21
16.450000000
  0
LINE
  8
MASS
  6
CONTINUOUS
 62
     4
 10
49.500000000
 20
16.450000000
 11
53.000000000
 21
16.000000000
  0
LINE
  8
MASS
  6
CONTINUOUS
 62
     4
 10
-31.500000000
 20
16.000000000
 11
49.500000000
 21
16.000000000
  0
TEXT
  8
MASS
  6
CONTINUOUS
 62
     4
 10
7.335311517
 20
17.500000000
 40
3.500000000
  1
88
 50
0.000000000
 41
1.000
 51
0.000000000
  7
STANDARD
  0
LINE
  8
MASS
  6
CONTINUOUS
 62
     4
 10
93.999999995
 20
8.899993629
 11
79.599990840
 21
8.899993000
  0
LINE
  8
MASS
  6
CONTINUOUS
 62
     4
 10
91.999999995
 20
8.899993542
 11
92.449999842
 21
12.399993562
  0
LINE
  8
MASS
  6
CONTINUOUS
 62
     4
 10
92.449999842
 20
12.399993562
 11
91.549999842
 21
12.399993522
  0
LINE
  8
MASS
  6
CONTINUOUS
 62
     4
 10
91.549999842
 20
12.399993522
 11
91.999999995
 21
8.899993542
  0
LINE
  8
MASS
  6
CONTINUOUS
 62
     4
 10
91.999999842
 20
12.399993542
 11
91.999998557
 21
41.796804016
  0
LINE
  8
MASS
  6
CONTINUOUS
 62
     4
 10
92.000000773
 20
-8.899991138
 11
91.999999995
 21
8.899993542
  0
TEXT
  8
MASS
  6
CONTINUOUS
 62
     4
 10
90.581133140
 20
16.684928954
 40
3.500000000
  1
17.8
 50
90.000002504
 41
1.000
 51
0.000000000
  7
STANDARD
  0
CIRCLE
  8
MASS
  6
CONTINUOUS
 62
     4
 10
89.331133238
 20
14.434928900
 40
1.250000000
  0
LINE
  8
MASS
  6
CONTINUOUS
 62
     4
 10
90.581133293
 20
13.184928954
 11
88.081133184
 21
15.684928845
  0
TEXT
  8
MASS
  6
CONTINUOUS
 62
     4
 10
90.581132821
 20
23.975241454
 40
3.500000000
  1
-50.0(54.0)
 50
90.000002504
 41
1.000
 51
0.000000000
  7
STANDARD
  0
TEXT
  8
TEXT
  6
CONTINUOUS
 62
     4
 10
38.200792726
 20
-6.971977851
 40
3.500000000
  1
615.268
 50
0.000000000
 41
1.000
 51
0.000000000
  7
STANDARD
  0
ENDSEC
  0
EOF
