999
NT  : 16.0 - 919
  0
SECTION
  2
HEADER
  9
$ACADVER
  1
AC1006
  9
$INSBASE
 10
0.000000000
 20
0.000000000
  9
$EXTMIN
 10
-50.315000010
 20
-23.943696332
  9
$EXTMAX
 10
83.815000987
 20
45.162595119
  9
$LIMMIN
 10
-50.315000010
 20
-23.943696332
  9
$LIMMAX
 10
83.815000987
 20
45.162595119
  9
$AUNITS
 70
     2
  9
$ANGBASE
 50
0.000
  9
$ANGDIR
 70
     0
  0
ENDSEC
  0
SECTION
  2
TABLES
  0
TABLE
  2
LTYPE
 70
     8
  0
LTYPE
  2
PUNKT
 70
    64
  3
..............
 72
    65
 73
     2
 40
1.500
 49
0.700
 49
-0.800
  0
LTYPE
  2
GESTRICHELT
 70
    64
  3
-- -- -- -- --
 72
    65
 73
     7
 40
2.800
 49
0.900
 49
0.000
 49
0.900
 49
0.000
 49
0.200
 49
0.000
 49
-0.800
  0
LTYPE
  2
STRICHPUNKT
 70
    64
  3
--.--.--.--.--
 72
    65
 73
     4
 40
8.800
 49
5.500
 49
-1.300
 49
0.700
 49
-1.300
  0
LTYPE
  2
STRICHPUNKT
 70
    64
  3
--.--.--.--.--
 72
    65
 73
     4
 40
8.800
 49
5.500
 49
-1.300
 49
0.700
 49
-1.300
  0
LTYPE
  2
STRICHPUNKT
 70
    64
  3
--.--.--.--.--
 72
    65
 73
     4
 40
8.800
 49
5.500
 49
-1.300
 49
0.700
 49
-1.300
  0
LTYPE
  2
PHANTOM
 70
    64
  3
--..--..--..--
 72
    65
 73
     6
 40
14.200
 49
7.000
 49
-1.800
 49
0.900
 49
-1.800
 49
0.900
 49
-1.800
  0
LTYPE
  2
PHANTOM
 70
    64
  3
--..--..--..--
 72
    65
 73
     6
 40
14.200
 49
7.000
 49
-1.800
 49
0.900
 49
-1.800
 49
0.900
 49
-1.800
  0
LTYPE
  2
PHANTOM
 70
    64
  3
--..--..--..--
 72
    65
 73
     6
 40
14.200
 49
7.000
 49
-1.800
 49
0.900
 49
-1.800
 49
0.900
 49
-1.800
  0
ENDTAB
  0
ENDSEC
  0
SECTION
  2
BLOCKS
  0
ENDSEC
  0
SECTION
  2
ENTITIES
  0
LINE
  8
AUFNAHME
  6
PUNKT
 62
     1
 10
52.941995600
 20
7.767357057
 11
49.068756355
 21
-7.767357057
  0
LINE
  8
UNSICHT
  6
GESTRICHELT
 62
     1
 10
36.999456680
 20
-2.500000000
 11
37.909382266
 21
0.000000000
  0
LINE
  8
ZAPFEN
  6
CONTINUOUS
 62
     4
 10
-34.000000000
 20
-8.000000000
 11
-34.000000000
 21
8.000000000
  0
LINE
  8
ZAPFEN
  6
CONTINUOUS
 62
     4
 10
-34.000000000
 20
8.000000000
 11
-35.000000000
 21
7.000000000
  0
LINE
  8
ZAPFEN
  6
CONTINUOUS
 62
     4
 10
-35.000000000
 20
7.000000000
 11
-35.000000000
 21
-7.000000000
  0
LINE
  8
ZAPFEN
  6
CONTINUOUS
 62
     4
 10
-35.000000000
 20
-7.000000000
 11
-34.000000000
 21
-8.000000000
  0
LINE
  8
AUFNAHME
  6
CONTINUOUS
 62
     7
 10
34.999456680
 20
8.000000000
 11
0.000000000
 21
8.000000000
  0
LINE
  8
ZAPFEN
  6
CONTINUOUS
 62
     4
 10
0.000000000
 20
8.000000000
 11
-34.000000000
 21
8.000000000
  0
LINE
  8
ZAPFEN
  6
CONTINUOUS
 62
     4
 10
-34.000000000
 20
-8.000000000
 11
0.000000000
 21
-8.000000000
  0
LINE
  8
AUFNAHME
  6
CONTINUOUS
 62
     7
 10
0.000000000
 20
-8.000000000
 11
34.999456680
 21
-8.000000000
  0
LINE
  8
UNSICHT
  6
GESTRICHELT
 62
     1
 10
-35.000000000
 20
-2.500000000
 11
36.999456680
 21
-2.500000000
  0
LINE
  8
UNSICHT
  6
GESTRICHELT
 62
     1
 10
-35.000000000
 20
2.500000000
 11
36.999456680
 21
2.500000000
  0
LINE
  8
ZAPFEN
  6
STRICHPUNKT
 62
     4
 10
-36.644264735
 20
0.000000000
 11
52.876881930
 21
0.000000000
  0
LINE
  8
ZAPFEN
  6
CONTINUOUS
 62
     4
 10
52.941995600
 20
7.767357057
 11
53.000000000
 21
8.000000000
  0
LINE
  8
UNSICHT
  6
GESTRICHELT
 62
     1
 10
40.182017717
 20
2.698566299
 11
41.815119558
 21
4.475549724
  0
LINE
  8
UNSICHT
  6
GESTRICHELT
 62
     1
 10
41.815119558
 20
4.475549724
 11
50.033776179
 21
2.303474296
  0
LINE
  8
UNSICHT
  6
GESTRICHELT
 62
     1
 10
50.033776179
 20
2.303474296
 11
50.275698075
 21
3.273770022
  0
LINE
  8
UNSICHT
  6
GESTRICHELT
 62
     1
 10
50.275698075
 20
3.273770022
 11
51.731141664
 21
2.910887179
  0
LINE
  8
UNSICHT
  6
GESTRICHELT
 62
     1
 10
50.279610290
 20
-2.910887179
 11
48.824166701
 21
-2.548004335
  0
LINE
  8
UNSICHT
  6
GESTRICHELT
 62
     1
 10
48.824166701
 20
-2.548004335
 11
49.066088597
 21
-1.577708609
  0
LINE
  8
UNSICHT
  6
GESTRICHELT
 62
     1
 10
49.066088597
 20
-1.577708609
 11
40.818574923
 21
0.478627503
  0
LINE
  8
UNSICHT
  6
GESTRICHELT
 62
     1
 10
40.818574923
 20
0.478627503
 11
40.182017717
 21
2.698566299
  0
LINE
  8
AUFNAHME
  6
CONTINUOUS
 62
     7
 10
51.763263645
 20
8.000000000
 11
51.016728297
 21
5.005810259
  0
LINE
  8
UNSICHT
  6
GESTRICHELT
 62
     1
 10
51.016728297
 20
5.005810259
 11
50.566786793
 21
3.201193454
  0
LINE
  8
AUFNAHME
  6
CONTINUOUS
 62
     7
 10
47.331192676
 20
5.000000000
 11
52.253464652
 21
5.000000000
  0
LINE
  8
AUFNAHME
  6
CONTINUOUS
 62
     7
 10
49.068756355
 20
-7.767357057
 11
52.941995600
 21
7.767357057
  0
LINE
  8
AUFNAHME
  6
CONTINUOUS
 62
     7
 10
51.763263645
 20
8.000000000
 11
34.999456680
 21
8.000000000
  0
LINE
  8
AUFNAHME
  6
CONTINUOUS
 62
     7
 10
34.999456680
 20
-8.000000000
 11
47.774015599
 21
-8.000000000
  0
LINE
  8
AUFNAHME
  6
CONTINUOUS
 62
     7
 10
47.774015599
 20
-8.000000000
 11
47.832020000
 21
-7.767357057
  0
LINE
  8
UNSICHT
  6
GESTRICHELT
 62
     1
 10
47.832020000
 20
-7.767357057
 11
49.115255419
 21
-2.620580904
  0
LINE
  8
UNSICHT
  6
GESTRICHELT
 62
     1
 10
48.945127649
 20
-2.062856472
 11
43.608501154
 21
-0.732286046
  0
LINE
  8
UNSICHT
  6
GESTRICHELT
 62
     1
 10
43.608501154
 20
-0.732286046
 11
41.918865628
 21
0.204294220
  0
LINE
  8
UNSICHT
  6
GESTRICHELT
 62
     1
 10
43.266007181
 20
4.092100518
 11
44.818110632
 21
4.119192585
  0
LINE
  8
UNSICHT
  6
GESTRICHELT
 62
     1
 10
44.818110632
 20
4.119192585
 11
43.608501154
 21
-0.732286046
  0
LINE
  8
UNSICHT
  6
GESTRICHELT
 62
     1
 10
41.815119558
 20
4.475549724
 11
40.818574923
 21
0.478627503
  0
LINE
  8
UNSICHT
  6
GESTRICHELT
 62
     1
 10
37.417776979
 20
-1.350674425
 11
51.012442881
 21
4.988622395
  0
LINE
  8
UNSICHT
  6
GESTRICHELT
 62
     1
 10
44.876794604
 20
5.370782978
 11
37.228953952
 21
1.869461427
  0
LINE
  8
UNSICHT
  6
GESTRICHELT
 62
     1
 10
50.154737127
 20
2.788622159
 11
44.818110632
 21
4.119192585
  0
LINE
  8
UNSICHT
  6
GESTRICHELT
 62
     1
 10
50.033776179
 20
2.303474296
 11
49.066088597
 21
-1.577708609
  0
LINE
  8
ZAPFEN
  6
STRICHPUNKT
 62
     4
 10
35.533100705
 20
-0.569392858
 11
48.962243775
 21
5.646437019
  0
LINE
  8
ZAPFEN
  6
STRICHPUNKT
 62
     4
 10
38.705147341
 20
3.066791440
 11
52.245673588
 21
-0.309240926
  0
ARC
  8
AUFNAHME
  6
CONTINUOUS
 62
     7
 10
47.300000000
 20
13.000000000
 40
8.000000000
 50
-141.317812547
 51
-88.023506921
  0
LINE
  8
AUFNAHME
  6
CONTINUOUS
 62
     7
 10
51.705259244
 20
7.767357057
 11
52.941995600
 21
7.767357057
  0
LINE
  8
AUFNAHME
  6
CONTINUOUS
 62
     7
 10
47.832020000
 20
-7.767357057
 11
49.068756355
 21
-7.767357057
  0
LINE
  8
EW
  6
CONTINUOUS
 10
69.495755328
 20
-1.122576473
 11
69.998852857
 21
8.477134028
  0
ARC
  8
EW
  6
CONTINUOUS
 10
69.599401494
 20
8.498068387
 40
0.399999548
 50
-3.000000000
 51
116.999989000
  0
LINE
  8
EW
  6
CONTINUOUS
 10
69.417808073
 20
8.854465711
 11
60.852667319
 21
4.490313668
  0
ARC
  8
EW
  6
CONTINUOUS
 10
61.034263913
 20
4.133909864
 40
0.400001243
 50
117.000018328
 51
-123.000935424
  0
LINE
  8
EW
  6
CONTINUOUS
 10
60.816403997
 20
3.798447001
 11
62.471727744
 21
2.723466946
  0
LINE
  8
EW
  6
CONTINUOUS
 10
62.471727744
 20
2.723466946
 11
68.878453140
 21
-1.437110121
  0
ARC
  8
EW
  6
CONTINUOUS
 10
69.096309610
 20
-1.101642410
 40
0.400000033
 50
-123.000143051
 51
-3.000000000
  0
LINE
  8
EW
  6
CONTINUOUS
 10
51.969330734
 20
7.998067935
 11
50.374330483
 21
1.600871339
  0
LINE
  8
EW
  6
CONTINUOUS
 10
48.989530797
 20
-3.953256838
 11
47.980082688
 21
-8.001932065
  0
LINE
  8
EW
  6
CONTINUOUS
 10
47.980082688
 20
-8.001932065
 11
53.133150835
 21
-8.001932065
  0
LINE
  8
EW
  6
CONTINUOUS
 10
60.794721865
 20
-6.683249300
 11
69.064007316
 21
-1.908975119
  0
LINE
  8
EW
  6
CONTINUOUS
 10
69.064007316
 20
-1.908975119
 11
69.085362568
 21
-1.501492618
  0
LINE
  8
EW
  6
CONTINUOUS
 10
67.737030818
 20
7.998067935
 11
51.969330734
 21
7.998067935
  0
LINE
  8
EW
  6
CONTINUOUS
 10
63.668512808
 20
5.925056914
 11
63.325511051
 21
6.147804755
  0
LINE
  8
EW
  6
CONTINUOUS
 10
63.325511051
 20
6.147804755
 11
61.975572038
 21
7.024464992
  0
ARC
  8
EW
  6
CONTINUOUS
 10
61.104150432
 20
5.682591375
 40
1.600000131
 50
57.000039339
 51
-123.000033530
  0
LINE
  8
EW
  6
CONTINUOUS
 10
60.232726714
 20
4.340718243
 11
60.638282018
 21
4.077347211
  0
LINE
  8
EW
  6
CONTINUOUS
 10
60.698907817
 20
3.915879399
 11
60.023350365
 21
4.354591741
  0
LINE
  8
EW
  6
CONTINUOUS
 10
60.023350365
 20
4.354591741
 11
59.718509672
 21
4.882591309
  0
LINE
  8
EW
  6
CONTINUOUS
 10
60.759597830
 20
3.698067935
 11
62.442271730
 21
2.605325328
  0
LINE
  8
EW
  6
CONTINUOUS
 10
62.442271730
 20
2.605325328
 11
69.074857985
 21
-1.701932067
  0
LINE
  8
EW
  6
CONTINUOUS
 10
64.289355567
 20
-4.665621592
 11
60.629421056
 21
-4.665621592
  0
LINE
  8
EW
  6
CONTINUOUS
 10
60.629421056
 20
-4.665621592
 11
49.842531945
 21
-4.665621592
  0
LINE
  8
EW
  6
CONTINUOUS
 10
51.927833951
 20
3.698067935
 11
49.074033935
 21
-7.747898757
  0
LINE
  8
EW
  6
CONTINUOUS
 10
53.133150835
 20
-8.001932065
 11
53.461935375
 21
-6.683249300
  0
LINE
  8
EW
  6
CONTINUOUS
 10
53.461935375
 20
-6.683249300
 11
60.794721865
 21
-6.683249300
  0
LINE
  8
EW
  6
CONTINUOUS
 10
51.344626209
 20
1.358949443
 11
50.374330483
 21
1.600871339
  0
LINE
  8
EW
  6
CONTINUOUS
 10
48.989530797
 20
-3.953256838
 11
49.959826523
 21
-4.195178733
  0
LINE
  8
EW
  6
CONTINUOUS
 10
49.074033935
 20
-7.747898757
 11
48.043420305
 21
-7.747898757
  0
LINE
  8
EW
  6
CONTINUOUS
 10
50.897220321
 20
3.698067935
 11
60.759597830
 21
3.698067935
  0
CIRCLE
  8
EW
  6
CONTINUOUS
 10
66.576660879
 20
3.843445147
 40
1.900000000
  0
LINE
  8
EW
  6
CONTINUOUS
 10
68.820826684
 20
-2.049375523
 11
59.970539871
 21
3.698067935
  0
LINE
  8
EW
  6
CONTINUOUS
 10
65.904937584
 20
-3.732864879
 11
53.962304495
 21
3.698067935
  0
LINE
  8
EW
  6
CONTINUOUS
 10
67.737030818
 20
7.998067935
 11
68.038555239
 21
7.998067935
  0
LINE
  8
EW
  6
CONTINUOUS
 10
66.576660879
 20
6.594079165
 11
66.576660879
 21
1.092811129
  0
LINE
  8
EW
  6
CONTINUOUS
 10
63.881160433
 20
3.851819092
 11
68.937641536
 21
3.851819092
  0
LINE
  8
EW
  6
CONTINUOUS
 10
69.540935430
 20
7.191355898
 11
69.081815474
 21
-1.569175195
  0
ARC
  8
EW
  6
CONTINUOUS
 10
69.041620662
 20
7.217523874
 40
0.500000000
 50
-2.999999840
 51
90.000000000
  0
LINE
  8
EW
  6
CONTINUOUS
 10
68.038555239
 20
7.717523874
 11
69.041620662
 21
7.717523874
  0
LINE
  8
EW
  6
CONTINUOUS
 10
68.038555239
 20
7.998067935
 11
68.038555239
 21
7.717523874
  0
LINE
  8
EW
  6
CONTINUOUS
 10
61.787586081
 20
1.969111122
 11
60.696185378
 21
-2.408258008
  0
LINE
  8
EW
  6
CONTINUOUS
 10
61.328576947
 20
0.128126042
 11
69.069617204
 21
-1.801932065
  0
LINE
  8
EW
  6
CONTINUOUS
 10
55.950959586
 20
3.299681548
 11
61.787586081
 21
1.969111122
  0
LINE
  8
EW
  6
CONTINUOUS
 10
50.639829353
 20
2.665729146
 11
55.491307984
 21
1.456119668
  0
LINE
  8
EW
  6
CONTINUOUS
 10
53.638432259
 20
-5.975358963
 11
48.786953628
 21
-4.765749485
  0
LINE
  8
EW
  6
CONTINUOUS
 10
55.265267937
 20
-3.713103773
 11
48.015251375
 21
-1.905471623
  0
LINE
  8
EW
  6
CONTINUOUS
 10
55.860149806
 20
-1.327162919
 11
48.610133243
 21
0.480469232
  0
LINE
  8
EW
  6
CONTINUOUS
 10
55.950959586
 20
3.299681548
 11
53.461935375
 21
-6.683249300
  0
LINE
  8
MASS
  6
CONTINUOUS
 62
     4
 10
-46.000000000
 20
-8.000000000
 11
-34.000000000
 21
-8.000000000
  0
LINE
  8
MASS
  6
CONTINUOUS
 62
     4
 10
-44.000000000
 20
-8.000000000
 11
-44.450000000
 21
-4.500000000
  0
LINE
  8
MASS
  6
CONTINUOUS
 62
     4
 10
-44.450000000
 20
-4.500000000
 11
-43.550000000
 21
-4.500000000
  0
LINE
  8
MASS
  6
CONTINUOUS
 62
     4
 10
-43.550000000
 20
-4.500000000
 11
-44.000000000
 21
-8.000000000
  0
LINE
  8
MASS
  6
CONTINUOUS
 62
     4
 10
-46.000000000
 20
8.000000000
 11
-34.000000000
 21
8.000000000
  0
LINE
  8
MASS
  6
CONTINUOUS
 62
     4
 10
-44.000000000
 20
8.000000000
 11
-43.550000000
 21
4.500000000
  0
LINE
  8
MASS
  6
CONTINUOUS
 62
     4
 10
-43.550000000
 20
4.500000000
 11
-44.450000000
 21
4.500000000
  0
LINE
  8
MASS
  6
CONTINUOUS
 62
     4
 10
-44.450000000
 20
4.500000000
 11
-44.000000000
 21
8.000000000
  0
LINE
  8
MASS
  6
CONTINUOUS
 62
     4
 10
-44.000000000
 20
-4.500000000
 11
-44.000000000
 21
4.500000000
  0
TEXT
  8
MASS
  6
CONTINUOUS
 62
     4
 10
-45.500000000
 20
0.522812321
 40
3.500000000
  1
16
 50
90.000000000
 41
1.000
 51
0.000000000
  7
STANDARD
  0
CIRCLE
  8
MASS
  6
CONTINUOUS
 62
     4
 10
-46.750000000
 20
-1.727187679
 40
1.250000000
  0
LINE
  8
MASS
  6
CONTINUOUS
 62
     4
 10
-45.500000000
 20
-2.977187679
 11
-48.000000000
 21
-0.477187679
  0
LINE
  8
MASS
  6
CONTINUOUS
 62
     4
 10
-35.000000000
 20
-22.000000000
 11
-35.000000000
 21
-7.000000000
  0
LINE
  8
MASS
  6
CONTINUOUS
 62
     4
 10
-35.000000000
 20
-20.000000000
 11
-31.500000000
 21
-19.550000000
  0
LINE
  8
MASS
  6
CONTINUOUS
 62
     4
 10
-31.500000000
 20
-19.550000000
 11
-31.500000000
 21
-20.450000000
  0
LINE
  8
MASS
  6
CONTINUOUS
 62
     4
 10
-31.500000000
 20
-20.450000000
 11
-35.000000000
 21
-20.000000000
  0
LINE
  8
MASS
  6
CONTINUOUS
 62
     4
 10
0.000000000
 20
-22.000000000
 11
0.000000000
 21
-10.000000000
  0
LINE
  8
MASS
  6
CONTINUOUS
 62
     4
 10
0.000000000
 20
-20.000000000
 11
-3.500000000
 21
-20.450000000
  0
LINE
  8
MASS
  6
CONTINUOUS
 62
     4
 10
-3.500000000
 20
-20.450000000
 11
-3.500000000
 21
-19.550000000
  0
LINE
  8
MASS
  6
CONTINUOUS
 62
     4
 10
-3.500000000
 20
-19.550000000
 11
0.000000000
 21
-20.000000000
  0
LINE
  8
MASS
  6
CONTINUOUS
 62
     4
 10
-31.500000000
 20
-20.000000000
 11
-3.500000000
 21
-20.000000000
  0
TEXT
  8
MASS
  6
CONTINUOUS
 62
     4
 10
-15.437500391
 20
-18.500000000
 40
3.500000000
  1
35
 50
0.000000000
 41
1.000
 51
0.000000000
  7
STANDARD
  0
TEXT
  8
MASS
  6
CONTINUOUS
 62
     4
 10
-22.290312891
 20
-18.500000000
 40
3.500000000
  1
min.
 50
0.000000000
 41
1.000
 51
0.000000000
  7
STANDARD
  0
LINE
  8
MASS
  6
CONTINUOUS
 62
     4
 10
84.500000020
 20
8.898068586
 11
69.599401494
 21
8.898067935
  0
LINE
  8
MASS
  6
CONTINUOUS
 62
     4
 10
82.500000020
 20
8.898068499
 11
82.949999867
 21
12.398068518
  0
LINE
  8
MASS
  6
CONTINUOUS
 62
     4
 10
82.949999867
 20
12.398068518
 11
82.049999867
 21
12.398068479
  0
LINE
  8
MASS
  6
CONTINUOUS
 62
     4
 10
82.049999867
 20
12.398068479
 11
82.500000020
 21
8.898068499
  0
LINE
  8
MASS
  6
CONTINUOUS
 62
     4
 10
82.499999867
 20
12.398068499
 11
82.499998607
 21
41.218898786
  0
LINE
  8
MASS
  6
CONTINUOUS
 62
     4
 10
82.500000798
 20
-8.898065909
 11
82.500000020
 21
8.898068499
  0
TEXT
  8
MASS
  6
CONTINUOUS
 62
     4
 10
81.414106894
 20
16.435148739
 40
3.500000000
  1
17.8
 50
90.000002504
 41
1.000
 51
0.000000000
  7
STANDARD
  0
CIRCLE
  8
MASS
  6
CONTINUOUS
 62
     4
 10
80.164106992
 20
14.185148684
 40
1.250000000
  0
LINE
  8
MASS
  6
CONTINUOUS
 62
     4
 10
81.414107047
 20
12.935148739
 11
78.914106938
 21
15.435148630
  0
TEXT
  8
MASS
  6
CONTINUOUS
 62
     4
 10
81.414106575
 20
23.725461239
 40
3.500000000
  1
-33.0(40.0)
 50
90.000002504
 41
1.000
 51
0.000000000
  7
STANDARD
  0
LINE
  8
MASS
  6
CONTINUOUS
 62
     4
 10
-35.000000000
 20
18.000000000
 11
-35.000000000
 21
7.000000000
  0
LINE
  8
MASS
  6
CONTINUOUS
 62
     4
 10
-35.000000000
 20
16.000000000
 11
-31.500000000
 21
16.450000000
  0
LINE
  8
MASS
  6
CONTINUOUS
 62
     4
 10
-31.500000000
 20
16.450000000
 11
-31.500000000
 21
15.550000000
  0
LINE
  8
MASS
  6
CONTINUOUS
 62
     4
 10
-31.500000000
 20
15.550000000
 11
-35.000000000
 21
16.000000000
  0
LINE
  8
MASS
  6
CONTINUOUS
 62
     4
 10
53.000000000
 20
18.000000000
 11
53.000000000
 21
8.000000000
  0
LINE
  8
MASS
  6
CONTINUOUS
 62
     4
 10
53.000000000
 20
16.000000000
 11
49.500000000
 21
15.550000000
  0
LINE
  8
MASS
  6
CONTINUOUS
 62
     4
 10
49.500000000
 20
15.550000000
 11
49.500000000
 21
16.450000000
  0
LINE
  8
MASS
  6
CONTINUOUS
 62
     4
 10
49.500000000
 20
16.450000000
 11
53.000000000
 21
16.000000000
  0
LINE
  8
MASS
  6
CONTINUOUS
 62
     4
 10
-31.500000000
 20
16.000000000
 11
49.500000000
 21
16.000000000
  0
TEXT
  8
MASS
  6
CONTINUOUS
 62
     4
 10
7.335311517
 20
17.500000000
 40
3.500000000
  1
88
 50
0.000000000
 41
1.000
 51
0.000000000
  7
STANDARD
  0
TEXT
  8
TEXT
  6
CONTINUOUS
 62
     4
 10
20.741035855
 20
-7.026580989
 40
3.500000000
  1
615.265
 50
0.000000000
 41
1.000
 51
0.000000000
  7
STANDARD
  0
LINE
  8
MASS
  6
CONTINUOUS
 62
     4
 10
0.000000000
 20
-21.927772522
 11
0.000000000
 21
-8.000000000
  0
LINE
  8
MASS
  6
CONTINUOUS
 62
     4
 10
0.000000000
 20
-19.927772522
 11
3.499999997
 21
-19.477772495
  0
LINE
  8
MASS
  6
CONTINUOUS
 62
     4
 10
3.499999997
 20
-19.477772495
 11
3.500000003
 21
-20.377772495
  0
LINE
  8
MASS
  6
CONTINUOUS
 62
     4
 10
3.500000003
 20
-20.377772495
 11
0.000000000
 21
-19.927772522
  0
LINE
  8
MASS
  6
CONTINUOUS
 62
     4
 10
69.999401042
 20
-21.927771991
 11
69.999401042
 21
8.498068387
  0
LINE
  8
MASS
  6
CONTINUOUS
 62
     4
 10
69.999401042
 20
-19.927771991
 11
66.499401045
 21
-20.377772018
  0
LINE
  8
MASS
  6
CONTINUOUS
 62
     4
 10
66.499401045
 20
-20.377772018
 11
66.499401038
 21
-19.477772018
  0
LINE
  8
MASS
  6
CONTINUOUS
 62
     4
 10
66.499401038
 20
-19.477772018
 11
69.999401042
 21
-19.927771991
  0
LINE
  8
MASS
  6
CONTINUOUS
 62
     4
 10
3.500000000
 20
-19.927772495
 11
66.499401042
 21
-19.927772018
  0
TEXT
  8
MASS
  6
CONTINUOUS
 62
     4
 10
36.652043477
 20
-18.427772244
 40
3.500000000
  1
70
 50
0.000000434
 41
1.000
 51
0.000000000
  7
STANDARD
  0
TEXT
  8
MASS
  6
CONTINUOUS
 62
     4
 10
30.017980977
 20
-18.427772294
 40
3.500000000
  1
50-
 50
0.000000434
 41
1.000
 51
0.000000000
  7
STANDARD
  0
LINE
  8
UNSICHT
  6
GESTRICHELT
 62
     1
 10
36.999456680
 20
2.500000000
 11
37.909382266
 21
0.000000000
  0
LINE
  8
UNSICHT
  6
GESTRICHELT
 62
     1
 10
36.999456680
 20
2.500000000
 11
36.999456680
 21
-2.500000000
  0
ENDSEC
  0
EOF
