999
NT  : 16.0 - 919
  0
SECTION
  2
HEADER
  9
$ACADVER
  1
AC1006
  9
$INSBASE
 10
0.000000000
 20
0.000000000
  9
$EXTMIN
 10
-48.797737991
 20
-44.217959459
  9
$EXTMAX
 10
100.672443498
 20
47.346539533
  9
$LIMMIN
 10
-48.797737991
 20
-44.217959459
  9
$LIMMAX
 10
100.672443498
 20
47.346539533
  9
$AUNITS
 70
     2
  9
$ANGBASE
 50
0.000
  9
$ANGDIR
 70
     0
  0
ENDSEC
  0
SECTION
  2
TABLES
  0
TABLE
  2
LTYPE
 70
     8
  0
LTYPE
  2
PUNKT
 70
    64
  3
..............
 72
    65
 73
     2
 40
1.500
 49
0.700
 49
-0.800
  0
LTYPE
  2
GESTRICHELT
 70
    64
  3
-- -- -- -- --
 72
    65
 73
     7
 40
2.800
 49
0.900
 49
0.000
 49
0.900
 49
0.000
 49
0.200
 49
0.000
 49
-0.800
  0
LTYPE
  2
STRICHPUNKT
 70
    64
  3
--.--.--.--.--
 72
    65
 73
     4
 40
8.800
 49
5.500
 49
-1.300
 49
0.700
 49
-1.300
  0
LTYPE
  2
STRICHPUNKT
 70
    64
  3
--.--.--.--.--
 72
    65
 73
     4
 40
8.800
 49
5.500
 49
-1.300
 49
0.700
 49
-1.300
  0
LTYPE
  2
STRICHPUNKT
 70
    64
  3
--.--.--.--.--
 72
    65
 73
     4
 40
8.800
 49
5.500
 49
-1.300
 49
0.700
 49
-1.300
  0
LTYPE
  2
PHANTOM
 70
    64
  3
--..--..--..--
 72
    65
 73
     6
 40
14.200
 49
7.000
 49
-1.800
 49
0.900
 49
-1.800
 49
0.900
 49
-1.800
  0
LTYPE
  2
PHANTOM
 70
    64
  3
--..--..--..--
 72
    65
 73
     6
 40
14.200
 49
7.000
 49
-1.800
 49
0.900
 49
-1.800
 49
0.900
 49
-1.800
  0
LTYPE
  2
PHANTOM
 70
    64
  3
--..--..--..--
 72
    65
 73
     6
 40
14.200
 49
7.000
 49
-1.800
 49
0.900
 49
-1.800
 49
0.900
 49
-1.800
  0
ENDTAB
  0
ENDSEC
  0
SECTION
  2
BLOCKS
  0
ENDSEC
  0
SECTION
  2
ENTITIES
  0
LINE
  8
UNSICHT
  6
GESTRICHELT
 62
     1
 10
66.956466539
 20
8.842830462
 11
64.045579360
 21
9.568596148
  0
LINE
  8
UNSICHT
  6
GESTRICHELT
 62
     1
 10
64.045579360
 20
9.568596148
 11
60.295789978
 21
-5.470987609
  0
LINE
  8
AUFNAHME
  6
CONTINUOUS
 62
     7
 10
46.000000000
 20
0.000000000
 11
46.029039448
 21
-0.852542957
  0
LINE
  8
AUFNAHME
  6
CONTINUOUS
 62
     7
 10
46.029039448
 20
-0.852542957
 11
46.197213441
 21
-2.229176793
  0
LINE
  8
AUFNAHME
  6
CONTINUOUS
 62
     7
 10
46.197213441
 20
-2.229176793
 11
46.507015938
 21
-3.596173468
  0
LINE
  8
AUFNAHME
  6
CONTINUOUS
 62
     7
 10
46.507015938
 20
-3.596173468
 11
46.950044299
 21
-4.965248397
  0
LINE
  8
AUFNAHME
  6
CONTINUOUS
 62
     7
 10
46.950044299
 20
-4.965248397
 11
47.500000000
 21
-6.304760106
  0
LINE
  8
AUFNAHME
  6
CONTINUOUS
 62
     7
 10
47.500000000
 20
-6.304760106
 11
63.179748034
 21
-6.304760106
  0
LINE
  8
AUFNAHME
  6
CONTINUOUS
 62
     7
 10
63.179748034
 20
-6.304760106
 11
66.323654526
 21
6.304760106
  0
LINE
  8
AUFNAHME
  6
CONTINUOUS
 62
     7
 10
66.323654526
 20
6.304760106
 11
47.500000000
 21
6.304760106
  0
LINE
  8
AUFNAHME
  6
CONTINUOUS
 62
     7
 10
47.500000000
 20
6.304760106
 11
46.988846345
 21
5.069415719
  0
LINE
  8
AUFNAHME
  6
CONTINUOUS
 62
     7
 10
46.988846345
 20
5.069415719
 11
46.563508395
 21
3.795425087
  0
LINE
  8
AUFNAHME
  6
CONTINUOUS
 62
     7
 10
46.563508395
 20
3.795425087
 11
46.149075268
 21
1.936260606
  0
LINE
  8
AUFNAHME
  6
CONTINUOUS
 62
     7
 10
46.149075268
 20
1.936260606
 11
46.037806636
 21
0.970925328
  0
LINE
  8
AUFNAHME
  6
CONTINUOUS
 62
     7
 10
46.037806636
 20
0.970925328
 11
46.000000000
 21
0.000000000
  0
LINE
  8
AUFNAHME
  6
CONTINUOUS
 62
     7
 10
33.000000000
 20
8.000000000
 11
0.000000000
 21
8.000000000
  0
LINE
  8
ZAPFEN
  6
CONTINUOUS
 62
     4
 10
0.000000000
 20
8.000000000
 11
-34.000000000
 21
8.000000000
  0
LINE
  8
ZAPFEN
  6
CONTINUOUS
 62
     4
 10
-34.000000000
 20
8.000000000
 11
-35.000000000
 21
7.000000000
  0
LINE
  8
ZAPFEN
  6
CONTINUOUS
 62
     4
 10
-35.000000000
 20
7.000000000
 11
-35.000000000
 21
0.000000000
  0
LINE
  8
ZAPFEN
  6
CONTINUOUS
 62
     4
 10
-35.000000000
 20
0.000000000
 11
-35.000000000
 21
-7.000000000
  0
LINE
  8
ZAPFEN
  6
CONTINUOUS
 62
     4
 10
-35.000000000
 20
-7.000000000
 11
-34.000000000
 21
-8.000000000
  0
LINE
  8
ZAPFEN
  6
CONTINUOUS
 62
     4
 10
-34.000000000
 20
-8.000000000
 11
0.000000000
 21
-8.000000000
  0
LINE
  8
AUFNAHME
  6
CONTINUOUS
 62
     7
 10
0.000000000
 20
-8.000000000
 11
33.000000000
 21
-8.000000000
  0
LINE
  8
AUFNAHME
  6
CONTINUOUS
 62
     7
 10
66.323654526
 20
6.304760106
 11
68.000000000
 21
13.028214572
  0
LINE
  8
AUFNAHME
  6
CONTINUOUS
 62
     7
 10
68.000000000
 20
13.028214572
 11
68.000000000
 21
13.076696831
  0
LINE
  8
AUFNAHME
  6
CONTINUOUS
 62
     7
 10
68.000000000
 20
13.076696831
 11
66.414636859
 21
13.076696831
  0
LINE
  8
AUFNAHME
  6
CONTINUOUS
 62
     7
 10
66.414636859
 20
13.076696831
 11
66.644842195
 21
14.000000000
  0
LINE
  8
AUFNAHME
  6
CONTINUOUS
 62
     7
 10
66.644842195
 20
14.000000000
 11
47.500000000
 21
14.000000000
  0
LINE
  8
AUFNAHME
  6
CONTINUOUS
 62
     7
 10
47.500000000
 20
14.000000000
 11
46.000000000
 21
12.500000000
  0
LINE
  8
AUFNAHME
  6
CONTINUOUS
 62
     7
 10
46.000000000
 20
12.500000000
 11
39.928203230
 21
12.500000000
  0
LINE
  8
AUFNAHME
  6
CONTINUOUS
 62
     7
 10
39.928203230
 20
12.500000000
 11
33.000000000
 21
8.500000000
  0
LINE
  8
AUFNAHME
  6
CONTINUOUS
 62
     7
 10
33.000000000
 20
8.500000000
 11
33.000000000
 21
0.000000000
  0
LINE
  8
AUFNAHME
  6
CONTINUOUS
 62
     7
 10
33.000000000
 20
0.000000000
 11
33.000000000
 21
-8.500000000
  0
LINE
  8
AUFNAHME
  6
CONTINUOUS
 62
     7
 10
33.000000000
 20
-8.500000000
 11
39.928203230
 21
-12.500000000
  0
LINE
  8
AUFNAHME
  6
CONTINUOUS
 62
     7
 10
39.928203230
 20
-12.500000000
 11
46.000000000
 21
-12.500000000
  0
LINE
  8
AUFNAHME
  6
CONTINUOUS
 62
     7
 10
46.000000000
 20
-12.500000000
 11
47.500000000
 21
-14.000000000
  0
LINE
  8
AUFNAHME
  6
CONTINUOUS
 62
     7
 10
47.500000000
 20
-14.000000000
 11
59.663658115
 21
-14.000000000
  0
LINE
  8
AUFNAHME
  6
CONTINUOUS
 62
     7
 10
59.663658115
 20
-14.000000000
 11
59.893863450
 21
-13.076696831
  0
LINE
  8
AUFNAHME
  6
CONTINUOUS
 62
     7
 10
59.893863450
 20
-13.076696831
 11
61.491314576
 21
-13.076696831
  0
LINE
  8
AUFNAHME
  6
CONTINUOUS
 62
     7
 10
61.491314576
 20
-13.076696831
 11
63.179748034
 21
-6.304760106
  0
LINE
  8
AUFNAHME
  6
CONTINUOUS
 62
     7
 10
46.000000000
 20
0.000000000
 11
46.000000000
 21
12.500000000
  0
LINE
  8
UNSICHT
  6
GESTRICHELT
 62
     1
 10
50.925655045
 20
7.583631165
 11
52.135264523
 21
12.435109797
  0
LINE
  8
UNSICHT
  6
GESTRICHELT
 62
     1
 10
52.135264523
 20
12.435109797
 11
50.129958537
 21
10.358554660
  0
LINE
  8
UNSICHT
  6
GESTRICHELT
 62
     1
 10
50.129958537
 20
10.358554660
 11
50.925655045
 21
7.583631165
  0
LINE
  8
UNSICHT
  6
GESTRICHELT
 62
     1
 10
48.409667331
 20
-2.507444388
 11
49.619276809
 21
2.344034244
  0
LINE
  8
UNSICHT
  6
GESTRICHELT
 62
     1
 10
49.619276809
 20
2.344034244
 11
47.613970823
 21
0.267479107
  0
LINE
  8
UNSICHT
  6
GESTRICHELT
 62
     1
 10
47.613970823
 20
0.267479107
 11
48.409667331
 21
-2.507444388
  0
LINE
  8
ZAPFEN
  6
CONTINUOUS
 62
     4
 10
-34.000000000
 20
-8.000000000
 11
-34.000000000
 21
0.000000000
  0
LINE
  8
ZAPFEN
  6
CONTINUOUS
 62
     4
 10
-34.000000000
 20
0.000000000
 11
-34.000000000
 21
8.000000000
  0
LINE
  8
AUFNAHME
  6
CONTINUOUS
 62
     7
 10
47.500000000
 20
6.304760106
 11
47.500000000
 21
14.000000000
  0
LINE
  8
AUFNAHME
  6
CONTINUOUS
 62
     7
 10
47.500000000
 20
-14.000000000
 11
47.500000000
 21
-6.304760106
  0
LINE
  8
AUFNAHME
  6
CONTINUOUS
 62
     7
 10
39.928203230
 20
-12.500000000
 11
39.928203230
 21
12.500000000
  0
LINE
  8
UNSICHT
  6
GESTRICHELT
 62
     1
 10
66.414636859
 20
13.076696831
 11
59.893863450
 21
-13.076696831
  0
LINE
  8
UNSICHT
  6
GESTRICHELT
 62
     1
 10
55.361123280
 20
12.146119690
 11
53.909591907
 21
6.324345332
  0
LINE
  8
UNSICHT
  6
GESTRICHELT
 62
     1
 10
52.845135566
 20
2.055044137
 11
51.393604193
 21
-3.766730221
  0
LINE
  8
UNSICHT
  6
GESTRICHELT
 62
     1
 10
-35.000000000
 20
-2.000000000
 11
39.928203230
 21
-2.000000000
  0
LINE
  8
UNSICHT
  6
GESTRICHELT
 62
     1
 10
39.928203230
 20
2.000000000
 11
-35.000000000
 21
2.000000000
  0
LINE
  8
UNSICHT
  6
GESTRICHELT
 62
     1
 10
62.033852396
 20
1.500000000
 11
40.000000000
 21
1.500000000
  0
LINE
  8
UNSICHT
  6
GESTRICHELT
 62
     1
 10
40.000000000
 20
-1.500000000
 11
61.285868388
 21
-1.500000000
  0
LINE
  8
UNSICHT
  6
GESTRICHELT
 62
     1
 10
65.428315973
 20
9.120779827
 11
55.240162333
 21
11.660971827
  0
LINE
  8
UNSICHT
  6
GESTRICHELT
 62
     1
 10
55.240162333
 20
11.660971827
 11
52.135264523
 21
12.435109797
  0
LINE
  8
UNSICHT
  6
GESTRICHELT
 62
     1
 10
50.925655045
 20
7.583631165
 11
54.030649884
 21
6.809469003
  0
LINE
  8
UNSICHT
  6
GESTRICHELT
 62
     1
 10
54.030649884
 20
6.809469003
 11
64.218706495
 21
4.269301196
  0
LINE
  8
UNSICHT
  6
GESTRICHELT
 62
     1
 10
62.912328259
 20
-0.970295726
 11
52.724174618
 21
1.569896274
  0
LINE
  8
UNSICHT
  6
GESTRICHELT
 62
     1
 10
52.724174618
 20
1.569896274
 11
49.619276809
 21
2.344034244
  0
LINE
  8
UNSICHT
  6
GESTRICHELT
 62
     1
 10
48.409667331
 20
-2.507444388
 11
51.514662170
 21
-3.281606550
  0
LINE
  8
UNSICHT
  6
GESTRICHELT
 62
     1
 10
51.514662170
 20
-3.281606550
 11
61.702718781
 21
-5.821774358
  0
LINE
  8
UNSICHT
  6
GESTRICHELT
 62
     1
 10
61.702718781
 20
-5.821774358
 11
63.206677157
 21
-6.196753296
  0
LINE
  8
ZAPFEN
  6
STRICHPUNKT
 62
     4
 10
49.313525066
 20
10.562114387
 11
67.054482462
 21
6.138796911
  0
LINE
  8
ZAPFEN
  6
STRICHPUNKT
 62
     4
 10
46.976638395
 20
0.426383928
 11
64.656691306
 21
-3.981748354
  0
LINE
  8
UNSICHT
  6
GESTRICHELT
 62
     1
 10
55.361123280
 20
12.146119690
 11
65.549276921
 21
9.605927690
  0
LINE
  8
UNSICHT
  6
GESTRICHELT
 62
     1
 10
53.909591907
 20
6.324345332
 11
64.097745548
 21
3.784153332
  0
LINE
  8
UNSICHT
  6
GESTRICHELT
 62
     1
 10
52.845135566
 20
2.055044137
 11
63.033289207
 21
-0.485147863
  0
LINE
  8
UNSICHT
  6
GESTRICHELT
 62
     1
 10
51.393604193
 20
-3.766730221
 11
61.581757833
 21
-6.306922221
  0
LINE
  8
ZAPFEN
  6
STRICHPUNKT
 62
     4
 10
-36.199753591
 20
0.000000000
 11
84.069416899
 21
0.000000000
  0
LINE
  8
MASS
  6
CONTINUOUS
 62
     4
 10
-44.332344055
 20
-8.000000000
 11
-34.000000000
 21
-8.000000000
  0
LINE
  8
MASS
  6
CONTINUOUS
 62
     4
 10
-42.332344055
 20
-8.000000000
 11
-42.782344055
 21
-4.500000000
  0
LINE
  8
MASS
  6
CONTINUOUS
 62
     4
 10
-42.782344055
 20
-4.500000000
 11
-41.882344055
 21
-4.500000000
  0
LINE
  8
MASS
  6
CONTINUOUS
 62
     4
 10
-41.882344055
 20
-4.500000000
 11
-42.332344055
 21
-8.000000000
  0
LINE
  8
MASS
  6
CONTINUOUS
 62
     4
 10
-42.332344055
 20
-4.600000000
 11
-42.332344055
 21
-7.900000000
  0
LINE
  8
MASS
  6
CONTINUOUS
 62
     4
 10
-42.132344055
 20
-4.600000000
 11
-42.132344055
 21
-6.344444444
  0
LINE
  8
MASS
  6
CONTINUOUS
 62
     4
 10
-42.532344055
 20
-4.600000000
 11
-42.532344055
 21
-6.344444444
  0
LINE
  8
MASS
  6
CONTINUOUS
 62
     4
 10
-41.932344055
 20
-4.600000000
 11
-41.932344055
 21
-4.788888889
  0
LINE
  8
MASS
  6
CONTINUOUS
 62
     4
 10
-42.732344055
 20
-4.600000000
 11
-42.732344055
 21
-4.788888889
  0
LINE
  8
MASS
  6
CONTINUOUS
 62
     4
 10
-44.332344055
 20
8.000000000
 11
-34.000000000
 21
8.000000000
  0
LINE
  8
MASS
  6
CONTINUOUS
 62
     4
 10
-42.332344055
 20
8.000000000
 11
-41.882344055
 21
4.500000000
  0
LINE
  8
MASS
  6
CONTINUOUS
 62
     4
 10
-41.882344055
 20
4.500000000
 11
-42.782344055
 21
4.500000000
  0
LINE
  8
MASS
  6
CONTINUOUS
 62
     4
 10
-42.782344055
 20
4.500000000
 11
-42.332344055
 21
8.000000000
  0
LINE
  8
MASS
  6
CONTINUOUS
 62
     4
 10
-42.332344055
 20
4.600000000
 11
-42.332344055
 21
7.900000000
  0
LINE
  8
MASS
  6
CONTINUOUS
 62
     4
 10
-42.532344055
 20
4.600000000
 11
-42.532344055
 21
6.344444444
  0
LINE
  8
MASS
  6
CONTINUOUS
 62
     4
 10
-42.132344055
 20
4.600000000
 11
-42.132344055
 21
6.344444444
  0
LINE
  8
MASS
  6
CONTINUOUS
 62
     4
 10
-42.732344055
 20
4.600000000
 11
-42.732344055
 21
4.788888889
  0
LINE
  8
MASS
  6
CONTINUOUS
 62
     4
 10
-41.932344055
 20
4.600000000
 11
-41.932344055
 21
4.788888889
  0
LINE
  8
MASS
  6
CONTINUOUS
 62
     4
 10
-42.332344055
 20
-4.500000000
 11
-42.332344055
 21
4.500000000
  0
TEXT
  8
MASS
  6
CONTINUOUS
 62
     4
 10
-43.832344055
 20
0.522812321
 40
3.500000000
  1
16
 50
90.000000000
 41
1.000
 51
0.000000000
  7
STANDARD
  0
CIRCLE
  8
MASS
  6
CONTINUOUS
 62
     4
 10
-45.082344055
 20
-1.727187679
 40
1.250000000
  0
LINE
  8
MASS
  6
CONTINUOUS
 62
     4
 10
-43.832344055
 20
-2.977187679
 11
-46.332344055
 21
-0.477187679
  0
LINE
  8
MASS
  6
CONTINUOUS
 62
     4
 10
-35.000000000
 20
22.337133408
 11
-35.000000000
 21
7.000000000
  0
LINE
  8
MASS
  6
CONTINUOUS
 62
     4
 10
-35.000000000
 20
20.337133408
 11
-31.500000000
 21
20.787133406
  0
LINE
  8
MASS
  6
CONTINUOUS
 62
     4
 10
-31.500000000
 20
20.787133406
 11
-31.500000000
 21
19.887133406
  0
LINE
  8
MASS
  6
CONTINUOUS
 62
     4
 10
-31.500000000
 20
19.887133406
 11
-35.000000000
 21
20.337133408
  0
LINE
  8
MASS
  6
CONTINUOUS
 62
     4
 10
-31.600000000
 20
20.337133406
 11
-34.900000000
 21
20.337133408
  0
LINE
  8
MASS
  6
CONTINUOUS
 62
     4
 10
-31.600000000
 20
20.137133406
 11
-33.344444445
 21
20.137133407
  0
LINE
  8
MASS
  6
CONTINUOUS
 62
     4
 10
-31.600000000
 20
20.537133406
 11
-33.344444444
 21
20.537133407
  0
LINE
  8
MASS
  6
CONTINUOUS
 62
     4
 10
-31.600000000
 20
19.937133406
 11
-31.788888889
 21
19.937133406
  0
LINE
  8
MASS
  6
CONTINUOUS
 62
     4
 10
-31.600000000
 20
20.737133406
 11
-31.788888889
 21
20.737133406
  0
LINE
  8
MASS
  6
CONTINUOUS
 62
     4
 10
68.000000000
 20
22.337133365
 11
68.000000000
 21
13.076696831
  0
LINE
  8
MASS
  6
CONTINUOUS
 62
     4
 10
68.000000000
 20
20.337133365
 11
64.500000000
 21
19.887133367
  0
LINE
  8
MASS
  6
CONTINUOUS
 62
     4
 10
64.500000000
 20
19.887133367
 11
64.500000000
 21
20.787133367
  0
LINE
  8
MASS
  6
CONTINUOUS
 62
     4
 10
64.500000000
 20
20.787133367
 11
68.000000000
 21
20.337133365
  0
LINE
  8
MASS
  6
CONTINUOUS
 62
     4
 10
64.600000000
 20
20.337133367
 11
67.900000000
 21
20.337133366
  0
LINE
  8
MASS
  6
CONTINUOUS
 62
     4
 10
64.600000000
 20
20.537133367
 11
66.344444445
 21
20.537133366
  0
LINE
  8
MASS
  6
CONTINUOUS
 62
     4
 10
64.600000000
 20
20.137133367
 11
66.344444444
 21
20.137133366
  0
LINE
  8
MASS
  6
CONTINUOUS
 62
     4
 10
64.600000000
 20
20.737133367
 11
64.788888889
 21
20.737133367
  0
LINE
  8
MASS
  6
CONTINUOUS
 62
     4
 10
64.600000000
 20
19.937133367
 11
64.788888889
 21
19.937133367
  0
LINE
  8
MASS
  6
CONTINUOUS
 62
     4
 10
-31.500000000
 20
20.337133406
 11
64.500000000
 21
20.337133367
  0
TEXT
  8
MASS
  6
CONTINUOUS
 62
     4
 10
14.288436349
 20
21.837133387
 40
3.500000000
  1
103
 50
359.999999977
 41
1.000
 51
0.000000000
  7
STANDARD
  0
LINE
  8
MASS
  6
CONTINUOUS
 62
     4
 10
-35.000000000
 20
-24.208553314
 11
-35.000000000
 21
-7.000000000
  0
LINE
  8
MASS
  6
CONTINUOUS
 62
     4
 10
-35.000000000
 20
-22.208553314
 11
-31.500000000
 21
-21.758553314
  0
LINE
  8
MASS
  6
CONTINUOUS
 62
     4
 10
-31.500000000
 20
-21.758553314
 11
-31.500000000
 21
-22.658553314
  0
LINE
  8
MASS
  6
CONTINUOUS
 62
     4
 10
-31.500000000
 20
-22.658553314
 11
-35.000000000
 21
-22.208553314
  0
LINE
  8
MASS
  6
CONTINUOUS
 62
     4
 10
-31.600000000
 20
-22.208553314
 11
-34.900000000
 21
-22.208553314
  0
LINE
  8
MASS
  6
CONTINUOUS
 62
     4
 10
-31.600000000
 20
-22.408553314
 11
-33.344444444
 21
-22.408553314
  0
LINE
  8
MASS
  6
CONTINUOUS
 62
     4
 10
-31.600000000
 20
-22.008553314
 11
-33.344444444
 21
-22.008553314
  0
LINE
  8
MASS
  6
CONTINUOUS
 62
     4
 10
-31.600000000
 20
-22.608553314
 11
-31.788888889
 21
-22.608553314
  0
LINE
  8
MASS
  6
CONTINUOUS
 62
     4
 10
-31.600000000
 20
-21.808553314
 11
-31.788888889
 21
-21.808553314
  0
LINE
  8
MASS
  6
CONTINUOUS
 62
     4
 10
0.000000000
 20
-24.208553314
 11
0.000000000
 21
-8.000000000
  0
LINE
  8
MASS
  6
CONTINUOUS
 62
     4
 10
0.000000000
 20
-22.208553314
 11
-3.500000000
 21
-22.658553314
  0
LINE
  8
MASS
  6
CONTINUOUS
 62
     4
 10
-3.500000000
 20
-22.658553314
 11
-3.500000000
 21
-21.758553314
  0
LINE
  8
MASS
  6
CONTINUOUS
 62
     4
 10
-3.500000000
 20
-21.758553314
 11
0.000000000
 21
-22.208553314
  0
LINE
  8
MASS
  6
CONTINUOUS
 62
     4
 10
-3.400000000
 20
-22.208553314
 11
-0.100000000
 21
-22.208553314
  0
LINE
  8
MASS
  6
CONTINUOUS
 62
     4
 10
-3.400000000
 20
-22.008553314
 11
-1.655555556
 21
-22.008553314
  0
LINE
  8
MASS
  6
CONTINUOUS
 62
     4
 10
-3.400000000
 20
-22.408553314
 11
-1.655555556
 21
-22.408553314
  0
LINE
  8
MASS
  6
CONTINUOUS
 62
     4
 10
-3.400000000
 20
-21.808553314
 11
-3.211111111
 21
-21.808553314
  0
LINE
  8
MASS
  6
CONTINUOUS
 62
     4
 10
-3.400000000
 20
-22.608553314
 11
-3.211111111
 21
-22.608553314
  0
LINE
  8
MASS
  6
CONTINUOUS
 62
     4
 10
-31.500000000
 20
-22.208553314
 11
-3.500000000
 21
-22.208553314
  0
TEXT
  8
MASS
  6
CONTINUOUS
 62
     4
 10
-15.437500391
 20
-20.708553314
 40
3.500000000
  1
35
 50
0.000000000
 41
1.000
 51
0.000000000
  7
STANDARD
  0
TEXT
  8
MASS
  6
CONTINUOUS
 62
     4
 10
-22.290312891
 20
-20.708553314
 40
3.500000000
  1
min.
 50
0.000000000
 41
1.000
 51
0.000000000
  7
STANDARD
  0
TEXT
  8
TEXT
  6
CONTINUOUS
 62
     4
 10
14.695177051
 20
-6.892059936
 40
3.500000000
  1
615.264
 50
0.000000000
 41
1.000
 51
0.000000000
  7
STANDARD
  0
LINE
  8
AUFNAHME
  6
CONTINUOUS
 62
     7
 10
46.000000000
 20
-12.500000000
 11
46.000000000
 21
0.000000000
  0
LINE
  8
EW
  6
CONTINUOUS
 10
78.573722907
 20
9.652128010
 11
78.611340734
 21
9.600519041
  0
LINE
  8
EW
  6
CONTINUOUS
 10
78.611340734
 20
9.600519041
 11
78.672434617
 21
9.535110592
  0
LINE
  8
EW
  6
CONTINUOUS
 10
78.672434617
 20
9.535110592
 11
78.755959223
 21
9.457021820
  0
LINE
  8
EW
  6
CONTINUOUS
 10
78.755959223
 20
9.457021820
 11
78.860485424
 21
9.367588846
  0
LINE
  8
EW
  6
CONTINUOUS
 10
78.860485424
 20
9.367588846
 11
78.984224746
 21
9.268341892
  0
LINE
  8
EW
  6
CONTINUOUS
 10
78.984224746
 20
9.268341892
 11
79.125059975
 21
9.160979102
  0
LINE
  8
EW
  6
CONTINUOUS
 10
79.125059975
 20
9.160979102
 11
79.280581382
 21
9.047337483
  0
LINE
  8
EW
  6
CONTINUOUS
 10
79.280581382
 20
9.047337483
 11
79.448127953
 21
8.929361473
  0
LINE
  8
EW
  6
CONTINUOUS
 10
79.448127953
 20
8.929361473
 11
79.624832918
 21
8.809069677
  0
LINE
  8
EW
  6
CONTINUOUS
 10
79.624832918
 20
8.809069677
 11
79.807672808
 21
8.688520318
  0
LINE
  8
EW
  6
CONTINUOUS
 10
79.807672808
 20
8.688520318
 11
79.993519180
 21
8.569776031
  0
LINE
  8
EW
  6
CONTINUOUS
 10
79.993519180
 20
8.569776031
 11
80.179192153
 21
8.454868564
  0
LINE
  8
EW
  6
CONTINUOUS
 10
80.179192153
 20
8.454868564
 11
80.361514809
 21
8.345764014
  0
LINE
  8
EW
  6
CONTINUOUS
 10
80.361514809
 20
8.345764014
 11
80.537367558
 21
8.244329190
  0
LINE
  8
EW
  6
CONTINUOUS
 10
80.537367558
 20
8.244329190
 11
80.703741511
 21
8.152299672
  0
LINE
  8
EW
  6
CONTINUOUS
 10
80.703741511
 20
8.152299672
 11
80.857789962
 21
8.071250109
  0
LINE
  8
EW
  6
CONTINUOUS
 10
80.857789962
 20
8.071250109
 11
80.996877101
 21
8.002567281
  0
LINE
  8
EW
  6
CONTINUOUS
 10
80.996877101
 20
8.002567281
 11
81.118623107
 21
7.947426372
  0
LINE
  8
EW
  6
CONTINUOUS
 10
81.118623107
 20
7.947426372
 11
81.220944874
 21
7.906770857
  0
LINE
  8
EW
  6
CONTINUOUS
 10
81.220944874
 20
7.906770857
 11
81.302091646
 21
7.881296364
  0
LINE
  8
EW
  6
CONTINUOUS
 10
81.302091646
 20
7.881296364
 11
81.360674980
 21
7.871438767
  0
LINE
  8
EW
  6
CONTINUOUS
 10
81.360674980
 20
7.871438767
 11
81.395692500
 21
7.877366734
  0
LINE
  8
EW
  6
CONTINUOUS
 10
81.395692500
 20
7.877366734
 11
81.406545045
 21
7.898978835
  0
LINE
  8
EW
  6
CONTINUOUS
 10
81.406545045
 20
7.898978835
 11
81.393046926
 21
7.935905281
  0
LINE
  8
EW
  6
CONTINUOUS
 10
81.393046926
 20
7.935905281
 11
81.355429099
 21
7.987514251
  0
LINE
  8
EW
  6
CONTINUOUS
 10
81.355429099
 20
7.987514251
 11
81.294335216
 21
8.052922700
  0
LINE
  8
EW
  6
CONTINUOUS
 10
81.294335216
 20
8.052922700
 11
81.210810610
 21
8.131011472
  0
LINE
  8
EW
  6
CONTINUOUS
 10
81.210810610
 20
8.131011472
 11
81.106284409
 21
8.220444446
  0
LINE
  8
EW
  6
CONTINUOUS
 10
81.106284409
 20
8.220444446
 11
80.982545087
 21
8.319691399
  0
LINE
  8
EW
  6
CONTINUOUS
 10
80.982545087
 20
8.319691399
 11
80.841709858
 21
8.427054190
  0
LINE
  8
EW
  6
CONTINUOUS
 10
80.841709858
 20
8.427054190
 11
80.686188451
 21
8.540695809
  0
LINE
  8
EW
  6
CONTINUOUS
 10
80.686188451
 20
8.540695809
 11
80.518641880
 21
8.658671818
  0
LINE
  8
EW
  6
CONTINUOUS
 10
80.518641880
 20
8.658671818
 11
80.341936915
 21
8.778963615
  0
LINE
  8
EW
  6
CONTINUOUS
 10
80.341936915
 20
8.778963615
 11
80.159097025
 21
8.899512973
  0
LINE
  8
EW
  6
CONTINUOUS
 10
80.159097025
 20
8.899512973
 11
79.973250652
 21
9.018257260
  0
LINE
  8
EW
  6
CONTINUOUS
 10
79.973250652
 20
9.018257260
 11
79.787577680
 21
9.133164728
  0
LINE
  8
EW
  6
CONTINUOUS
 10
79.787577680
 20
9.133164728
 11
79.605255024
 21
9.242269278
  0
LINE
  8
EW
  6
CONTINUOUS
 10
79.605255024
 20
9.242269278
 11
79.429402274
 21
9.343704101
  0
LINE
  8
EW
  6
CONTINUOUS
 10
79.429402274
 20
9.343704101
 11
79.263028322
 21
9.435733620
  0
LINE
  8
EW
  6
CONTINUOUS
 10
79.263028322
 20
9.435733620
 11
79.108979871
 21
9.516783183
  0
LINE
  8
EW
  6
CONTINUOUS
 10
79.108979871
 20
9.516783183
 11
78.969892732
 21
9.585466010
  0
LINE
  8
EW
  6
CONTINUOUS
 10
78.969892732
 20
9.585466010
 11
78.848146725
 21
9.640606919
  0
LINE
  8
EW
  6
CONTINUOUS
 10
78.848146725
 20
9.640606919
 11
78.745824959
 21
9.681262434
  0
LINE
  8
EW
  6
CONTINUOUS
 10
78.745824959
 20
9.681262434
 11
78.664678187
 21
9.706736928
  0
LINE
  8
EW
  6
CONTINUOUS
 10
78.664678187
 20
9.706736928
 11
78.606094853
 21
9.716594524
  0
LINE
  8
EW
  6
CONTINUOUS
 10
78.606094853
 20
9.716594524
 11
78.571077333
 21
9.710666557
  0
LINE
  8
EW
  6
CONTINUOUS
 10
78.571077333
 20
9.710666557
 11
78.560224788
 21
9.689054456
  0
LINE
  8
EW
  6
CONTINUOUS
 10
78.560224788
 20
9.689054456
 11
78.573722907
 21
9.652128010
  0
LINE
  8
EW
  6
CONTINUOUS
 10
74.877747645
 20
6.304760104
 11
71.241717249
 21
-8.278561283
  0
LINE
  8
EW
  6
CONTINUOUS
 10
71.241717249
 20
-8.278561283
 11
71.221983519
 21
-8.291561978
  0
LINE
  8
EW
  6
CONTINUOUS
 10
71.221983519
 20
-8.291561978
 11
62.684382692
 21
-8.291561978
  0
LINE
  8
EW
  6
CONTINUOUS
 10
66.323654525
 20
6.304760104
 11
74.877747645
 21
6.304760104
  0
LINE
  8
EW
  6
CONTINUOUS
 10
74.877747645
 20
6.304760104
 11
75.651587157
 21
6.647704200
  0
LINE
  8
EW
  6
CONTINUOUS
 10
75.651587157
 20
6.647704200
 11
76.460341777
 21
6.985573069
  0
LINE
  8
EW
  6
CONTINUOUS
 10
76.460341777
 20
6.985573069
 11
77.303394055
 21
7.318108763
  0
LINE
  8
EW
  6
CONTINUOUS
 10
77.303394055
 20
7.318108763
 11
78.180100358
 21
7.645057405
  0
LINE
  8
EW
  6
CONTINUOUS
 10
78.180100358
 20
7.645057405
 11
79.089791360
 21
7.966169385
  0
LINE
  8
EW
  6
CONTINUOUS
 10
79.089791360
 20
7.966169385
 11
80.031772553
 21
8.281199549
  0
LINE
  8
EW
  6
CONTINUOUS
 10
80.031772553
 20
8.281199549
 11
79.515229979
 21
8.658642935
  0
LINE
  8
EW
  6
CONTINUOUS
 10
79.515229979
 20
8.658642935
 11
79.016820206
 21
9.026157618
  0
LINE
  8
EW
  6
CONTINUOUS
 10
79.016820206
 20
9.026157618
 11
78.537114751
 21
9.383322176
  0
LINE
  8
EW
  6
CONTINUOUS
 10
78.537114751
 20
9.383322176
 11
78.076663684
 21
9.729727055
  0
LINE
  8
EW
  6
CONTINUOUS
 10
78.076663684
 20
9.729727055
 11
77.635994995
 21
10.064975040
  0
LINE
  8
EW
  6
CONTINUOUS
 10
77.635994995
 20
10.064975040
 11
77.215613991
 21
10.388681708
  0
LINE
  8
EW
  6
CONTINUOUS
 10
77.215613991
 20
10.388681708
 11
76.816002715
 21
10.700475870
  0
LINE
  8
EW
  6
CONTINUOUS
 10
76.816002715
 20
10.700475870
 11
76.437619393
 21
10.999999998
  0
LINE
  8
EW
  6
CONTINUOUS
 10
76.437619393
 20
10.999999998
 11
67.494309311
 21
10.999999998
  0
LINE
  8
EW
  6
CONTINUOUS
 10
80.031772553
 20
8.281199549
 11
84.906541289
 21
5.329055304
  0
LINE
  8
EW
  6
CONTINUOUS
 10
84.906541289
 20
5.329055304
 11
85.537328243
 21
6.229912436
  0
LINE
  8
EW
  6
CONTINUOUS
 10
85.537328243
 20
6.229912436
 11
81.701766077
 21
8.720755631
  0
LINE
  8
EW
  6
CONTINUOUS
 10
81.701766077
 20
8.720755631
 11
81.284614703
 21
8.996438074
  0
LINE
  8
EW
  6
CONTINUOUS
 10
81.284614703
 20
8.996438074
 11
80.872653637
 21
9.280112892
  0
LINE
  8
EW
  6
CONTINUOUS
 10
80.872653637
 20
9.280112892
 11
80.704522995
 21
9.400704735
  0
LINE
  8
EW
  6
CONTINUOUS
 10
80.704522995
 20
9.400704735
 11
80.483267459
 21
9.560576397
  0
LINE
  8
EW
  6
CONTINUOUS
 10
80.483267459
 20
9.560576397
 11
80.299115629
 21
9.685579539
  0
LINE
  8
EW
  6
CONTINUOUS
 10
80.299115629
 20
9.685579539
 11
80.109584646
 21
9.802420008
  0
LINE
  8
EW
  6
CONTINUOUS
 10
80.109584646
 20
9.802420008
 11
79.850516661
 21
9.953591318
  0
LINE
  8
EW
  6
CONTINUOUS
 10
79.850516661
 20
9.953591318
 11
79.591672525
 21
10.104470241
  0
LINE
  8
EW
  6
CONTINUOUS
 10
79.591672525
 20
10.104470241
 11
79.327376014
 21
10.264779931
  0
LINE
  8
EW
  6
CONTINUOUS
 10
79.327376014
 20
10.264779931
 11
79.155456024
 21
10.374348714
  0
LINE
  8
EW
  6
CONTINUOUS
 10
79.155456024
 20
10.374348714
 11
78.180559612
 21
11.007453846
  0
LINE
  8
EW
  6
CONTINUOUS
 10
80.516388699
 20
6.598860447
 11
85.010994148
 21
5.478229447
  0
LINE
  8
EW
  6
CONTINUOUS
 10
85.010994148
 20
5.478229447
 11
88.056670887
 21
4.718856948
  0
LINE
  8
EW
  6
CONTINUOUS
 10
88.056670887
 20
4.718856948
 11
86.484582532
 21
1.995920042
  0
ARC
  8
EW
  6
CONTINUOUS
 10
86.740413561
 20
-6.001088880
 40
8.001100001
 50
91.832315187
 51
125.276905890
  0
ARC
  8
EW
  6
CONTINUOUS
 10
86.740048073
 20
-6.000000002
 40
8.000000000
 50
125.279272814
 51
145.000000000
  0
LINE
  8
EW
  6
CONTINUOUS
 10
82.759160211
 20
12.730481269
 11
81.379771916
 21
12.802771946
  0
ARC
  8
EW
  6
CONTINUOUS
 10
81.296034386
 20
11.204964691
 40
1.600000000
 50
87.000000000
 51
179.935425223
  0
ARC
  8
EW
  6
CONTINUOUS
 10
81.296034386
 20
11.204964691
 40
1.600000000
 50
179.935425223
 51
-92.999999999
  0
LINE
  8
EW
  6
CONTINUOUS
 10
81.212296857
 20
9.607157435
 11
82.242345455
 21
9.553174876
  0
LINE
  8
EW
  6
CONTINUOUS
 10
82.242345455
 20
9.553174876
 11
82.591685151
 21
9.534866758
  0
LINE
  8
EW
  6
CONTINUOUS
 10
88.056670887
 20
4.718856948
 11
88.589959926
 21
5.642540659
  0
LINE
  8
EW
  6
CONTINUOUS
 10
88.589959926
 20
5.642540659
 11
88.605914007
 21
5.670173937
  0
LINE
  8
EW
  6
CONTINUOUS
 10
88.605914007
 20
5.670173937
 11
88.657255392
 21
5.759099825
  0
LINE
  8
EW
  6
CONTINUOUS
 10
88.657255392
 20
5.759099825
 11
88.777139780
 21
5.966745676
  0
LINE
  8
EW
  6
CONTINUOUS
 10
88.777139780
 20
5.966745676
 11
89.252423493
 21
15.035699163
  0
LINE
  8
EW
  6
CONTINUOUS
 10
89.252423493
 20
15.035699163
 11
89.233152569
 21
15.202344383
  0
LINE
  8
EW
  6
CONTINUOUS
 10
89.233152569
 20
15.202344383
 11
89.159580362
 21
15.353192490
  0
LINE
  8
EW
  6
CONTINUOUS
 10
89.159580362
 20
15.353192490
 11
89.041097851
 21
15.469590913
  0
LINE
  8
EW
  6
CONTINUOUS
 10
89.041097851
 20
15.469590913
 11
88.891627199
 21
15.539733092
  0
LINE
  8
EW
  6
CONTINUOUS
 10
88.891627199
 20
15.539733092
 11
88.757604040
 21
15.557982656
  0
LINE
  8
EW
  6
CONTINUOUS
 10
88.757604040
 20
15.557982656
 11
88.308444137
 21
15.557982656
  0
LINE
  8
EW
  6
CONTINUOUS
 10
88.308444137
 20
15.557982656
 11
87.532894109
 21
15.557982656
  0
LINE
  8
EW
  6
CONTINUOUS
 10
71.241717249
 20
-8.278561283
 11
76.483794032
 21
-6.699874402
  0
LINE
  8
EW
  6
CONTINUOUS
 10
76.483794032
 20
-6.699874402
 11
71.472028536
 21
-13.857417306
  0
LINE
  8
EW
  6
CONTINUOUS
 10
71.472028536
 20
-13.857417306
 11
71.221983519
 21
-13.955285739
  0
LINE
  8
EW
  6
CONTINUOUS
 10
71.221983519
 20
-13.955285739
 11
71.221983519
 21
-8.291561978
  0
LINE
  8
EW
  6
CONTINUOUS
 10
71.221983519
 20
-13.955285739
 11
66.116141816
 21
-13.955285739
  0
LINE
  8
EW
  6
CONTINUOUS
 10
66.116141816
 20
-13.955285739
 11
65.855665295
 21
-15.000000002
  0
LINE
  8
EW
  6
CONTINUOUS
 10
65.855665295
 20
-15.000000002
 11
59.671983519
 21
-15.000000002
  0
LINE
  8
EW
  6
CONTINUOUS
 10
59.671983519
 20
-15.000000002
 11
59.885873131
 21
-14.142135626
  0
LINE
  8
EW
  6
CONTINUOUS
 10
59.885873131
 20
-14.142135626
 11
61.225670849
 21
-14.142135626
  0
LINE
  8
EW
  6
CONTINUOUS
 10
61.225670849
 20
-14.142135626
 11
67.494309311
 21
10.999999998
  0
LINE
  8
EW
  6
CONTINUOUS
 10
89.090387323
 20
15.956402610
 11
80.525246761
 21
11.592245515
  0
ARC
  8
EW
  6
CONTINUOUS
 10
80.706842961
 20
11.235842905
 40
0.400000000
 50
117.000000000
 51
-123.000000006
  0
LINE
  8
EW
  6
CONTINUOUS
 10
80.488987347
 20
10.900374678
 11
88.551028538
 21
5.664823912
  0
ARC
  8
EW
  6
CONTINUOUS
 10
88.768884152
 20
6.000292139
 40
0.400000000
 50
-123.000000000
 51
-3.000000003
  0
LINE
  8
EW
  6
CONTINUOUS
 10
89.168335966
 20
5.979357756
 11
89.671435337
 21
15.579065618
  0
ARC
  8
EW
  6
CONTINUOUS
 10
89.271983523
 20
15.600000000
 40
0.400000000
 50
-3.000000000
 51
117.000000000
  0
LINE
  8
EW
  6
CONTINUOUS
 10
59.885873131
 20
-14.142135626
 11
66.154511593
 21
10.999999998
  0
LINE
  8
EW
  6
CONTINUOUS
 10
66.154511593
 20
10.999999998
 11
66.403839596
 21
11.999999998
  0
LINE
  8
EW
  6
CONTINUOUS
 10
76.483794032
 20
-6.699874402
 11
84.906541289
 21
5.329055304
  0
LINE
  8
EW
  6
CONTINUOUS
 10
76.437619393
 20
10.999999998
 11
78.164563053
 21
10.999999998
  0
LINE
  8
EW
  6
CONTINUOUS
 10
67.122293165
 20
14.881559876
 11
68.462090883
 21
14.881559876
  0
LINE
  8
EW
  6
CONTINUOUS
 10
68.462090883
 20
14.881559876
 11
67.494309311
 21
10.999999998
  0
LINE
  8
EW
  6
CONTINUOUS
 10
67.494309311
 20
10.999999998
 11
66.154511593
 21
10.999999998
  0
LINE
  8
EW
  6
CONTINUOUS
 10
86.207361494
 20
7.186819086
 11
85.537328243
 21
6.229912436
  0
LINE
  8
EW
  6
CONTINUOUS
 10
87.692740689
 20
15.244266080
 11
87.461006104
 21
15.699070811
  0
LINE
  8
EW
  6
CONTINUOUS
 10
87.461006104
 20
15.699070811
 11
67.326121534
 21
15.699070811
  0
LINE
  8
EW
  6
CONTINUOUS
 10
67.326121534
 20
15.699070811
 11
66.403839596
 21
11.999999998
  0
LINE
  8
EW
  6
CONTINUOUS
 10
79.185818273
 20
1.262233953
 11
81.000232490
 21
8.539451900
  0
LINE
  8
EW
  6
CONTINUOUS
 10
81.000232490
 20
8.539451900
 11
72.267570953
 21
10.716748960
  0
LINE
  8
EW
  6
CONTINUOUS
 10
72.267570953
 20
10.716748960
 11
70.937000527
 21
5.380122466
  0
LINE
  8
EW
  6
CONTINUOUS
 10
70.937000527
 20
5.380122466
 11
66.116141816
 21
-13.955285739
  0
LINE
  8
EW
  6
CONTINUOUS
 10
64.247234763
 20
-2.023304689
 11
81.395277891
 21
7.877122627
  0
LINE
  8
EW
  6
CONTINUOUS
 10
78.571491942
 20
9.710910664
 11
65.256167796
 21
2.023304685
  0
LINE
  8
EW
  6
CONTINUOUS
 10
60.724812450
 20
-10.777333800
 11
66.546586807
 21
-12.228865174
  0
LINE
  8
EW
  6
CONTINUOUS
 10
71.699523184
 20
8.438433796
 11
65.877748826
 21
9.889965170
  0
CIRCLE
  8
EW
  6
CONTINUOUS
 10
86.249236879
 20
10.945378348
 40
1.899973600
  0
LINE
  8
ZAPFEN
  6
STRICHPUNKT
 62
     4
 10
83.399276480
 20
10.945378348
 11
89.099197278
 21
10.945378348
  0
LINE
  8
ZAPFEN
  6
STRICHPUNKT
 62
     4
 10
86.249236879
 20
8.095417948
 11
86.249236879
 21
13.795338747
  0
LINE
  8
MASS
  6
CONTINUOUS
 62
     4
 10
0.000000000
 20
-24.194391251
 11
0.000000000
 21
-8.000000000
  0
LINE
  8
MASS
  6
CONTINUOUS
 62
     4
 10
0.000000000
 20
-22.194391251
 11
3.500000002
 21
-21.744391265
  0
LINE
  8
MASS
  6
CONTINUOUS
 62
     4
 10
3.500000002
 20
-21.744391265
 11
3.499999998
 21
-22.644391265
  0
LINE
  8
MASS
  6
CONTINUOUS
 62
     4
 10
3.499999998
 20
-22.644391265
 11
0.000000000
 21
-22.194391251
  0
LINE
  8
MASS
  6
CONTINUOUS
 62
     4
 10
3.400000000
 20
-22.194391265
 11
0.100000000
 21
-22.194391251
  0
LINE
  8
MASS
  6
CONTINUOUS
 62
     4
 10
3.399999999
 20
-22.394391265
 11
1.655555555
 21
-22.394391258
  0
LINE
  8
MASS
  6
CONTINUOUS
 62
     4
 10
3.400000001
 20
-21.994391265
 11
1.655555556
 21
-21.994391258
  0
LINE
  8
MASS
  6
CONTINUOUS
 62
     4
 10
3.399999998
 20
-22.594391265
 11
3.211111109
 21
-22.594391264
  0
LINE
  8
MASS
  6
CONTINUOUS
 62
     4
 10
3.400000002
 20
-21.794391265
 11
3.211111113
 21
-21.794391264
  0
LINE
  8
MASS
  6
CONTINUOUS
 62
     4
 10
89.671983523
 20
-24.194391632
 11
89.671983523
 21
15.600000000
  0
LINE
  8
MASS
  6
CONTINUOUS
 62
     4
 10
89.671983523
 20
-22.194391632
 11
86.171983521
 21
-22.644391617
  0
LINE
  8
MASS
  6
CONTINUOUS
 62
     4
 10
86.171983521
 20
-22.644391617
 11
86.171983525
 21
-21.744391617
  0
LINE
  8
MASS
  6
CONTINUOUS
 62
     4
 10
86.171983525
 20
-21.744391617
 11
89.671983523
 21
-22.194391632
  0
LINE
  8
MASS
  6
CONTINUOUS
 62
     4
 10
86.271983523
 20
-22.194391618
 11
89.571983523
 21
-22.194391632
  0
LINE
  8
MASS
  6
CONTINUOUS
 62
     4
 10
86.271983524
 20
-21.994391618
 11
88.016427968
 21
-21.994391625
  0
LINE
  8
MASS
  6
CONTINUOUS
 62
     4
 10
86.271983522
 20
-22.394391618
 11
88.016427967
 21
-22.394391625
  0
LINE
  8
MASS
  6
CONTINUOUS
 62
     4
 10
86.271983525
 20
-21.794391618
 11
86.460872414
 21
-21.794391618
  0
LINE
  8
MASS
  6
CONTINUOUS
 62
     4
 10
86.271983521
 20
-22.594391618
 11
86.460872410
 21
-22.594391618
  0
LINE
  8
MASS
  6
CONTINUOUS
 62
     4
 10
3.500000000
 20
-22.194391265
 11
86.171983523
 21
-22.194391617
  0
TEXT
  8
MASS
  6
CONTINUOUS
 62
     4
 10
40.081459516
 20
-20.694391421
 40
3.500000000
  1
57-90
 50
359.999999756
 41
1.000
 51
0.000000000
  7
STANDARD
  0
LINE
  8
MASS
  6
CONTINUOUS
 62
     4
 10
101.207048793
 20
16.000000522
 11
89.271983523
 21
16.000000000
  0
LINE
  8
MASS
  6
CONTINUOUS
 62
     4
 10
99.207048793
 20
16.000000434
 11
99.657048946
 21
12.500000454
  0
LINE
  8
MASS
  6
CONTINUOUS
 62
     4
 10
99.657048946
 20
12.500000454
 11
98.757048946
 21
12.500000415
  0
LINE
  8
MASS
  6
CONTINUOUS
 62
     4
 10
98.757048946
 20
12.500000415
 11
99.207048793
 21
16.000000434
  0
LINE
  8
MASS
  6
CONTINUOUS
 62
     4
 10
99.207048941
 20
12.600000434
 11
99.207048797
 21
15.900000434
  0
LINE
  8
MASS
  6
CONTINUOUS
 62
     4
 10
99.007048941
 20
12.600000426
 11
99.007048865
 21
14.344444870
  0
LINE
  8
MASS
  6
CONTINUOUS
 62
     4
 10
99.407048941
 20
12.600000443
 11
99.407048865
 21
14.344444887
  0
LINE
  8
MASS
  6
CONTINUOUS
 62
     4
 10
98.807048941
 20
12.600000417
 11
98.807048933
 21
12.788889306
  0
LINE
  8
MASS
  6
CONTINUOUS
 62
     4
 10
99.607048941
 20
12.600000452
 11
99.607048933
 21
12.788889341
  0
LINE
  8
MASS
  6
CONTINUOUS
 62
     4
 10
99.207049562
 20
-1.599999316
 11
99.207048946
 21
12.500000434
  0
TEXT
  8
MASS
  6
CONTINUOUS
 62
     4
 10
97.869971303
 20
-3.300484894
 40
3.500000000
  1
32
 50
90.000002504
 41
1.000
 51
0.000000000
  7
STANDARD
  0
CIRCLE
  8
MASS
  6
CONTINUOUS
 62
     4
 10
96.619971402
 20
-5.550484948
 40
1.250000000
  0
LINE
  8
MASS
  6
CONTINUOUS
 62
     4
 10
97.869971456
 20
-6.800484894
 11
95.369971347
 21
-4.300485003
  0
TEXT
  8
MASS
  6
CONTINUOUS
 62
     4
 10
97.869971109
 20
1.146077606
 40
3.500000000
  1
-40
 50
90.000002504
 41
1.000
 51
0.000000000
  7
STANDARD
  0
ENDSEC
  0
EOF
