999
NT  : 16.0 - 919
  0
SECTION
  2
HEADER
  9
$ACADVER
  1
AC1006
  9
$INSBASE
 10
0.000000000
 20
0.000000000
  9
$EXTMIN
 10
-49.115456118
 20
-69.151990733
  9
$EXTMAX
 10
166.798468569
 20
68.398673913
  9
$LIMMIN
 10
-49.115456118
 20
-69.151990733
  9
$LIMMAX
 10
166.798468569
 20
68.398673913
  9
$AUNITS
 70
     2
  9
$ANGBASE
 50
0.000
  9
$ANGDIR
 70
     0
  0
ENDSEC
  0
SECTION
  2
TABLES
  0
TABLE
  2
LTYPE
 70
     8
  0
LTYPE
  2
PUNKT
 70
    64
  3
..............
 72
    65
 73
     2
 40
1.500
 49
0.700
 49
-0.800
  0
LTYPE
  2
GESTRICHELT
 70
    64
  3
-- -- -- -- --
 72
    65
 73
     7
 40
2.800
 49
0.900
 49
0.000
 49
0.900
 49
0.000
 49
0.200
 49
0.000
 49
-0.800
  0
LTYPE
  2
STRICHPUNKT
 70
    64
  3
--.--.--.--.--
 72
    65
 73
     4
 40
8.800
 49
5.500
 49
-1.300
 49
0.700
 49
-1.300
  0
LTYPE
  2
STRICHPUNKT
 70
    64
  3
--.--.--.--.--
 72
    65
 73
     4
 40
8.800
 49
5.500
 49
-1.300
 49
0.700
 49
-1.300
  0
LTYPE
  2
STRICHPUNKT
 70
    64
  3
--.--.--.--.--
 72
    65
 73
     4
 40
8.800
 49
5.500
 49
-1.300
 49
0.700
 49
-1.300
  0
LTYPE
  2
PHANTOM
 70
    64
  3
--..--..--..--
 72
    65
 73
     6
 40
14.200
 49
7.000
 49
-1.800
 49
0.900
 49
-1.800
 49
0.900
 49
-1.800
  0
LTYPE
  2
PHANTOM
 70
    64
  3
--..--..--..--
 72
    65
 73
     6
 40
14.200
 49
7.000
 49
-1.800
 49
0.900
 49
-1.800
 49
0.900
 49
-1.800
  0
LTYPE
  2
PHANTOM
 70
    64
  3
--..--..--..--
 72
    65
 73
     6
 40
14.200
 49
7.000
 49
-1.800
 49
0.900
 49
-1.800
 49
0.900
 49
-1.800
  0
ENDTAB
  0
ENDSEC
  0
SECTION
  2
BLOCKS
  0
ENDSEC
  0
SECTION
  2
ENTITIES
  0
LINE
  8
UNSICHT
  6
GESTRICHELT
 62
     1
 10
130.295789978
 20
-5.470987609
 11
133.682696516
 21
8.113152559
  0
LINE
  8
UNSICHT
  6
GESTRICHELT
 62
     1
 10
133.682696516
 20
8.113152559
 11
134.045579360
 21
9.568596148
  0
LINE
  8
UNSICHT
  6
GESTRICHELT
 62
     1
 10
134.045579360
 20
9.568596148
 11
136.956466539
 21
8.842830462
  0
LINE
  8
AUFNAHME
  6
CONTINUOUS
 62
     7
 10
117.500000000
 20
6.304760106
 11
136.323654526
 21
6.304760106
  0
LINE
  8
AUFNAHME
  6
CONTINUOUS
 62
     7
 10
136.323654526
 20
6.304760106
 11
138.000000000
 21
13.028214572
  0
LINE
  8
EW
  6
CONTINUOUS
 10
138.000000000
 20
13.028214572
 11
138.000000000
 21
13.076696831
  0
LINE
  8
AUFNAHME
  6
CONTINUOUS
 62
     7
 10
138.000000000
 20
13.076696831
 11
136.414636859
 21
13.076696831
  0
LINE
  8
AUFNAHME
  6
CONTINUOUS
 62
     7
 10
136.414636859
 20
13.076696831
 11
136.644842195
 21
14.000000000
  0
LINE
  8
AUFNAHME
  6
CONTINUOUS
 62
     7
 10
136.644842195
 20
14.000000000
 11
117.500000000
 21
14.000000000
  0
LINE
  8
AUFNAHME
  6
CONTINUOUS
 62
     7
 10
117.500000000
 20
14.000000000
 11
117.500000000
 21
6.304760106
  0
LINE
  8
AUFNAHME
  6
CONTINUOUS
 62
     7
 10
117.500000000
 20
6.304760106
 11
116.988846345
 21
5.069415719
  0
LINE
  8
AUFNAHME
  6
CONTINUOUS
 62
     7
 10
116.988846345
 20
5.069415719
 11
116.563508395
 21
3.795425087
  0
LINE
  8
AUFNAHME
  6
CONTINUOUS
 62
     7
 10
116.563508395
 20
3.795425087
 11
116.149075268
 21
1.936260606
  0
LINE
  8
AUFNAHME
  6
CONTINUOUS
 62
     7
 10
116.149075268
 20
1.936260606
 11
116.000000000
 21
0.000000000
  0
LINE
  8
AUFNAHME
  6
CONTINUOUS
 62
     7
 10
116.000000000
 20
0.000000000
 11
116.029039448
 21
-0.852542957
  0
LINE
  8
AUFNAHME
  6
CONTINUOUS
 62
     7
 10
116.029039448
 20
-0.852542957
 11
116.197213441
 21
-2.229176794
  0
LINE
  8
AUFNAHME
  6
CONTINUOUS
 62
     7
 10
116.197213441
 20
-2.229176794
 11
116.507015938
 21
-3.596173468
  0
LINE
  8
AUFNAHME
  6
CONTINUOUS
 62
     7
 10
116.507015938
 20
-3.596173468
 11
116.950044299
 21
-4.965248397
  0
LINE
  8
AUFNAHME
  6
CONTINUOUS
 62
     7
 10
116.950044299
 20
-4.965248397
 11
117.500000000
 21
-6.304760106
  0
LINE
  8
AUFNAHME
  6
CONTINUOUS
 62
     7
 10
117.500000000
 20
-6.304760106
 11
133.179748034
 21
-6.304760106
  0
LINE
  8
AUFNAHME
  6
CONTINUOUS
 62
     7
 10
133.179748034
 20
-6.304760106
 11
136.323654526
 21
6.304760106
  0
LINE
  8
AUFNAHME
  6
CONTINUOUS
 62
     7
 10
117.500000000
 20
14.000000000
 11
116.000000000
 21
12.500000000
  0
LINE
  8
AUFNAHME
  6
CONTINUOUS
 62
     7
 10
116.000000000
 20
12.500000000
 11
109.928203230
 21
12.500000000
  0
LINE
  8
AUFNAHME
  6
CONTINUOUS
 62
     7
 10
109.928203230
 20
12.500000000
 11
103.000000000
 21
8.500000000
  0
LINE
  8
AUFNAHME
  6
CONTINUOUS
 62
     7
 10
103.000000000
 20
8.500000000
 11
103.000000000
 21
0.000000000
  0
LINE
  8
AUFNAHME
  6
CONTINUOUS
 62
     7
 10
103.000000000
 20
0.000000000
 11
103.000000000
 21
-8.500000000
  0
LINE
  8
AUFNAHME
  6
CONTINUOUS
 62
     7
 10
103.000000000
 20
-8.500000000
 11
109.928203230
 21
-12.500000000
  0
LINE
  8
AUFNAHME
  6
CONTINUOUS
 62
     7
 10
109.928203230
 20
-12.500000000
 11
116.000000000
 21
-12.500000000
  0
LINE
  8
AUFNAHME
  6
CONTINUOUS
 62
     7
 10
116.000000000
 20
-12.500000000
 11
117.500000000
 21
-14.000000000
  0
LINE
  8
AUFNAHME
  6
CONTINUOUS
 62
     7
 10
117.500000000
 20
-14.000000000
 11
129.663658115
 21
-14.000000000
  0
LINE
  8
AUFNAHME
  6
CONTINUOUS
 62
     7
 10
129.663658115
 20
-14.000000000
 11
129.893863450
 21
-13.076696831
  0
LINE
  8
AUFNAHME
  6
CONTINUOUS
 62
     7
 10
129.893863450
 20
-13.076696831
 11
131.491314576
 21
-13.076696831
  0
LINE
  8
AUFNAHME
  6
CONTINUOUS
 62
     7
 10
131.491314576
 20
-13.076696831
 11
133.179748034
 21
-6.304760106
  0
LINE
  8
AUFNAHME
  6
CONTINUOUS
 62
     7
 10
103.000000000
 20
8.000000000
 11
0.000000000
 21
8.000000000
  0
LINE
  8
AUFNAHME
  6
CONTINUOUS
 62
     4
 10
0.000000000
 20
8.000000000
 11
-34.000000000
 21
8.000000000
  0
LINE
  8
AUFNAHME
  6
CONTINUOUS
 62
     4
 10
-34.000000000
 20
8.000000000
 11
-35.000000000
 21
7.000000000
  0
LINE
  8
AUFNAHME
  6
CONTINUOUS
 62
     4
 10
-35.000000000
 20
7.000000000
 11
-35.000000000
 21
0.000000000
  0
LINE
  8
AUFNAHME
  6
CONTINUOUS
 62
     4
 10
-35.000000000
 20
0.000000000
 11
-35.000000000
 21
-7.000000000
  0
LINE
  8
AUFNAHME
  6
CONTINUOUS
 62
     4
 10
-35.000000000
 20
-7.000000000
 11
-34.000000000
 21
-8.000000000
  0
LINE
  8
AUFNAHME
  6
CONTINUOUS
 62
     4
 10
-34.000000000
 20
-8.000000000
 11
0.000000000
 21
-8.000000000
  0
LINE
  8
AUFNAHME
  6
CONTINUOUS
 62
     7
 10
0.000000000
 20
-8.000000000
 11
103.000000000
 21
-8.000000000
  0
LINE
  8
UNSICHT
  6
GESTRICHELT
 62
     1
 10
120.925655045
 20
7.583631165
 11
122.135264523
 21
12.435109797
  0
LINE
  8
UNSICHT
  6
GESTRICHELT
 62
     1
 10
122.135264523
 20
12.435109797
 11
120.129958537
 21
10.358554660
  0
LINE
  8
UNSICHT
  6
GESTRICHELT
 62
     1
 10
120.129958537
 20
10.358554660
 11
120.925655045
 21
7.583631165
  0
LINE
  8
UNSICHT
  6
GESTRICHELT
 62
     1
 10
118.409667331
 20
-2.507444388
 11
119.619276809
 21
2.344034243
  0
LINE
  8
UNSICHT
  6
GESTRICHELT
 62
     1
 10
119.619276809
 20
2.344034243
 11
117.613970823
 21
0.267479107
  0
LINE
  8
UNSICHT
  6
GESTRICHELT
 62
     1
 10
117.613970823
 20
0.267479107
 11
118.409667331
 21
-2.507444388
  0
LINE
  8
AUFNAHME
  6
CONTINUOUS
 62
     7
 10
117.500000000
 20
-14.000000000
 11
117.500000000
 21
-6.304760106
  0
LINE
  8
AUFNAHME
  6
CONTINUOUS
 62
     7
 10
116.000000000
 20
-12.500000000
 11
116.000000000
 21
0.000000000
  0
LINE
  8
AUFNAHME
  6
CONTINUOUS
 62
     7
 10
116.000000000
 20
0.000000000
 11
116.000000000
 21
12.500000000
  0
LINE
  8
AUFNAHME
  6
CONTINUOUS
 62
     7
 10
109.928203230
 20
-12.500000000
 11
109.928203230
 21
12.500000000
  0
LINE
  8
AUFNAHME
  6
CONTINUOUS
 62
     4
 10
-34.000000000
 20
-8.000000000
 11
-34.000000000
 21
0.000000000
  0
LINE
  8
AUFNAHME
  6
CONTINUOUS
 62
     4
 10
-34.000000000
 20
0.000000000
 11
-34.000000000
 21
8.000000000
  0
LINE
  8
UNSICHT
  6
GESTRICHELT
 62
     1
 10
136.414636859
 20
13.076696831
 11
129.893863450
 21
-13.076696831
  0
LINE
  8
UNSICHT
  6
GESTRICHELT
 62
     1
 10
125.361123280
 20
12.146119690
 11
123.909591907
 21
6.324345332
  0
LINE
  8
UNSICHT
  6
GESTRICHELT
 62
     1
 10
122.845135566
 20
2.055044137
 11
121.393604193
 21
-3.766730221
  0
LINE
  8
UNSICHT
  6
GESTRICHELT
 62
     1
 10
132.033852396
 20
1.500000000
 11
110.000000000
 21
1.500000000
  0
LINE
  8
UNSICHT
  6
GESTRICHELT
 62
     1
 10
110.000000000
 20
-1.500000000
 11
133.094213585
 21
-1.500000000
  0
LINE
  8
UNSICHT
  6
GESTRICHELT
 62
     1
 10
135.428315973
 20
9.120779827
 11
125.240162333
 21
11.660971827
  0
LINE
  8
UNSICHT
  6
GESTRICHELT
 62
     1
 10
125.240162333
 20
11.660971827
 11
122.135264523
 21
12.435109797
  0
LINE
  8
UNSICHT
  6
GESTRICHELT
 62
     1
 10
120.925655045
 20
7.583631165
 11
124.030649884
 21
6.809469003
  0
LINE
  8
UNSICHT
  6
GESTRICHELT
 62
     1
 10
124.030649884
 20
6.809469003
 11
134.218706495
 21
4.269301196
  0
LINE
  8
UNSICHT
  6
GESTRICHELT
 62
     1
 10
132.912328259
 20
-0.970295726
 11
122.724174618
 21
1.569896274
  0
LINE
  8
UNSICHT
  6
GESTRICHELT
 62
     1
 10
122.724174618
 20
1.569896274
 11
119.619276809
 21
2.344034243
  0
LINE
  8
UNSICHT
  6
GESTRICHELT
 62
     1
 10
118.409667331
 20
-2.507444388
 11
121.514662170
 21
-3.281606550
  0
LINE
  8
UNSICHT
  6
GESTRICHELT
 62
     1
 10
121.514662170
 20
-3.281606550
 11
131.702718781
 21
-5.821774358
  0
LINE
  8
UNSICHT
  6
GESTRICHELT
 62
     1
 10
131.702718781
 20
-5.821774358
 11
133.206677157
 21
-6.196753296
  0
LINE
  8
UNSICHT
  6
GESTRICHELT
 62
     1
 10
-35.000000000
 20
-2.000000000
 11
109.928203230
 21
-2.000000000
  0
LINE
  8
UNSICHT
  6
GESTRICHELT
 62
     1
 10
109.928203230
 20
2.000000000
 11
-35.000000000
 21
2.000000000
  0
LINE
  8
UNSICHT
  6
GESTRICHELT
 62
     1
 10
125.361123280
 20
12.146119690
 11
135.549276921
 21
9.605927690
  0
LINE
  8
UNSICHT
  6
GESTRICHELT
 62
     1
 10
123.909591907
 20
6.324345332
 11
134.097745547
 21
3.784153333
  0
LINE
  8
UNSICHT
  6
GESTRICHELT
 62
     1
 10
122.845135566
 20
2.055044137
 11
133.033289207
 21
-0.485147863
  0
LINE
  8
UNSICHT
  6
GESTRICHELT
 62
     1
 10
121.393604193
 20
-3.766730221
 11
131.581757833
 21
-6.306922221
  0
LINE
  8
ZAPFEN
  6
STRICHPUNKT
 62
     4
 10
-37.312061934
 20
0.000000000
 11
154.564971725
 21
0.000000000
  0
LINE
  8
ZAPFEN
  6
STRICHPUNKT
 62
     4
 10
119.251671266
 20
10.577536271
 11
135.513803750
 21
6.522931257
  0
LINE
  8
ZAPFEN
  6
STRICHPUNKT
 62
     4
 10
116.751996145
 20
0.482393532
 11
132.870503683
 21
-3.536401762
  0
LINE
  8
MASS
  6
CONTINUOUS
 62
     4
 10
-35.000000000
 20
-30.839870453
 11
-35.000000000
 21
-7.000000000
  0
LINE
  8
MASS
  6
CONTINUOUS
 62
     4
 10
-35.000000000
 20
-28.839870453
 11
-31.500000000
 21
-28.389870453
  0
LINE
  8
MASS
  6
CONTINUOUS
 62
     4
 10
-31.500000000
 20
-28.389870453
 11
-31.500000000
 21
-29.289870453
  0
LINE
  8
MASS
  6
CONTINUOUS
 62
     4
 10
-31.500000000
 20
-29.289870453
 11
-35.000000000
 21
-28.839870453
  0
LINE
  8
MASS
  6
CONTINUOUS
 62
     4
 10
-31.600000000
 20
-28.839870453
 11
-34.900000000
 21
-28.839870453
  0
LINE
  8
MASS
  6
CONTINUOUS
 62
     4
 10
-31.600000000
 20
-29.039870453
 11
-33.344444444
 21
-29.039870453
  0
LINE
  8
MASS
  6
CONTINUOUS
 62
     4
 10
-31.600000000
 20
-28.639870453
 11
-33.344444444
 21
-28.639870453
  0
LINE
  8
MASS
  6
CONTINUOUS
 62
     4
 10
-31.600000000
 20
-29.239870453
 11
-31.788888889
 21
-29.239870453
  0
LINE
  8
MASS
  6
CONTINUOUS
 62
     4
 10
-31.600000000
 20
-28.439870453
 11
-31.788888889
 21
-28.439870453
  0
LINE
  8
MASS
  6
CONTINUOUS
 62
     4
 10
0.000000000
 20
-30.839870453
 11
0.000000000
 21
-8.000000000
  0
LINE
  8
MASS
  6
CONTINUOUS
 62
     4
 10
0.000000000
 20
-28.839870453
 11
-3.500000000
 21
-29.289870453
  0
LINE
  8
MASS
  6
CONTINUOUS
 62
     4
 10
-3.500000000
 20
-29.289870453
 11
-3.500000000
 21
-28.389870453
  0
LINE
  8
MASS
  6
CONTINUOUS
 62
     4
 10
-3.500000000
 20
-28.389870453
 11
0.000000000
 21
-28.839870453
  0
LINE
  8
MASS
  6
CONTINUOUS
 62
     4
 10
-3.400000000
 20
-28.839870453
 11
-0.100000000
 21
-28.839870453
  0
LINE
  8
MASS
  6
CONTINUOUS
 62
     4
 10
-3.400000000
 20
-28.639870453
 11
-1.655555556
 21
-28.639870453
  0
LINE
  8
MASS
  6
CONTINUOUS
 62
     4
 10
-3.400000000
 20
-29.039870453
 11
-1.655555556
 21
-29.039870453
  0
LINE
  8
MASS
  6
CONTINUOUS
 62
     4
 10
-3.400000000
 20
-28.439870453
 11
-3.211111111
 21
-28.439870453
  0
LINE
  8
MASS
  6
CONTINUOUS
 62
     4
 10
-3.400000000
 20
-29.239870453
 11
-3.211111111
 21
-29.239870453
  0
LINE
  8
MASS
  6
CONTINUOUS
 62
     4
 10
-31.500000000
 20
-28.839870453
 11
-3.500000000
 21
-28.839870453
  0
TEXT
  8
MASS
  6
CONTINUOUS
 62
     4
 10
-15.437500391
 20
-27.339870453
 40
3.500000000
  1
35
 50
0.000000000
 41
1.000
 51
0.000000000
  7
STANDARD
  0
TEXT
  8
MASS
  6
CONTINUOUS
 62
     4
 10
-22.290312891
 20
-27.339870453
 40
3.500000000
  1
min.
 50
0.000000000
 41
1.000
 51
0.000000000
  7
STANDARD
  0
LINE
  8
MASS
  6
CONTINUOUS
 62
     4
 10
-43.998652935
 20
-8.000000000
 11
-34.000000000
 21
-8.000000000
  0
LINE
  8
MASS
  6
CONTINUOUS
 62
     4
 10
-41.998652935
 20
-8.000000000
 11
-42.448652935
 21
-4.500000000
  0
LINE
  8
MASS
  6
CONTINUOUS
 62
     4
 10
-42.448652935
 20
-4.500000000
 11
-41.548652935
 21
-4.500000000
  0
LINE
  8
MASS
  6
CONTINUOUS
 62
     4
 10
-41.548652935
 20
-4.500000000
 11
-41.998652935
 21
-8.000000000
  0
LINE
  8
MASS
  6
CONTINUOUS
 62
     4
 10
-41.998652935
 20
-4.600000000
 11
-41.998652935
 21
-7.900000000
  0
LINE
  8
MASS
  6
CONTINUOUS
 62
     4
 10
-41.798652935
 20
-4.600000000
 11
-41.798652935
 21
-6.344444444
  0
LINE
  8
MASS
  6
CONTINUOUS
 62
     4
 10
-42.198652935
 20
-4.600000000
 11
-42.198652935
 21
-6.344444444
  0
LINE
  8
MASS
  6
CONTINUOUS
 62
     4
 10
-41.598652935
 20
-4.600000000
 11
-41.598652935
 21
-4.788888889
  0
LINE
  8
MASS
  6
CONTINUOUS
 62
     4
 10
-42.398652935
 20
-4.600000000
 11
-42.398652935
 21
-4.788888889
  0
LINE
  8
MASS
  6
CONTINUOUS
 62
     4
 10
-43.998652935
 20
8.000000000
 11
-34.000000000
 21
8.000000000
  0
LINE
  8
MASS
  6
CONTINUOUS
 62
     4
 10
-41.998652935
 20
8.000000000
 11
-41.548652935
 21
4.500000000
  0
LINE
  8
MASS
  6
CONTINUOUS
 62
     4
 10
-41.548652935
 20
4.500000000
 11
-42.448652935
 21
4.500000000
  0
LINE
  8
MASS
  6
CONTINUOUS
 62
     4
 10
-42.448652935
 20
4.500000000
 11
-41.998652935
 21
8.000000000
  0
LINE
  8
MASS
  6
CONTINUOUS
 62
     4
 10
-41.998652935
 20
4.600000000
 11
-41.998652935
 21
7.900000000
  0
LINE
  8
MASS
  6
CONTINUOUS
 62
     4
 10
-42.198652935
 20
4.600000000
 11
-42.198652935
 21
6.344444444
  0
LINE
  8
MASS
  6
CONTINUOUS
 62
     4
 10
-41.798652935
 20
4.600000000
 11
-41.798652935
 21
6.344444444
  0
LINE
  8
MASS
  6
CONTINUOUS
 62
     4
 10
-42.398652935
 20
4.600000000
 11
-42.398652935
 21
4.788888889
  0
LINE
  8
MASS
  6
CONTINUOUS
 62
     4
 10
-41.598652935
 20
4.600000000
 11
-41.598652935
 21
4.788888889
  0
LINE
  8
MASS
  6
CONTINUOUS
 62
     4
 10
-41.998652935
 20
-4.500000000
 11
-41.998652935
 21
4.500000000
  0
TEXT
  8
MASS
  6
CONTINUOUS
 62
     4
 10
-43.498652935
 20
0.522812321
 40
3.500000000
  1
16
 50
90.000000000
 41
1.000
 51
0.000000000
  7
STANDARD
  0
CIRCLE
  8
MASS
  6
CONTINUOUS
 62
     4
 10
-44.748652935
 20
-1.727187679
 40
1.250000000
  0
LINE
  8
MASS
  6
CONTINUOUS
 62
     4
 10
-43.498652935
 20
-2.977187679
 11
-45.998652935
 21
-0.477187679
  0
LINE
  8
MASS
  6
CONTINUOUS
 62
     4
 10
-35.000000000
 20
25.086553574
 11
-35.000000000
 21
7.000000000
  0
LINE
  8
MASS
  6
CONTINUOUS
 62
     4
 10
-35.000000000
 20
23.086553574
 11
-31.500000000
 21
23.536553576
  0
LINE
  8
MASS
  6
CONTINUOUS
 62
     4
 10
-31.500000000
 20
23.536553576
 11
-31.500000000
 21
22.636553576
  0
LINE
  8
MASS
  6
CONTINUOUS
 62
     4
 10
-31.500000000
 20
22.636553576
 11
-35.000000000
 21
23.086553574
  0
LINE
  8
MASS
  6
CONTINUOUS
 62
     4
 10
-31.600000000
 20
23.086553576
 11
-34.900000000
 21
23.086553574
  0
LINE
  8
MASS
  6
CONTINUOUS
 62
     4
 10
-31.600000000
 20
22.886553576
 11
-33.344444444
 21
22.886553575
  0
LINE
  8
MASS
  6
CONTINUOUS
 62
     4
 10
-31.600000000
 20
23.286553576
 11
-33.344444445
 21
23.286553575
  0
LINE
  8
MASS
  6
CONTINUOUS
 62
     4
 10
-31.600000000
 20
22.686553576
 11
-31.788888889
 21
22.686553576
  0
LINE
  8
MASS
  6
CONTINUOUS
 62
     4
 10
-31.600000000
 20
23.486553576
 11
-31.788888889
 21
23.486553576
  0
LINE
  8
MASS
  6
CONTINUOUS
 62
     4
 10
138.000000000
 20
25.086553691
 11
138.000000000
 21
13.028214572
  0
LINE
  8
MASS
  6
CONTINUOUS
 62
     4
 10
138.000000000
 20
23.086553691
 11
134.500000000
 21
22.636553688
  0
LINE
  8
MASS
  6
CONTINUOUS
 62
     4
 10
134.500000000
 20
22.636553688
 11
134.500000000
 21
23.536553688
  0
LINE
  8
MASS
  6
CONTINUOUS
 62
     4
 10
134.500000000
 20
23.536553688
 11
138.000000000
 21
23.086553691
  0
LINE
  8
MASS
  6
CONTINUOUS
 62
     4
 10
134.600000000
 20
23.086553689
 11
137.900000000
 21
23.086553691
  0
LINE
  8
MASS
  6
CONTINUOUS
 62
     4
 10
134.600000000
 20
23.286553689
 11
136.344444444
 21
23.286553690
  0
LINE
  8
MASS
  6
CONTINUOUS
 62
     4
 10
134.600000000
 20
22.886553689
 11
136.344444445
 21
22.886553690
  0
LINE
  8
MASS
  6
CONTINUOUS
 62
     4
 10
134.600000000
 20
23.486553689
 11
134.788888889
 21
23.486553689
  0
LINE
  8
MASS
  6
CONTINUOUS
 62
     4
 10
134.600000000
 20
22.686553689
 11
134.788888889
 21
22.686553689
  0
LINE
  8
MASS
  6
CONTINUOUS
 62
     4
 10
-31.500000000
 20
23.086553576
 11
134.500000000
 21
23.086553688
  0
TEXT
  8
MASS
  6
CONTINUOUS
 62
     4
 10
49.288435566
 20
24.586553631
 40
3.500000000
  1
173
 50
0.000000039
 41
1.000
 51
0.000000000
  7
STANDARD
  0
LINE
  8
MASS
  6
CONTINUOUS
 62
     4
 10
0.000000000
 20
-30.839870453
 11
0.000000000
 21
-8.000000000
  0
LINE
  8
MASS
  6
CONTINUOUS
 62
     4
 10
0.000000000
 20
-28.839870453
 11
3.499999996
 21
-28.389870419
  0
LINE
  8
MASS
  6
CONTINUOUS
 62
     4
 10
3.499999996
 20
-28.389870419
 11
3.500000004
 21
-29.289870419
  0
LINE
  8
MASS
  6
CONTINUOUS
 62
     4
 10
3.500000004
 20
-29.289870419
 11
0.000000000
 21
-28.839870453
  0
LINE
  8
MASS
  6
CONTINUOUS
 62
     4
 10
3.400000000
 20
-28.839870420
 11
0.100000000
 21
-28.839870452
  0
LINE
  8
MASS
  6
CONTINUOUS
 62
     4
 10
3.400000002
 20
-29.039870420
 11
1.655555558
 21
-29.039870437
  0
LINE
  8
MASS
  6
CONTINUOUS
 62
     4
 10
3.399999998
 20
-28.639870420
 11
1.655555554
 21
-28.639870437
  0
LINE
  8
MASS
  6
CONTINUOUS
 62
     4
 10
3.400000004
 20
-29.239870420
 11
3.211111115
 21
-29.239870421
  0
LINE
  8
MASS
  6
CONTINUOUS
 62
     4
 10
3.399999996
 20
-28.439870420
 11
3.211111107
 21
-28.439870421
  0
LINE
  8
MASS
  6
CONTINUOUS
 62
     4
 10
155.674671512
 20
-30.839868927
 11
155.674671512
 21
19.600000000
  0
LINE
  8
MASS
  6
CONTINUOUS
 62
     4
 10
155.674671512
 20
-28.839868927
 11
152.174671516
 21
-29.289868961
  0
LINE
  8
MASS
  6
CONTINUOUS
 62
     4
 10
152.174671516
 20
-29.289868961
 11
152.174671507
 21
-28.389868961
  0
LINE
  8
MASS
  6
CONTINUOUS
 62
     4
 10
152.174671507
 20
-28.389868961
 11
155.674671512
 21
-28.839868927
  0
LINE
  8
MASS
  6
CONTINUOUS
 62
     4
 10
152.274671512
 20
-28.839868960
 11
155.574671512
 21
-28.839868928
  0
LINE
  8
MASS
  6
CONTINUOUS
 62
     4
 10
152.274671510
 20
-28.639868960
 11
154.019115954
 21
-28.639868943
  0
LINE
  8
MASS
  6
CONTINUOUS
 62
     4
 10
152.274671514
 20
-29.039868960
 11
154.019115958
 21
-29.039868943
  0
LINE
  8
MASS
  6
CONTINUOUS
 62
     4
 10
152.274671508
 20
-28.439868960
 11
152.463560397
 21
-28.439868958
  0
LINE
  8
MASS
  6
CONTINUOUS
 62
     4
 10
152.274671516
 20
-29.239868960
 11
152.463560405
 21
-29.239868958
  0
LINE
  8
MASS
  6
CONTINUOUS
 62
     4
 10
3.500000000
 20
-28.839870419
 11
152.174671512
 21
-28.839868961
  0
TEXT
  8
MASS
  6
CONTINUOUS
 62
     4
 10
72.617959001
 20
-27.339869741
 40
3.500000000
  1
55-155
 50
0.000000562
 41
1.000
 51
0.000000000
  7
STANDARD
  0
LINE
  8
EW
  6
CONTINUOUS
 10
146.576910176
 20
11.790163008
 11
146.349862105
 21
11.661890332
  0
LINE
  8
EW
  6
CONTINUOUS
 10
146.349862105
 20
11.661890332
 11
146.146454281
 21
11.518655013
  0
LINE
  8
EW
  6
CONTINUOUS
 10
146.146454281
 20
11.518655013
 11
145.977707908
 21
11.364376984
  0
LINE
  8
EW
  6
CONTINUOUS
 10
145.977707908
 20
11.364376984
 11
145.846621835
 21
11.194060353
  0
LINE
  8
EW
  6
CONTINUOUS
 10
145.846621835
 20
11.194060353
 11
145.785454849
 21
11.067786071
  0
LINE
  8
EW
  6
CONTINUOUS
 10
145.785454849
 20
11.067786071
 11
145.755619021
 21
10.935104338
  0
LINE
  8
EW
  6
CONTINUOUS
 10
145.755619021
 20
10.935104338
 11
145.786621258
 21
10.736961069
  0
LINE
  8
EW
  6
CONTINUOUS
 10
145.786621258
 20
10.736961069
 11
145.843284147
 21
10.640815791
  0
LINE
  8
EW
  6
CONTINUOUS
 10
145.843284147
 20
10.640815791
 11
145.927849687
 21
10.552680813
  0
LINE
  8
EW
  6
CONTINUOUS
 10
145.927849687
 20
10.552680813
 11
146.126122193
 21
10.431555473
  0
LINE
  8
EW
  6
CONTINUOUS
 10
146.126122193
 20
10.431555473
 11
146.291845141
 21
10.370955043
  0
LINE
  8
EW
  6
CONTINUOUS
 10
146.291845141
 20
10.370955043
 11
146.470158988
 21
10.328349679
  0
LINE
  8
EW
  6
CONTINUOUS
 10
146.470158988
 20
10.328349679
 11
146.776866711
 21
10.290650856
  0
LINE
  8
EW
  6
CONTINUOUS
 10
146.776866711
 20
10.290650856
 11
147.089230026
 21
10.284320014
  0
LINE
  8
EW
  6
CONTINUOUS
 10
147.089230026
 20
10.284320014
 11
147.682252574
 21
10.331987357
  0
LINE
  8
EW
  6
CONTINUOUS
 10
147.682252574
 20
10.331987357
 11
148.260449927
 21
10.435806050
  0
LINE
  8
EW
  6
CONTINUOUS
 10
148.260449927
 20
10.435806050
 11
148.428748056
 21
10.342541227
  0
LINE
  8
EW
  6
CONTINUOUS
 10
148.428748056
 20
10.342541227
 11
148.584430047
 21
10.260990759
  0
LINE
  8
EW
  6
CONTINUOUS
 10
148.584430047
 20
10.260990759
 11
148.724433984
 21
10.192758560
  0
LINE
  8
EW
  6
CONTINUOUS
 10
148.724433984
 20
10.192758560
 11
148.846006304
 21
10.139186605
  0
LINE
  8
EW
  6
CONTINUOUS
 10
148.846006304
 20
10.139186605
 11
148.946755954
 21
10.101328533
  0
LINE
  8
EW
  6
CONTINUOUS
 10
148.946755954
 20
10.101328533
 11
149.024701414
 21
10.079928927
  0
LINE
  8
EW
  6
CONTINUOUS
 10
149.024701414
 20
10.079928927
 11
149.078309671
 21
10.075408671
  0
LINE
  8
EW
  6
CONTINUOUS
 10
149.078309671
 20
10.075408671
 11
149.106526372
 21
10.087856667
  0
LINE
  8
EW
  6
CONTINUOUS
 10
149.106526372
 20
10.087856667
 11
149.108796558
 21
10.117028091
  0
LINE
  8
EW
  6
CONTINUOUS
 10
149.108796558
 20
10.117028091
 11
149.085075578
 21
10.162349206
  0
LINE
  8
EW
  6
CONTINUOUS
 10
149.085075578
 20
10.162349206
 11
149.035829972
 21
10.222928649
  0
LINE
  8
EW
  6
CONTINUOUS
 10
149.035829972
 20
10.222928649
 11
148.962028290
 21
10.297574957
  0
LINE
  8
EW
  6
CONTINUOUS
 10
148.962028290
 20
10.297574957
 11
148.865122045
 21
10.384820005
  0
LINE
  8
EW
  6
CONTINUOUS
 10
148.865122045
 20
10.384820005
 11
148.747017166
 21
10.482947880
  0
LINE
  8
EW
  6
CONTINUOUS
 10
148.747017166
 20
10.482947880
 11
148.610036510
 21
10.590028626
  0
LINE
  8
EW
  6
CONTINUOUS
 10
148.610036510
 20
10.590028626
 11
148.456874178
 21
10.703956206
  0
LINE
  8
EW
  6
CONTINUOUS
 10
148.456874178
 20
10.703956206
 11
148.290542531
 21
10.822489919
  0
LINE
  8
EW
  6
CONTINUOUS
 10
148.290542531
 20
10.822489919
 11
148.114312938
 21
10.943298475
  0
LINE
  8
EW
  6
CONTINUOUS
 10
148.114312938
 20
10.943298475
 11
147.931651438
 21
11.064005839
  0
LINE
  8
EW
  6
CONTINUOUS
 10
147.931651438
 20
11.064005839
 11
147.746150575
 21
11.182237970
  0
LINE
  8
EW
  6
CONTINUOUS
 10
147.746150575
 20
11.182237970
 11
147.561458732
 21
11.295669507
  0
LINE
  8
EW
  6
CONTINUOUS
 10
147.561458732
 20
11.295669507
 11
147.381208385
 21
11.402069505
  0
LINE
  8
EW
  6
CONTINUOUS
 10
147.381208385
 20
11.402069505
 11
147.208944651
 21
11.499345318
  0
LINE
  8
EW
  6
CONTINUOUS
 10
147.208944651
 20
11.499345318
 11
147.048055572
 21
11.585583747
  0
LINE
  8
EW
  6
CONTINUOUS
 10
147.048055572
 20
11.585583747
 11
146.901705475
 21
11.659088676
  0
LINE
  8
EW
  6
CONTINUOUS
 10
146.901705475
 20
11.659088676
 11
146.772772738
 21
11.718414429
  0
LINE
  8
EW
  6
CONTINUOUS
 10
146.772772738
 20
11.718414429
 11
146.663793177
 21
11.762394200
  0
LINE
  8
EW
  6
CONTINUOUS
 10
146.663793177
 20
11.762394200
 11
146.576910176
 21
11.790163008
  0
LINE
  8
EW
  6
CONTINUOUS
 10
146.576910176
 20
11.790163008
 11
146.253183881
 21
12.066208763
  0
LINE
  8
EW
  6
CONTINUOUS
 10
146.253183881
 20
12.066208763
 11
145.958111817
 21
12.325122098
  0
LINE
  8
EW
  6
CONTINUOUS
 10
145.958111817
 20
12.325122098
 11
145.692112950
 21
12.566535390
  0
LINE
  8
EW
  6
CONTINUOUS
 10
145.692112950
 20
12.566535390
 11
145.455564962
 21
12.790105864
  0
LINE
  8
EW
  6
CONTINUOUS
 10
145.455564962
 20
12.790105864
 11
145.248803719
 21
12.995516080
  0
LINE
  8
EW
  6
CONTINUOUS
 10
145.248803719
 20
12.995516080
 11
145.072122796
 21
13.182474382
  0
LINE
  8
EW
  6
CONTINUOUS
 10
145.072122796
 20
13.182474382
 11
144.925773055
 21
13.350715315
  0
LINE
  8
EW
  6
CONTINUOUS
 10
144.925773055
 20
13.350715315
 11
144.809962295
 21
13.499999998
  0
LINE
  8
EW
  6
CONTINUOUS
 10
144.809962295
 20
13.499999998
 11
136.777831600
 21
13.499999998
  0
LINE
  8
EW
  6
CONTINUOUS
 10
136.777831600
 20
13.499999998
 11
136.672290266
 21
13.076696829
  0
LINE
  8
EW
  6
CONTINUOUS
 10
136.672290266
 20
13.076696829
 11
138.012087984
 21
13.076696829
  0
LINE
  8
EW
  6
CONTINUOUS
 10
138.012087984
 20
13.076696829
 11
136.323654525
 21
6.304760104
  0
LINE
  8
EW
  6
CONTINUOUS
 10
136.323654525
 20
6.304760104
 11
143.850724661
 21
6.304760104
  0
LINE
  8
EW
  6
CONTINUOUS
 10
143.850724661
 20
6.304760104
 11
144.683659497
 21
6.673070453
  0
LINE
  8
EW
  6
CONTINUOUS
 10
144.683659497
 20
6.673070453
 11
145.556856805
 21
7.035498354
  0
LINE
  8
EW
  6
CONTINUOUS
 10
145.556856805
 20
7.035498354
 11
146.469546843
 21
7.391724319
  0
LINE
  8
EW
  6
CONTINUOUS
 10
146.469546843
 20
7.391724319
 11
147.420925057
 21
7.741434327
  0
LINE
  8
EW
  6
CONTINUOUS
 10
147.420925057
 20
7.741434327
 11
148.410152786
 21
8.084320102
  0
LINE
  8
EW
  6
CONTINUOUS
 10
148.410152786
 20
8.084320102
 11
149.436358008
 21
8.420079383
  0
LINE
  8
EW
  6
CONTINUOUS
 10
149.436358008
 20
8.420079383
 11
150.498636100
 21
8.748416192
  0
LINE
  8
EW
  6
CONTINUOUS
 10
150.498636100
 20
8.748416192
 11
149.895303078
 21
9.194798269
  0
LINE
  8
EW
  6
CONTINUOUS
 10
149.895303078
 20
9.194798269
 11
149.320508316
 21
9.625314408
  0
LINE
  8
EW
  6
CONTINUOUS
 10
149.320508316
 20
9.625314408
 11
148.775243641
 21
10.039221739
  0
LINE
  8
EW
  6
CONTINUOUS
 10
148.775243641
 20
10.039221739
 11
148.260449927
 21
10.435806050
  0
LINE
  8
EW
  6
CONTINUOUS
 10
154.708506856
 20
9.605294962
 11
155.008864015
 21
9.410240742
  0
LINE
  8
EW
  6
CONTINUOUS
 10
155.008864015
 20
9.410240742
 11
154.961440529
 21
8.505346713
  0
LINE
  8
EW
  6
CONTINUOUS
 10
154.961440529
 20
8.505346713
 11
154.952934427
 21
8.309260766
  0
LINE
  8
EW
  6
CONTINUOUS
 10
154.952934427
 20
8.309260766
 11
154.948097393
 21
8.116597818
  0
LINE
  8
EW
  6
CONTINUOUS
 10
154.948097393
 20
8.116597818
 11
154.947068717
 21
7.932905947
  0
LINE
  8
EW
  6
CONTINUOUS
 10
154.947068717
 20
7.932905947
 11
154.949878022
 21
7.763474892
  0
LINE
  8
EW
  6
CONTINUOUS
 10
154.949878022
 20
7.763474892
 11
154.956444410
 21
7.613183725
  0
LINE
  8
EW
  6
CONTINUOUS
 10
154.956444410
 20
7.613183725
 11
154.966578788
 21
7.486360352
  0
LINE
  8
EW
  6
CONTINUOUS
 10
154.966578788
 20
7.486360352
 11
154.896106819
 21
7.364299322
  0
LINE
  8
EW
  6
CONTINUOUS
 10
154.896106819
 20
7.364299322
 11
154.348985328
 21
6.416657102
  0
LINE
  8
EW
  6
CONTINUOUS
 10
154.348985328
 20
6.416657102
 11
150.498636100
 21
8.748416192
  0
LINE
  8
EW
  6
CONTINUOUS
 10
148.761848199
 20
16.730481269
 11
147.382459905
 21
16.802771947
  0
ARC
  8
EW
  6
CONTINUOUS
 10
147.298722375
 20
15.204964691
 40
1.600000000
 50
87.000000000
 51
-148.398286400
  0
ARC
  8
EW
  6
CONTINUOUS
 10
147.298722375
 20
15.204964691
 40
1.600000000
 50
-148.398286400
 51
-97.601713600
  0
ARC
  8
EW
  6
CONTINUOUS
 10
147.298722375
 20
15.204964691
 40
1.600000000
 50
-97.601713600
 51
-93.000000000
  0
LINE
  8
EW
  6
CONTINUOUS
 10
147.214984845
 20
13.607157435
 11
148.594373139
 21
13.534866758
  0
LINE
  8
EW
  6
CONTINUOUS
 10
154.765357834
 20
9.690642878
 11
155.255110319
 21
19.035676974
  0
LINE
  8
EW
  6
CONTINUOUS
 10
155.255110319
 20
19.035676974
 11
155.235852988
 21
19.201709606
  0
LINE
  8
EW
  6
CONTINUOUS
 10
155.235852988
 20
19.201709606
 11
155.162567305
 21
19.351992133
  0
LINE
  8
EW
  6
CONTINUOUS
 10
155.162567305
 20
19.351992133
 11
155.044285422
 21
19.468522222
  0
LINE
  8
EW
  6
CONTINUOUS
 10
155.044285422
 20
19.468522222
 11
154.894443405
 21
19.539285103
  0
LINE
  8
EW
  6
CONTINUOUS
 10
154.894443405
 20
19.539285103
 11
154.758546026
 21
19.557982656
  0
LINE
  8
EW
  6
CONTINUOUS
 10
154.758546026
 20
19.557982656
 11
154.311132126
 21
19.557982656
  0
LINE
  8
EW
  6
CONTINUOUS
 10
154.311132126
 20
19.557982656
 11
153.535582098
 21
19.557982656
  0
LINE
  8
EW
  6
CONTINUOUS
 10
154.348985328
 20
6.416657102
 11
144.276616070
 21
-11.029198206
  0
LINE
  8
EW
  6
CONTINUOUS
 10
144.276616070
 20
-11.029198206
 11
140.933680576
 21
-16.819332328
  0
LINE
  8
EW
  6
CONTINUOUS
 10
140.933680576
 20
-16.819332328
 11
138.674671507
 21
-18.186533481
  0
LINE
  8
EW
  6
CONTINUOUS
 10
138.674671507
 20
-18.186533481
 11
138.674671507
 21
-14.309088023
  0
LINE
  8
EW
  6
CONTINUOUS
 10
138.674671507
 20
-14.309088023
 11
138.719732568
 21
-14.274525152
  0
LINE
  8
EW
  6
CONTINUOUS
 10
138.719732568
 20
-14.274525152
 11
141.505647057
 21
-12.666035092
  0
LINE
  8
EW
  6
CONTINUOUS
 10
141.505647057
 20
-12.666035092
 11
144.276616070
 21
-11.029198206
  0
LINE
  8
EW
  6
CONTINUOUS
 10
154.896106819
 20
7.364299322
 11
145.436478401
 21
13.507453846
  0
LINE
  8
EW
  6
CONTINUOUS
 10
145.436478401
 20
13.507453846
 11
145.433718686
 21
13.503315110
  0
LINE
  8
EW
  6
CONTINUOUS
 10
145.433718686
 20
13.503315110
 11
145.428383551
 21
13.500829120
  0
LINE
  8
EW
  6
CONTINUOUS
 10
145.428383551
 20
13.500829120
 11
145.420481842
 21
13.499999998
  0
LINE
  8
EW
  6
CONTINUOUS
 10
145.420481842
 20
13.499999998
 11
144.809962295
 21
13.499999998
  0
LINE
  8
EW
  6
CONTINUOUS
 10
155.093075312
 20
19.956402610
 11
146.527934750
 21
15.592245515
  0
ARC
  8
EW
  6
CONTINUOUS
 10
146.709530950
 20
15.235842905
 40
0.400000000
 50
117.000000000
 51
-122.999999998
  0
LINE
  8
EW
  6
CONTINUOUS
 10
146.491675336
 20
14.900374678
 11
154.553716527
 21
9.664823912
  0
ARC
  8
EW
  6
CONTINUOUS
 10
154.771572141
 20
10.000292139
 40
0.400000000
 50
-123.000000000
 51
-3.000000000
  0
LINE
  8
EW
  6
CONTINUOUS
 10
155.171023955
 20
9.979357756
 11
155.674123326
 21
19.579065618
  0
ARC
  8
EW
  6
CONTINUOUS
 10
155.274671512
 20
19.600000000
 40
0.400000000
 50
-3.000000000
 51
117.000000000
  0
LINE
  8
EW
  6
CONTINUOUS
 10
138.674671507
 20
-18.186533481
 11
135.061173267
 21
-18.186533481
  0
LINE
  8
EW
  6
CONTINUOUS
 10
135.061173267
 20
-18.186533481
 11
134.858353284
 21
-19.000000002
  0
LINE
  8
EW
  6
CONTINUOUS
 10
134.858353284
 20
-19.000000002
 11
128.674671507
 21
-19.000000002
  0
LINE
  8
EW
  6
CONTINUOUS
 10
128.674671507
 20
-19.000000002
 11
128.841645778
 21
-18.330302782
  0
LINE
  8
EW
  6
CONTINUOUS
 10
128.841645778
 20
-18.330302782
 11
130.181443496
 21
-18.330302782
  0
LINE
  8
EW
  6
CONTINUOUS
 10
130.181443496
 20
-18.330302782
 11
131.184044941
 21
-14.309088023
  0
LINE
  8
EW
  6
CONTINUOUS
 10
131.184044941
 20
-14.309088023
 11
138.674671507
 21
-14.309088023
  0
LINE
  8
EW
  6
CONTINUOUS
 10
138.719732568
 20
-14.274525152
 11
143.850724661
 21
6.304760104
  0
LINE
  8
EW
  6
CONTINUOUS
 10
136.323654525
 20
6.304760104
 11
131.184044941
 21
-14.309088023
  0
LINE
  8
EW
  6
CONTINUOUS
 10
128.841645778
 20
-18.330302782
 11
136.672290266
 21
13.076696829
  0
LINE
  8
EW
  6
CONTINUOUS
 10
136.777831600
 20
13.499999998
 11
137.027159603
 21
14.499999998
  0
LINE
  8
EW
  6
CONTINUOUS
 10
137.027159603
 20
14.499999998
 11
138.316285422
 21
19.670401256
  0
LINE
  8
EW
  6
CONTINUOUS
 10
138.316285422
 20
19.670401256
 11
153.478301960
 21
19.670401256
  0
LINE
  8
EW
  6
CONTINUOUS
 10
153.478301960
 20
19.670401256
 11
153.695428677
 21
19.244266080
  0
LINE
  8
EW
  6
CONTINUOUS
 10
154.880992201
 20
9.615549042
 11
154.908045285
 21
9.597980564
  0
LINE
  8
EW
  6
CONTINUOUS
 10
154.908045285
 20
9.597980564
 11
155.008864015
 21
9.410240742
  0
LINE
  8
EW
  6
CONTINUOUS
 10
149.277154791
 20
1.628564720
 11
149.760998583
 21
3.569156173
  0
LINE
  8
EW
  6
CONTINUOUS
 10
149.760998583
 20
3.569156173
 11
151.091569009
 21
8.905782668
  0
LINE
  8
EW
  6
CONTINUOUS
 10
151.091569009
 20
8.905782668
 11
142.358907472
 21
11.083079728
  0
LINE
  8
EW
  6
CONTINUOUS
 10
142.358907472
 20
11.083079728
 11
135.061173267
 21
-18.186533481
  0
LINE
  8
EW
  6
CONTINUOUS
 10
138.155198841
 20
19.024318269
 11
139.494996560
 21
19.024318269
  0
LINE
  8
EW
  6
CONTINUOUS
 10
139.494996560
 20
19.024318269
 11
138.012087984
 21
13.076696829
  0
LINE
  8
EW
  6
CONTINUOUS
 10
134.134328112
 20
-2.476148534
 11
149.102771310
 21
10.083866633
  0
LINE
  8
EW
  6
CONTINUOUS
 10
146.112103526
 20
11.490620267
 11
135.369074448
 21
2.476148530
  0
LINE
  8
EW
  6
CONTINUOUS
 10
154.155046241
 20
6.080744748
 11
150.607725217
 21
6.965191215
  0
LINE
  8
EW
  6
CONTINUOUS
 10
141.775521883
 20
8.743247932
 11
135.953747526
 21
10.194779305
  0
LINE
  8
EW
  6
CONTINUOUS
 10
129.905700136
 20
-14.062613852
 11
135.727474493
 21
-15.514145225
  0
CIRCLE
  8
EW
  6
CONTINUOUS
 10
152.251924867
 20
14.945378348
 40
1.899973600
  0
LINE
  8
ZAPFEN
  6
STRICHPUNKT
 62
     4
 10
149.401964468
 20
14.945378348
 11
155.101885267
 21
14.945378348
  0
LINE
  8
ZAPFEN
  6
STRICHPUNKT
 62
     4
 10
152.251924867
 20
12.095417949
 11
152.251924867
 21
17.795338747
  0
TEXT
  8
TEXT
  6
STRICHPUNKT
 62
     4
 10
86.183625411
 20
-6.542447348
 40
3.500000000
  1
615.258
 50
0.000000000
 41
1.000
 51
0.000000000
  7
STANDARD
  0
LINE
  8
MASS
  6
CONTINUOUS
 62
     4
 10
166.681664424
 20
20.000000499
 11
155.274671512
 21
20.000000000
  0
LINE
  8
MASS
  6
CONTINUOUS
 62
     4
 10
164.681664424
 20
20.000000411
 11
165.131664577
 21
16.500000431
  0
LINE
  8
MASS
  6
CONTINUOUS
 62
     4
 10
165.131664577
 20
16.500000431
 11
164.231664577
 21
16.500000392
  0
LINE
  8
MASS
  6
CONTINUOUS
 62
     4
 10
164.231664577
 20
16.500000392
 11
164.681664424
 21
20.000000411
  0
LINE
  8
MASS
  6
CONTINUOUS
 62
     4
 10
164.681664573
 20
16.600000411
 11
164.681664428
 21
19.900000411
  0
LINE
  8
MASS
  6
CONTINUOUS
 62
     4
 10
164.481664573
 20
16.600000402
 11
164.481664496
 21
18.344444847
  0
LINE
  8
MASS
  6
CONTINUOUS
 62
     4
 10
164.881664573
 20
16.600000420
 11
164.881664496
 21
18.344444864
  0
LINE
  8
MASS
  6
CONTINUOUS
 62
     4
 10
164.281664573
 20
16.600000394
 11
164.281664564
 21
16.788889283
  0
LINE
  8
MASS
  6
CONTINUOUS
 62
     4
 10
165.081664573
 20
16.600000429
 11
165.081664564
 21
16.788889318
  0
LINE
  8
MASS
  6
CONTINUOUS
 62
     4
 10
164.681665386
 20
-1.999999555
 11
164.681664577
 21
16.500000411
  0
TEXT
  8
MASS
  6
CONTINUOUS
 62
     4
 10
163.270107873
 20
-2.978022746
 40
3.500000000
  1
40
 50
90.000002504
 41
1.000
 51
0.000000000
  7
STANDARD
  0
CIRCLE
  8
MASS
  6
CONTINUOUS
 62
     4
 10
162.020107972
 20
-5.228022801
 40
1.250000000
  0
LINE
  8
MASS
  6
CONTINUOUS
 62
     4
 10
163.270108026
 20
-6.478022746
 11
160.770107917
 21
-3.978022855
  0
TEXT
  8
MASS
  6
CONTINUOUS
 62
     4
 10
163.270107662
 20
1.851352254
 40
3.500000000
  1
-54
 50
90.000002504
 41
1.000
 51
0.000000000
  7
STANDARD
  0
ENDSEC
  0
EOF
