999
NT  : 16.0 - 919
  0
SECTION
  2
HEADER
  9
$ACADVER
  1
AC1006
  9
$INSBASE
 10
0.000000000
 20
0.000000000
  9
$EXTMIN
 10
-51.210000010
 20
-58.264623162
  9
$EXTMAX
 10
174.210000986
 20
80.164390574
  9
$LIMMIN
 10
-51.210000010
 20
-58.264623162
  9
$LIMMAX
 10
174.210000986
 20
80.164390574
  9
$AUNITS
 70
     2
  9
$ANGBASE
 50
0.000
  9
$ANGDIR
 70
     0
  0
ENDSEC
  0
SECTION
  2
TABLES
  0
TABLE
  2
LTYPE
 70
     8
  0
LTYPE
  2
PUNKT
 70
    64
  3
..............
 72
    65
 73
     2
 40
1.500
 49
0.700
 49
-0.800
  0
LTYPE
  2
GESTRICHELT
 70
    64
  3
-- -- -- -- --
 72
    65
 73
     7
 40
2.800
 49
0.900
 49
0.000
 49
0.900
 49
0.000
 49
0.200
 49
0.000
 49
-0.800
  0
LTYPE
  2
STRICHPUNKT
 70
    64
  3
--.--.--.--.--
 72
    65
 73
     4
 40
8.800
 49
5.500
 49
-1.300
 49
0.700
 49
-1.300
  0
LTYPE
  2
STRICHPUNKT
 70
    64
  3
--.--.--.--.--
 72
    65
 73
     4
 40
8.800
 49
5.500
 49
-1.300
 49
0.700
 49
-1.300
  0
LTYPE
  2
STRICHPUNKT
 70
    64
  3
--.--.--.--.--
 72
    65
 73
     4
 40
8.800
 49
5.500
 49
-1.300
 49
0.700
 49
-1.300
  0
LTYPE
  2
PHANTOM
 70
    64
  3
--..--..--..--
 72
    65
 73
     6
 40
14.200
 49
7.000
 49
-1.800
 49
0.900
 49
-1.800
 49
0.900
 49
-1.800
  0
LTYPE
  2
PHANTOM
 70
    64
  3
--..--..--..--
 72
    65
 73
     6
 40
14.200
 49
7.000
 49
-1.800
 49
0.900
 49
-1.800
 49
0.900
 49
-1.800
  0
LTYPE
  2
PHANTOM
 70
    64
  3
--..--..--..--
 72
    65
 73
     6
 40
14.200
 49
7.000
 49
-1.800
 49
0.900
 49
-1.800
 49
0.900
 49
-1.800
  0
ENDTAB
  0
ENDSEC
  0
SECTION
  2
BLOCKS
  0
ENDSEC
  0
SECTION
  2
ENTITIES
  0
LINE
  8
ZAPFEN
  6
CONTINUOUS
 62
     4
 10
-34.000000000
 20
-8.000000000
 11
-34.000000000
 21
8.000000000
  0
LINE
  8
ZAPFEN
  6
CONTINUOUS
 62
     4
 10
-34.000000000
 20
8.000000000
 11
-35.000000000
 21
7.000000000
  0
LINE
  8
ZAPFEN
  6
CONTINUOUS
 62
     4
 10
-35.000000000
 20
7.000000000
 11
-35.000000000
 21
-7.000000000
  0
LINE
  8
ZAPFEN
  6
CONTINUOUS
 62
     4
 10
-35.000000000
 20
-7.000000000
 11
-34.000000000
 21
-8.000000000
  0
LINE
  8
AUFNAHME
  6
CONTINUOUS
 62
     7
 10
124.999456680
 20
8.000000000
 11
0.000000000
 21
8.000000000
  0
LINE
  8
ZAPFEN
  6
CONTINUOUS
 62
     4
 10
0.000000000
 20
8.000000000
 11
-34.000000000
 21
8.000000000
  0
LINE
  8
ZAPFEN
  6
CONTINUOUS
 62
     4
 10
-34.000000000
 20
-8.000000000
 11
0.000000000
 21
-8.000000000
  0
LINE
  8
AUFNAHME
  6
CONTINUOUS
 62
     7
 10
0.000000000
 20
-8.000000000
 11
124.999456680
 21
-8.000000000
  0
LINE
  8
UNSICHT
  6
GESTRICHELT
 62
     1
 10
-35.000000000
 20
-2.500000000
 11
126.999456680
 21
-2.500000000
  0
LINE
  8
UNSICHT
  6
GESTRICHELT
 62
     1
 10
-35.000000000
 20
2.500000000
 11
126.999456680
 21
2.500000000
  0
LINE
  8
ZAPFEN
  6
STRICHPUNKT
 62
     4
 10
-36.644264735
 20
0.000000000
 11
142.876881930
 21
0.000000000
  0
LINE
  8
ZAPFEN
  6
CONTINUOUS
 62
     4
 10
142.941995600
 20
7.767357057
 11
143.000000000
 21
8.000000000
  0
LINE
  8
UNSICHT
  6
GESTRICHELT
 62
     1
 10
130.182017717
 20
2.698566299
 11
131.815119558
 21
4.475549724
  0
LINE
  8
UNSICHT
  6
GESTRICHELT
 62
     1
 10
131.815119558
 20
4.475549724
 11
140.033776179
 21
2.303474296
  0
LINE
  8
UNSICHT
  6
GESTRICHELT
 62
     1
 10
140.033776179
 20
2.303474296
 11
140.275698075
 21
3.273770022
  0
LINE
  8
UNSICHT
  6
GESTRICHELT
 62
     1
 10
140.275698075
 20
3.273770022
 11
141.731141664
 21
2.910887179
  0
LINE
  8
UNSICHT
  6
GESTRICHELT
 62
     1
 10
140.279610290
 20
-2.910887179
 11
138.824166701
 21
-2.548004335
  0
LINE
  8
UNSICHT
  6
GESTRICHELT
 62
     1
 10
138.824166701
 20
-2.548004335
 11
139.066088597
 21
-1.577708609
  0
LINE
  8
UNSICHT
  6
GESTRICHELT
 62
     1
 10
139.066088597
 20
-1.577708609
 11
130.818574923
 21
0.478627503
  0
LINE
  8
UNSICHT
  6
GESTRICHELT
 62
     1
 10
130.818574923
 20
0.478627503
 11
130.182017717
 21
2.698566299
  0
LINE
  8
AUFNAHME
  6
CONTINUOUS
 62
     7
 10
141.763263645
 20
8.000000000
 11
141.016728297
 21
5.005810259
  0
LINE
  8
UNSICHT
  6
GESTRICHELT
 62
     1
 10
141.016728297
 20
5.005810259
 11
140.566786793
 21
3.201193454
  0
LINE
  8
AUFNAHME
  6
CONTINUOUS
 62
     7
 10
137.331192676
 20
5.000000000
 11
142.253464652
 21
5.000000000
  0
LINE
  8
AUFNAHME
  6
CONTINUOUS
 62
     7
 10
139.068756355
 20
-7.767357057
 11
142.941995600
 21
7.767357057
  0
LINE
  8
AUFNAHME
  6
CONTINUOUS
 62
     7
 10
141.763263645
 20
8.000000000
 11
124.999456680
 21
8.000000000
  0
LINE
  8
AUFNAHME
  6
CONTINUOUS
 62
     7
 10
124.999456680
 20
8.000000000
 11
124.999456680
 21
6.000000000
  0
LINE
  8
AUFNAHME
  6
CONTINUOUS
 62
     7
 10
124.999456680
 20
6.000000000
 11
126.999456680
 21
6.000000000
  0
LINE
  8
AUFNAHME
  6
CONTINUOUS
 62
     7
 10
126.999456680
 20
6.000000000
 11
126.999456680
 21
-6.000000000
  0
LINE
  8
AUFNAHME
  6
CONTINUOUS
 62
     7
 10
126.999456680
 20
-6.000000000
 11
124.999456680
 21
-6.000000000
  0
LINE
  8
AUFNAHME
  6
CONTINUOUS
 62
     7
 10
124.999456680
 20
-6.000000000
 11
124.999456680
 21
-8.000000000
  0
LINE
  8
AUFNAHME
  6
CONTINUOUS
 62
     7
 10
124.999456680
 20
-8.000000000
 11
137.774015599
 21
-8.000000000
  0
LINE
  8
AUFNAHME
  6
CONTINUOUS
 62
     7
 10
137.774015599
 20
-8.000000000
 11
137.832020000
 21
-7.767357057
  0
LINE
  8
UNSICHT
  6
GESTRICHELT
 62
     1
 10
137.832020000
 20
-7.767357057
 11
139.115255419
 21
-2.620580904
  0
LINE
  8
UNSICHT
  6
GESTRICHELT
 62
     1
 10
138.945127649
 20
-2.062856472
 11
133.608501154
 21
-0.732286046
  0
LINE
  8
UNSICHT
  6
GESTRICHELT
 62
     1
 10
133.608501154
 20
-0.732286046
 11
131.918865628
 21
0.204294220
  0
LINE
  8
UNSICHT
  6
GESTRICHELT
 62
     1
 10
133.266007181
 20
4.092100518
 11
134.818110632
 21
4.119192585
  0
LINE
  8
UNSICHT
  6
GESTRICHELT
 62
     1
 10
134.818110632
 20
4.119192585
 11
133.608501154
 21
-0.732286046
  0
LINE
  8
UNSICHT
  6
GESTRICHELT
 62
     1
 10
131.815119558
 20
4.475549724
 11
130.818574923
 21
0.478627503
  0
LINE
  8
UNSICHT
  6
GESTRICHELT
 62
     1
 10
126.999456680
 20
-1.545740384
 11
141.012442881
 21
4.988622395
  0
LINE
  8
UNSICHT
  6
GESTRICHELT
 62
     1
 10
134.876794604
 20
5.370782978
 11
126.999456680
 21
1.764393372
  0
LINE
  8
UNSICHT
  6
GESTRICHELT
 62
     1
 10
140.154737127
 20
2.788622159
 11
134.818110632
 21
4.119192585
  0
LINE
  8
UNSICHT
  6
GESTRICHELT
 62
     1
 10
140.033776179
 20
2.303474296
 11
139.066088597
 21
-1.577708609
  0
LINE
  8
ZAPFEN
  6
STRICHPUNKT
 62
     4
 10
125.533100705
 20
-0.569392858
 11
138.962243775
 21
5.646437019
  0
LINE
  8
ZAPFEN
  6
STRICHPUNKT
 62
     4
 10
128.705147341
 20
3.066791440
 11
142.245673588
 21
-0.309240926
  0
ARC
  8
AUFNAHME
  6
CONTINUOUS
 62
     7
 10
137.300000000
 20
13.000000000
 40
8.000000000
 50
-141.317812547
 51
-88.023506921
  0
LINE
  8
AUFNAHME
  6
CONTINUOUS
 62
     7
 10
141.705259244
 20
7.767357057
 11
142.941995600
 21
7.767357057
  0
LINE
  8
AUFNAHME
  6
CONTINUOUS
 62
     7
 10
137.832020000
 20
-7.767357057
 11
139.068756355
 21
-7.767357057
  0
LINE
  8
MASS
  6
CONTINUOUS
 62
     4
 10
-46.000000000
 20
-8.000000000
 11
-34.000000000
 21
-8.000000000
  0
LINE
  8
MASS
  6
CONTINUOUS
 62
     4
 10
-44.000000000
 20
-8.000000000
 11
-44.450000000
 21
-4.500000000
  0
LINE
  8
MASS
  6
CONTINUOUS
 62
     4
 10
-44.450000000
 20
-4.500000000
 11
-43.550000000
 21
-4.500000000
  0
LINE
  8
MASS
  6
CONTINUOUS
 62
     4
 10
-43.550000000
 20
-4.500000000
 11
-44.000000000
 21
-8.000000000
  0
LINE
  8
MASS
  6
CONTINUOUS
 62
     4
 10
-44.000000000
 20
-4.600000000
 11
-44.000000000
 21
-7.900000000
  0
LINE
  8
MASS
  6
CONTINUOUS
 62
     4
 10
-43.800000000
 20
-4.600000000
 11
-43.800000000
 21
-6.344444444
  0
LINE
  8
MASS
  6
CONTINUOUS
 62
     4
 10
-44.200000000
 20
-4.600000000
 11
-44.200000000
 21
-6.344444444
  0
LINE
  8
MASS
  6
CONTINUOUS
 62
     4
 10
-43.600000000
 20
-4.600000000
 11
-43.600000000
 21
-4.788888889
  0
LINE
  8
MASS
  6
CONTINUOUS
 62
     4
 10
-44.400000000
 20
-4.600000000
 11
-44.400000000
 21
-4.788888889
  0
LINE
  8
MASS
  6
CONTINUOUS
 62
     4
 10
-46.000000000
 20
8.000000000
 11
-34.000000000
 21
8.000000000
  0
LINE
  8
MASS
  6
CONTINUOUS
 62
     4
 10
-44.000000000
 20
8.000000000
 11
-43.550000000
 21
4.500000000
  0
LINE
  8
MASS
  6
CONTINUOUS
 62
     4
 10
-43.550000000
 20
4.500000000
 11
-44.450000000
 21
4.500000000
  0
LINE
  8
MASS
  6
CONTINUOUS
 62
     4
 10
-44.450000000
 20
4.500000000
 11
-44.000000000
 21
8.000000000
  0
LINE
  8
MASS
  6
CONTINUOUS
 62
     4
 10
-44.000000000
 20
4.600000000
 11
-44.000000000
 21
7.900000000
  0
LINE
  8
MASS
  6
CONTINUOUS
 62
     4
 10
-44.200000000
 20
4.600000000
 11
-44.200000000
 21
6.344444444
  0
LINE
  8
MASS
  6
CONTINUOUS
 62
     4
 10
-43.800000000
 20
4.600000000
 11
-43.800000000
 21
6.344444444
  0
LINE
  8
MASS
  6
CONTINUOUS
 62
     4
 10
-44.400000000
 20
4.600000000
 11
-44.400000000
 21
4.788888889
  0
LINE
  8
MASS
  6
CONTINUOUS
 62
     4
 10
-43.600000000
 20
4.600000000
 11
-43.600000000
 21
4.788888889
  0
LINE
  8
MASS
  6
CONTINUOUS
 62
     4
 10
-44.000000000
 20
-4.500000000
 11
-44.000000000
 21
4.500000000
  0
TEXT
  8
MASS
  6
CONTINUOUS
 62
     4
 10
-45.500000000
 20
0.522812321
 40
3.500000000
  1
16
 50
90.000000000
 41
1.000
 51
0.000000000
  7
STANDARD
  0
CIRCLE
  8
MASS
  6
CONTINUOUS
 62
     4
 10
-46.750000000
 20
-1.727187679
 40
1.250000000
  0
LINE
  8
MASS
  6
CONTINUOUS
 62
     4
 10
-45.500000000
 20
-2.977187679
 11
-48.000000000
 21
-0.477187679
  0
LINE
  8
MASS
  6
CONTINUOUS
 62
     4
 10
-35.000000000
 20
-22.000000000
 11
-35.000000000
 21
-7.000000000
  0
LINE
  8
MASS
  6
CONTINUOUS
 62
     4
 10
-35.000000000
 20
-20.000000000
 11
-31.500000000
 21
-19.550000000
  0
LINE
  8
MASS
  6
CONTINUOUS
 62
     4
 10
-31.500000000
 20
-19.550000000
 11
-31.500000000
 21
-20.450000000
  0
LINE
  8
MASS
  6
CONTINUOUS
 62
     4
 10
-31.500000000
 20
-20.450000000
 11
-35.000000000
 21
-20.000000000
  0
LINE
  8
MASS
  6
CONTINUOUS
 62
     4
 10
-31.600000000
 20
-20.000000000
 11
-34.900000000
 21
-20.000000000
  0
LINE
  8
MASS
  6
CONTINUOUS
 62
     4
 10
-31.600000000
 20
-20.200000000
 11
-33.344444444
 21
-20.200000000
  0
LINE
  8
MASS
  6
CONTINUOUS
 62
     4
 10
-31.600000000
 20
-19.800000000
 11
-33.344444444
 21
-19.800000000
  0
LINE
  8
MASS
  6
CONTINUOUS
 62
     4
 10
-31.600000000
 20
-20.400000000
 11
-31.788888889
 21
-20.400000000
  0
LINE
  8
MASS
  6
CONTINUOUS
 62
     4
 10
-31.600000000
 20
-19.600000000
 11
-31.788888889
 21
-19.600000000
  0
LINE
  8
MASS
  6
CONTINUOUS
 62
     4
 10
0.000000000
 20
-22.000000000
 11
0.000000000
 21
-10.000000000
  0
LINE
  8
MASS
  6
CONTINUOUS
 62
     4
 10
0.000000000
 20
-20.000000000
 11
-3.500000000
 21
-20.450000000
  0
LINE
  8
MASS
  6
CONTINUOUS
 62
     4
 10
-3.500000000
 20
-20.450000000
 11
-3.500000000
 21
-19.550000000
  0
LINE
  8
MASS
  6
CONTINUOUS
 62
     4
 10
-3.500000000
 20
-19.550000000
 11
0.000000000
 21
-20.000000000
  0
LINE
  8
MASS
  6
CONTINUOUS
 62
     4
 10
-3.400000000
 20
-20.000000000
 11
-0.100000000
 21
-20.000000000
  0
LINE
  8
MASS
  6
CONTINUOUS
 62
     4
 10
-3.400000000
 20
-19.800000000
 11
-1.655555556
 21
-19.800000000
  0
LINE
  8
MASS
  6
CONTINUOUS
 62
     4
 10
-3.400000000
 20
-20.200000000
 11
-1.655555556
 21
-20.200000000
  0
LINE
  8
MASS
  6
CONTINUOUS
 62
     4
 10
-3.400000000
 20
-19.600000000
 11
-3.211111111
 21
-19.600000000
  0
LINE
  8
MASS
  6
CONTINUOUS
 62
     4
 10
-3.400000000
 20
-20.400000000
 11
-3.211111111
 21
-20.400000000
  0
LINE
  8
MASS
  6
CONTINUOUS
 62
     4
 10
-31.500000000
 20
-20.000000000
 11
-3.500000000
 21
-20.000000000
  0
TEXT
  8
MASS
  6
CONTINUOUS
 62
     4
 10
-15.437500391
 20
-18.500000000
 40
3.500000000
  1
35
 50
0.000000000
 41
1.000
 51
0.000000000
  7
STANDARD
  0
TEXT
  8
MASS
  6
CONTINUOUS
 62
     4
 10
-22.290312891
 20
-18.500000000
 40
3.500000000
  1
min.
 50
0.000000000
 41
1.000
 51
0.000000000
  7
STANDARD
  0
LINE
  8
FIKTIV
  6
CONTINUOUS
 62
     5
 10
158.995755327
 20
-1.122576473
 11
159.498852856
 21
8.477134028
  0
ARC
  8
FIKTIV
  6
CONTINUOUS
 62
     5
 10
159.099401493
 20
8.498068387
 40
0.399999548
 50
-3.000000000
 51
116.999989000
  0
LINE
  8
FIKTIV
  6
CONTINUOUS
 62
     5
 10
158.917808072
 20
8.854465711
 11
150.352667318
 21
4.490313668
  0
ARC
  8
FIKTIV
  6
CONTINUOUS
 62
     5
 10
150.534263912
 20
4.133909864
 40
0.400001243
 50
117.000018328
 51
-123.000935424
  0
LINE
  8
FIKTIV
  6
CONTINUOUS
 62
     5
 10
150.316403996
 20
3.798447001
 11
151.971727743
 21
2.723466946
  0
LINE
  8
FIKTIV
  6
CONTINUOUS
 62
     5
 10
151.971727743
 20
2.723466946
 11
158.378453139
 21
-1.437110121
  0
ARC
  8
FIKTIV
  6
CONTINUOUS
 62
     5
 10
158.596309609
 20
-1.101642410
 40
0.400000033
 50
-123.000143051
 51
-3.000000000
  0
LINE
  8
FIKTIV
  6
CONTINUOUS
 62
     5
 10
141.969330733
 20
7.998067935
 11
140.374330482
 21
1.600871339
  0
LINE
  8
FIKTIV
  6
CONTINUOUS
 62
     5
 10
138.989530796
 20
-3.953256838
 11
137.980082687
 21
-8.001932065
  0
LINE
  8
FIKTIV
  6
CONTINUOUS
 62
     5
 10
137.980082687
 20
-8.001932065
 11
143.133150834
 21
-8.001932065
  0
LINE
  8
FIKTIV
  6
CONTINUOUS
 62
     5
 10
150.294721864
 20
-6.683249300
 11
158.564007315
 21
-1.908975119
  0
LINE
  8
FIKTIV
  6
CONTINUOUS
 62
     5
 10
158.564007315
 20
-1.908975119
 11
158.585362567
 21
-1.501492618
  0
LINE
  8
FIKTIV
  6
CONTINUOUS
 62
     5
 10
157.237030817
 20
7.998067935
 11
141.969330733
 21
7.998067935
  0
LINE
  8
FIKTIV
  6
CONTINUOUS
 62
     5
 10
153.168512807
 20
5.925056914
 11
152.825511050
 21
6.147804755
  0
LINE
  8
FIKTIV
  6
CONTINUOUS
 62
     5
 10
152.825511050
 20
6.147804755
 11
151.475572037
 21
7.024464992
  0
ARC
  8
FIKTIV
  6
CONTINUOUS
 62
     5
 10
150.604150431
 20
5.682591375
 40
1.600000131
 50
57.000039339
 51
-123.000033530
  0
LINE
  8
FIKTIV
  6
CONTINUOUS
 62
     5
 10
149.732726713
 20
4.340718243
 11
150.138282017
 21
4.077347211
  0
LINE
  8
FIKTIV
  6
CONTINUOUS
 62
     5
 10
150.198907816
 20
3.915879399
 11
149.523350364
 21
4.354591741
  0
LINE
  8
FIKTIV
  6
CONTINUOUS
 62
     5
 10
149.523350364
 20
4.354591741
 11
149.218509671
 21
4.882591309
  0
LINE
  8
FIKTIV
  6
CONTINUOUS
 62
     5
 10
150.259597829
 20
3.698067935
 11
151.942271729
 21
2.605325328
  0
LINE
  8
FIKTIV
  6
CONTINUOUS
 62
     5
 10
151.942271729
 20
2.605325328
 11
158.574857984
 21
-1.701932067
  0
LINE
  8
FIKTIV
  6
CONTINUOUS
 62
     5
 10
153.789355566
 20
-4.665621592
 11
150.129421055
 21
-4.665621592
  0
LINE
  8
FIKTIV
  6
CONTINUOUS
 62
     5
 10
150.129421055
 20
-4.665621592
 11
139.842531944
 21
-4.665621592
  0
LINE
  8
FIKTIV
  6
CONTINUOUS
 62
     5
 10
141.927833950
 20
3.698067935
 11
139.074033934
 21
-7.747898757
  0
LINE
  8
FIKTIV
  6
CONTINUOUS
 62
     5
 10
143.133150834
 20
-8.001932065
 11
143.461935374
 21
-6.683249300
  0
LINE
  8
FIKTIV
  6
CONTINUOUS
 62
     5
 10
143.461935374
 20
-6.683249300
 11
150.294721864
 21
-6.683249300
  0
LINE
  8
FIKTIV
  6
CONTINUOUS
 62
     5
 10
141.344626208
 20
1.358949443
 11
140.374330482
 21
1.600871339
  0
LINE
  8
FIKTIV
  6
CONTINUOUS
 62
     5
 10
138.989530796
 20
-3.953256838
 11
139.959826522
 21
-4.195178733
  0
LINE
  8
FIKTIV
  6
CONTINUOUS
 62
     5
 10
139.074033934
 20
-7.747898757
 11
138.043420304
 21
-7.747898757
  0
LINE
  8
FIKTIV
  6
CONTINUOUS
 62
     5
 10
140.897220320
 20
3.698067935
 11
150.259597829
 21
3.698067935
  0
CIRCLE
  8
FIKTIV
  6
CONTINUOUS
 62
     5
 10
156.076660878
 20
3.843445147
 40
1.900000000
  0
LINE
  8
FIKTIV
  6
CONTINUOUS
 62
     5
 10
158.320826683
 20
-2.049375523
 11
149.470539870
 21
3.698067935
  0
LINE
  8
FIKTIV
  6
CONTINUOUS
 62
     5
 10
155.404937583
 20
-3.732864879
 11
143.962304494
 21
3.698067935
  0
LINE
  8
FIKTIV
  6
CONTINUOUS
 62
     5
 10
157.237030817
 20
7.998067935
 11
157.538555238
 21
7.998067935
  0
LINE
  8
FIKTIV
  6
CONTINUOUS
 62
     5
 10
156.076660878
 20
6.594079165
 11
156.076660878
 21
1.092811129
  0
LINE
  8
FIKTIV
  6
CONTINUOUS
 62
     5
 10
153.381160432
 20
3.851819092
 11
158.437641535
 21
3.851819092
  0
LINE
  8
FIKTIV
  6
CONTINUOUS
 62
     5
 10
159.040935429
 20
7.191355898
 11
158.581815473
 21
-1.569175195
  0
ARC
  8
FIKTIV
  6
CONTINUOUS
 62
     5
 10
158.541620661
 20
7.217523874
 40
0.500000000
 50
-2.999999840
 51
90.000000000
  0
LINE
  8
FIKTIV
  6
CONTINUOUS
 62
     5
 10
157.538555238
 20
7.717523874
 11
158.541620661
 21
7.717523874
  0
LINE
  8
FIKTIV
  6
CONTINUOUS
 62
     5
 10
157.538555238
 20
7.998067935
 11
157.538555238
 21
7.717523874
  0
LINE
  8
FIKTIV
  6
CONTINUOUS
 62
     5
 10
151.287586080
 20
1.969111122
 11
150.196185377
 21
-2.408258008
  0
LINE
  8
FIKTIV
  6
CONTINUOUS
 62
     5
 10
150.828576946
 20
0.128126042
 11
158.569617203
 21
-1.801932065
  0
LINE
  8
FIKTIV
  6
CONTINUOUS
 62
     5
 10
145.950959585
 20
3.299681548
 11
151.287586080
 21
1.969111122
  0
LINE
  8
FIKTIV
  6
CONTINUOUS
 62
     5
 10
140.639829352
 20
2.665729146
 11
145.491307983
 21
1.456119668
  0
LINE
  8
FIKTIV
  6
CONTINUOUS
 62
     5
 10
143.638432258
 20
-5.975358963
 11
138.786953627
 21
-4.765749485
  0
LINE
  8
FIKTIV
  6
CONTINUOUS
 62
     5
 10
145.265267936
 20
-3.713103773
 11
138.015251374
 21
-1.905471623
  0
LINE
  8
FIKTIV
  6
CONTINUOUS
 62
     5
 10
145.860149805
 20
-1.327162919
 11
138.610133242
 21
0.480469232
  0
LINE
  8
FIKTIV
  6
CONTINUOUS
 62
     5
 10
145.950959585
 20
3.299681548
 11
143.461935374
 21
-6.683249300
  0
LINE
  8
MASS
  6
CONTINUOUS
 62
     4
 10
0.000000000
 20
-22.000000000
 11
0.000000000
 21
-10.000000000
  0
LINE
  8
MASS
  6
CONTINUOUS
 62
     4
 10
0.000000000
 20
-20.000000000
 11
3.499999999
 21
-19.549999988
  0
LINE
  8
MASS
  6
CONTINUOUS
 62
     4
 10
3.499999999
 20
-19.549999988
 11
3.500000001
 21
-20.449999988
  0
LINE
  8
MASS
  6
CONTINUOUS
 62
     4
 10
3.500000001
 20
-20.449999988
 11
0.000000000
 21
-20.000000000
  0
LINE
  8
MASS
  6
CONTINUOUS
 62
     4
 10
3.400000000
 20
-19.999999989
 11
0.100000000
 21
-20.000000000
  0
LINE
  8
MASS
  6
CONTINUOUS
 62
     4
 10
3.400000001
 20
-20.199999989
 11
1.655555556
 21
-20.199999994
  0
LINE
  8
MASS
  6
CONTINUOUS
 62
     4
 10
3.399999999
 20
-19.799999989
 11
1.655555555
 21
-19.799999994
  0
LINE
  8
MASS
  6
CONTINUOUS
 62
     4
 10
3.400000001
 20
-20.399999989
 11
3.211111112
 21
-20.399999989
  0
LINE
  8
MASS
  6
CONTINUOUS
 62
     4
 10
3.399999999
 20
-19.599999989
 11
3.211111110
 21
-19.599999989
  0
LINE
  8
MASS
  6
CONTINUOUS
 62
     4
 10
159.499401041
 20
-21.999999469
 11
159.499401041
 21
8.498068387
  0
LINE
  8
MASS
  6
CONTINUOUS
 62
     4
 10
159.499401041
 20
-19.999999469
 11
155.999401043
 21
-20.449999481
  0
LINE
  8
MASS
  6
CONTINUOUS
 62
     4
 10
155.999401043
 20
-20.449999481
 11
155.999401040
 21
-19.549999481
  0
LINE
  8
MASS
  6
CONTINUOUS
 62
     4
 10
155.999401040
 20
-19.549999481
 11
159.499401041
 21
-19.999999469
  0
LINE
  8
MASS
  6
CONTINUOUS
 62
     4
 10
156.099401041
 20
-19.999999480
 11
159.399401041
 21
-19.999999469
  0
LINE
  8
MASS
  6
CONTINUOUS
 62
     4
 10
156.099401041
 20
-19.799999480
 11
157.843845485
 21
-19.799999475
  0
LINE
  8
MASS
  6
CONTINUOUS
 62
     4
 10
156.099401042
 20
-20.199999480
 11
157.843845486
 21
-20.199999475
  0
LINE
  8
MASS
  6
CONTINUOUS
 62
     4
 10
156.099401040
 20
-19.599999480
 11
156.288289929
 21
-19.599999480
  0
LINE
  8
MASS
  6
CONTINUOUS
 62
     4
 10
156.099401043
 20
-20.399999480
 11
156.288289932
 21
-20.399999480
  0
LINE
  8
MASS
  6
CONTINUOUS
 62
     4
 10
3.500000000
 20
-19.999999988
 11
155.999401041
 21
-19.999999481
  0
TEXT
  8
MASS
  6
CONTINUOUS
 62
     4
 10
81.183292483
 20
-18.499999730
 40
3.500000000
  1
160
 50
0.000000191
 41
1.000
 51
0.000000000
  7
STANDARD
  0
TEXT
  8
MASS
  6
CONTINUOUS
 62
     4
 10
73.619542483
 20
-18.499999755
 40
3.500000000
  1
110-
 50
0.000000191
 41
1.000
 51
0.000000000
  7
STANDARD
  0
LINE
  8
MASS
  6
CONTINUOUS
 62
     4
 10
174.000000019
 20
8.898068586
 11
159.099401493
 21
8.898067935
  0
LINE
  8
MASS
  6
CONTINUOUS
 62
     4
 10
172.000000019
 20
8.898068499
 11
172.449999866
 21
12.398068518
  0
LINE
  8
MASS
  6
CONTINUOUS
 62
     4
 10
172.449999866
 20
12.398068518
 11
171.549999866
 21
12.398068479
  0
LINE
  8
MASS
  6
CONTINUOUS
 62
     4
 10
171.549999866
 20
12.398068479
 11
172.000000019
 21
8.898068499
  0
LINE
  8
MASS
  6
CONTINUOUS
 62
     4
 10
171.999999871
 20
12.298068499
 11
172.000000015
 21
8.998068499
  0
LINE
  8
MASS
  6
CONTINUOUS
 62
     4
 10
172.199999871
 20
12.298068507
 11
172.199999947
 21
10.553624063
  0
LINE
  8
MASS
  6
CONTINUOUS
 62
     4
 10
171.799999871
 20
12.298068490
 11
171.799999947
 21
10.553624045
  0
LINE
  8
MASS
  6
CONTINUOUS
 62
     4
 10
172.399999871
 20
12.298068516
 11
172.399999879
 21
12.109179627
  0
LINE
  8
MASS
  6
CONTINUOUS
 62
     4
 10
171.599999871
 20
12.298068481
 11
171.599999879
 21
12.109179592
  0
LINE
  8
MASS
  6
CONTINUOUS
 62
     4
 10
171.999999866
 20
12.398068499
 11
171.999998577
 21
41.899767412
  0
LINE
  8
MASS
  6
CONTINUOUS
 62
     4
 10
172.000000797
 20
-8.898065953
 11
172.000000019
 21
8.898068499
  0
TEXT
  8
MASS
  6
CONTINUOUS
 62
     4
 10
170.616495508
 20
17.116017352
 40
3.500000000
  1
17.8
 50
90.000002504
 41
1.000
 51
0.000000000
  7
STANDARD
  0
CIRCLE
  8
MASS
  6
CONTINUOUS
 62
     4
 10
169.366495606
 20
14.866017297
 40
1.250000000
  0
LINE
  8
MASS
  6
CONTINUOUS
 62
     4
 10
170.616495661
 20
13.616017352
 11
168.116495552
 21
16.116017242
  0
TEXT
  8
MASS
  6
CONTINUOUS
 62
     4
 10
170.616495189
 20
24.406329852
 40
3.500000000
  1
-33.0(40.0)
 50
90.000002504
 41
1.000
 51
0.000000000
  7
STANDARD
  0
LINE
  8
MASS
  6
CONTINUOUS
 62
     4
 10
-35.000000000
 20
18.000000000
 11
-35.000000000
 21
7.000000000
  0
LINE
  8
MASS
  6
CONTINUOUS
 62
     4
 10
-35.000000000
 20
16.000000000
 11
-31.500000000
 21
16.450000000
  0
LINE
  8
MASS
  6
CONTINUOUS
 62
     4
 10
-31.500000000
 20
16.450000000
 11
-31.500000000
 21
15.550000000
  0
LINE
  8
MASS
  6
CONTINUOUS
 62
     4
 10
-31.500000000
 20
15.550000000
 11
-35.000000000
 21
16.000000000
  0
LINE
  8
MASS
  6
CONTINUOUS
 62
     4
 10
-31.600000000
 20
16.000000000
 11
-34.900000000
 21
16.000000000
  0
LINE
  8
MASS
  6
CONTINUOUS
 62
     4
 10
-31.600000000
 20
15.800000000
 11
-33.344444444
 21
15.800000000
  0
LINE
  8
MASS
  6
CONTINUOUS
 62
     4
 10
-31.600000000
 20
16.200000000
 11
-33.344444444
 21
16.200000000
  0
LINE
  8
MASS
  6
CONTINUOUS
 62
     4
 10
-31.600000000
 20
15.600000000
 11
-31.788888889
 21
15.600000000
  0
LINE
  8
MASS
  6
CONTINUOUS
 62
     4
 10
-31.600000000
 20
16.400000000
 11
-31.788888889
 21
16.400000000
  0
LINE
  8
MASS
  6
CONTINUOUS
 62
     4
 10
143.000000000
 20
18.000000000
 11
143.000000000
 21
8.000000000
  0
LINE
  8
MASS
  6
CONTINUOUS
 62
     4
 10
143.000000000
 20
16.000000000
 11
139.500000000
 21
15.550000000
  0
LINE
  8
MASS
  6
CONTINUOUS
 62
     4
 10
139.500000000
 20
15.550000000
 11
139.500000000
 21
16.450000000
  0
LINE
  8
MASS
  6
CONTINUOUS
 62
     4
 10
139.500000000
 20
16.450000000
 11
143.000000000
 21
16.000000000
  0
LINE
  8
MASS
  6
CONTINUOUS
 62
     4
 10
139.600000000
 20
16.000000000
 11
142.900000000
 21
16.000000000
  0
LINE
  8
MASS
  6
CONTINUOUS
 62
     4
 10
139.600000000
 20
16.200000000
 11
141.344444444
 21
16.200000000
  0
LINE
  8
MASS
  6
CONTINUOUS
 62
     4
 10
139.600000000
 20
15.800000000
 11
141.344444444
 21
15.800000000
  0
LINE
  8
MASS
  6
CONTINUOUS
 62
     4
 10
139.600000000
 20
16.400000000
 11
139.788888889
 21
16.400000000
  0
LINE
  8
MASS
  6
CONTINUOUS
 62
     4
 10
139.600000000
 20
15.600000000
 11
139.788888889
 21
15.600000000
  0
LINE
  8
MASS
  6
CONTINUOUS
 62
     4
 10
-31.500000000
 20
16.000000000
 11
139.500000000
 21
16.000000000
  0
TEXT
  8
MASS
  6
CONTINUOUS
 62
     4
 10
51.597029261
 20
17.500000000
 40
3.500000000
  1
178
 50
0.000000000
 41
1.000
 51
0.000000000
  7
STANDARD
  0
TEXT
  8
MASS
  6
CONTINUOUS
 62
     4
 10
110.751825540
 20
-7.282868972
 40
3.500000000
  1
615.253
 50
0.000000000
 41
1.000
 51
0.000000000
  7
STANDARD
  0
ENDSEC
  0
EOF
