999
NT  : 16.0 - 919
  0
SECTION
  2
HEADER
  9
$ACADVER
  1
AC1006
  9
$INSBASE
 10
0.000000000
 20
0.000000000
  9
$EXTMIN
 10
-71.137500134
 20
-52.419598255
  9
$EXTMAX
 10
134.137501111
 20
73.638497041
  9
$LIMMIN
 10
-71.137500134
 20
-52.419598255
  9
$LIMMAX
 10
134.137501111
 20
73.638497041
  9
$AUNITS
 70
     2
  9
$ANGBASE
 50
0.000
  9
$ANGDIR
 70
     0
  0
ENDSEC
  0
SECTION
  2
TABLES
  0
TABLE
  2
LTYPE
 70
     8
  0
LTYPE
  2
PUNKT
 70
    64
  3
..............
 72
    65
 73
     2
 40
1.500
 49
0.700
 49
-0.800
  0
LTYPE
  2
GESTRICHELT
 70
    64
  3
-- -- -- -- --
 72
    65
 73
     7
 40
2.800
 49
0.900
 49
0.000
 49
0.900
 49
0.000
 49
0.200
 49
0.000
 49
-0.800
  0
LTYPE
  2
STRICHPUNKT
 70
    64
  3
--.--.--.--.--
 72
    65
 73
     4
 40
8.800
 49
5.500
 49
-1.300
 49
0.700
 49
-1.300
  0
LTYPE
  2
STRICHPUNKT
 70
    64
  3
--.--.--.--.--
 72
    65
 73
     4
 40
8.800
 49
5.500
 49
-1.300
 49
0.700
 49
-1.300
  0
LTYPE
  2
STRICHPUNKT
 70
    64
  3
--.--.--.--.--
 72
    65
 73
     4
 40
8.800
 49
5.500
 49
-1.300
 49
0.700
 49
-1.300
  0
LTYPE
  2
PHANTOM
 70
    64
  3
--..--..--..--
 72
    65
 73
     6
 40
14.200
 49
7.000
 49
-1.800
 49
0.900
 49
-1.800
 49
0.900
 49
-1.800
  0
LTYPE
  2
PHANTOM
 70
    64
  3
--..--..--..--
 72
    65
 73
     6
 40
14.200
 49
7.000
 49
-1.800
 49
0.900
 49
-1.800
 49
0.900
 49
-1.800
  0
LTYPE
  2
PHANTOM
 70
    64
  3
--..--..--..--
 72
    65
 73
     6
 40
14.200
 49
7.000
 49
-1.800
 49
0.900
 49
-1.800
 49
0.900
 49
-1.800
  0
ENDTAB
  0
ENDSEC
  0
SECTION
  2
BLOCKS
  0
ENDSEC
  0
SECTION
  2
ENTITIES
  0
LINE
  8
AUFNAHME
  6
PUNKT
 62
     1
 10
82.941995600
 20
7.767357057
 11
79.068756355
 21
-7.767357057
  0
LINE
  8
ZAPFEN
  6
CONTINUOUS
 62
     4
 10
-34.000000000
 20
-8.000000000
 11
-34.000000000
 21
8.000000000
  0
LINE
  8
ZAPFEN
  6
CONTINUOUS
 62
     4
 10
-34.000000000
 20
8.000000000
 11
-35.000000000
 21
7.000000000
  0
LINE
  8
ZAPFEN
  6
CONTINUOUS
 62
     4
 10
-35.000000000
 20
7.000000000
 11
-35.000000000
 21
-7.000000000
  0
LINE
  8
ZAPFEN
  6
CONTINUOUS
 62
     4
 10
-35.000000000
 20
-7.000000000
 11
-34.000000000
 21
-8.000000000
  0
LINE
  8
AUFNAHME
  6
CONTINUOUS
 62
     7
 10
64.999456680
 20
8.000000000
 11
0.000000000
 21
8.000000000
  0
LINE
  8
ZAPFEN
  6
CONTINUOUS
 62
     4
 10
0.000000000
 20
8.000000000
 11
-34.000000000
 21
8.000000000
  0
LINE
  8
ZAPFEN
  6
CONTINUOUS
 62
     4
 10
-34.000000000
 20
-8.000000000
 11
0.000000000
 21
-8.000000000
  0
LINE
  8
AUFNAHME
  6
CONTINUOUS
 62
     7
 10
0.000000000
 20
-8.000000000
 11
64.999456680
 21
-8.000000000
  0
LINE
  8
UNSICHT
  6
GESTRICHELT
 62
     1
 10
-35.000000000
 20
-2.500000000
 11
66.999456680
 21
-2.500000000
  0
LINE
  8
UNSICHT
  6
GESTRICHELT
 62
     1
 10
-35.000000000
 20
2.500000000
 11
66.999456680
 21
2.500000000
  0
LINE
  8
ZAPFEN
  6
STRICHPUNKT
 62
     4
 10
-36.644264735
 20
0.000000000
 11
82.876881930
 21
0.000000000
  0
LINE
  8
ZAPFEN
  6
CONTINUOUS
 62
     4
 10
82.941995600
 20
7.767357057
 11
83.000000000
 21
8.000000000
  0
LINE
  8
UNSICHT
  6
GESTRICHELT
 62
     1
 10
70.182017717
 20
2.698566299
 11
71.815119558
 21
4.475549724
  0
LINE
  8
UNSICHT
  6
GESTRICHELT
 62
     1
 10
71.815119558
 20
4.475549724
 11
80.033776179
 21
2.303474296
  0
LINE
  8
UNSICHT
  6
GESTRICHELT
 62
     1
 10
80.033776179
 20
2.303474296
 11
80.275698075
 21
3.273770022
  0
LINE
  8
UNSICHT
  6
GESTRICHELT
 62
     1
 10
80.275698075
 20
3.273770022
 11
81.731141664
 21
2.910887179
  0
LINE
  8
UNSICHT
  6
GESTRICHELT
 62
     1
 10
80.279610290
 20
-2.910887179
 11
78.824166701
 21
-2.548004335
  0
LINE
  8
UNSICHT
  6
GESTRICHELT
 62
     1
 10
78.824166701
 20
-2.548004335
 11
79.066088597
 21
-1.577708609
  0
LINE
  8
UNSICHT
  6
GESTRICHELT
 62
     1
 10
79.066088597
 20
-1.577708609
 11
70.818574923
 21
0.478627503
  0
LINE
  8
UNSICHT
  6
GESTRICHELT
 62
     1
 10
70.818574923
 20
0.478627503
 11
70.182017717
 21
2.698566299
  0
LINE
  8
AUFNAHME
  6
CONTINUOUS
 62
     7
 10
81.763263645
 20
8.000000000
 11
81.016728297
 21
5.005810259
  0
LINE
  8
UNSICHT
  6
GESTRICHELT
 62
     1
 10
81.016728297
 20
5.005810259
 11
80.566786793
 21
3.201193454
  0
LINE
  8
AUFNAHME
  6
CONTINUOUS
 62
     7
 10
77.331192676
 20
5.000000000
 11
82.253464652
 21
5.000000000
  0
LINE
  8
AUFNAHME
  6
CONTINUOUS
 62
     7
 10
79.068756355
 20
-7.767357057
 11
82.941995600
 21
7.767357057
  0
LINE
  8
AUFNAHME
  6
CONTINUOUS
 62
     7
 10
81.763263645
 20
8.000000000
 11
64.999456680
 21
8.000000000
  0
LINE
  8
AUFNAHME
  6
CONTINUOUS
 62
     7
 10
64.999456680
 20
8.000000000
 11
64.999456680
 21
6.000000000
  0
LINE
  8
AUFNAHME
  6
CONTINUOUS
 62
     7
 10
64.999456680
 20
6.000000000
 11
66.999456680
 21
6.000000000
  0
LINE
  8
AUFNAHME
  6
CONTINUOUS
 62
     7
 10
66.999456680
 20
6.000000000
 11
66.999456680
 21
-6.000000000
  0
LINE
  8
AUFNAHME
  6
CONTINUOUS
 62
     7
 10
66.999456680
 20
-6.000000000
 11
64.999456680
 21
-6.000000000
  0
LINE
  8
AUFNAHME
  6
CONTINUOUS
 62
     7
 10
64.999456680
 20
-6.000000000
 11
64.999456680
 21
-8.000000000
  0
LINE
  8
AUFNAHME
  6
CONTINUOUS
 62
     7
 10
64.999456680
 20
-8.000000000
 11
77.774015599
 21
-8.000000000
  0
LINE
  8
AUFNAHME
  6
CONTINUOUS
 62
     7
 10
77.774015599
 20
-8.000000000
 11
77.832020000
 21
-7.767357057
  0
LINE
  8
UNSICHT
  6
GESTRICHELT
 62
     1
 10
77.832020000
 20
-7.767357057
 11
79.115255419
 21
-2.620580904
  0
LINE
  8
UNSICHT
  6
GESTRICHELT
 62
     1
 10
78.945127649
 20
-2.062856472
 11
73.608501154
 21
-0.732286046
  0
LINE
  8
UNSICHT
  6
GESTRICHELT
 62
     1
 10
73.608501154
 20
-0.732286046
 11
71.918865628
 21
0.204294220
  0
LINE
  8
UNSICHT
  6
GESTRICHELT
 62
     1
 10
73.266007181
 20
4.092100518
 11
74.818110632
 21
4.119192585
  0
LINE
  8
UNSICHT
  6
GESTRICHELT
 62
     1
 10
74.818110632
 20
4.119192585
 11
73.608501154
 21
-0.732286046
  0
LINE
  8
UNSICHT
  6
GESTRICHELT
 62
     1
 10
71.815119558
 20
4.475549724
 11
70.818574923
 21
0.478627503
  0
LINE
  8
UNSICHT
  6
GESTRICHELT
 62
     1
 10
66.999456680
 20
-1.545740384
 11
81.012442881
 21
4.988622395
  0
LINE
  8
UNSICHT
  6
GESTRICHELT
 62
     1
 10
74.876794604
 20
5.370782978
 11
66.999456680
 21
1.764393372
  0
LINE
  8
UNSICHT
  6
GESTRICHELT
 62
     1
 10
80.154737127
 20
2.788622159
 11
74.818110632
 21
4.119192585
  0
LINE
  8
UNSICHT
  6
GESTRICHELT
 62
     1
 10
80.033776179
 20
2.303474296
 11
79.066088597
 21
-1.577708609
  0
LINE
  8
ZAPFEN
  6
STRICHPUNKT
 62
     4
 10
65.533100705
 20
-0.569392858
 11
78.962243775
 21
5.646437019
  0
LINE
  8
ZAPFEN
  6
STRICHPUNKT
 62
     4
 10
68.705147341
 20
3.066791440
 11
82.245673588
 21
-0.309240926
  0
ARC
  8
AUFNAHME
  6
CONTINUOUS
 62
     7
 10
77.300000000
 20
13.000000000
 40
8.000000000
 50
-141.317812547
 51
-88.023506921
  0
LINE
  8
AUFNAHME
  6
CONTINUOUS
 62
     7
 10
81.705259244
 20
7.767357057
 11
82.941995600
 21
7.767357057
  0
LINE
  8
AUFNAHME
  6
CONTINUOUS
 62
     7
 10
77.832020000
 20
-7.767357057
 11
79.068756355
 21
-7.767357057
  0
LINE
  8
FIKTIV
  6
CONTINUOUS
 62
     5
 10
98.995755328
 20
-1.122576473
 11
99.498852857
 21
8.477134028
  0
ARC
  8
FIKTIV
  6
CONTINUOUS
 62
     5
 10
99.099401494
 20
8.498068387
 40
0.399999548
 50
-3.000000000
 51
116.999989000
  0
LINE
  8
FIKTIV
  6
CONTINUOUS
 62
     5
 10
98.917808073
 20
8.854465711
 11
90.352667319
 21
4.490313668
  0
ARC
  8
FIKTIV
  6
CONTINUOUS
 62
     5
 10
90.534263913
 20
4.133909864
 40
0.400001243
 50
117.000018328
 51
-123.000935424
  0
LINE
  8
FIKTIV
  6
CONTINUOUS
 62
     5
 10
90.316403997
 20
3.798447001
 11
91.971727744
 21
2.723466946
  0
LINE
  8
FIKTIV
  6
CONTINUOUS
 62
     5
 10
91.971727744
 20
2.723466946
 11
98.378453140
 21
-1.437110121
  0
ARC
  8
FIKTIV
  6
CONTINUOUS
 62
     5
 10
98.596309610
 20
-1.101642410
 40
0.400000033
 50
-123.000143051
 51
-3.000000000
  0
LINE
  8
FIKTIV
  6
CONTINUOUS
 62
     5
 10
81.969330734
 20
7.998067935
 11
80.374330483
 21
1.600871339
  0
LINE
  8
FIKTIV
  6
CONTINUOUS
 62
     5
 10
78.989530797
 20
-3.953256838
 11
77.980082688
 21
-8.001932065
  0
LINE
  8
FIKTIV
  6
CONTINUOUS
 62
     5
 10
77.980082688
 20
-8.001932065
 11
83.133150835
 21
-8.001932065
  0
LINE
  8
FIKTIV
  6
CONTINUOUS
 62
     5
 10
90.294721865
 20
-6.683249300
 11
98.564007316
 21
-1.908975119
  0
LINE
  8
FIKTIV
  6
CONTINUOUS
 62
     5
 10
98.564007316
 20
-1.908975119
 11
98.585362568
 21
-1.501492618
  0
LINE
  8
FIKTIV
  6
CONTINUOUS
 62
     5
 10
97.237030818
 20
7.998067935
 11
81.969330734
 21
7.998067935
  0
LINE
  8
FIKTIV
  6
CONTINUOUS
 62
     5
 10
93.168512808
 20
5.925056914
 11
92.825511051
 21
6.147804755
  0
LINE
  8
FIKTIV
  6
CONTINUOUS
 62
     5
 10
92.825511051
 20
6.147804755
 11
91.475572038
 21
7.024464992
  0
ARC
  8
FIKTIV
  6
CONTINUOUS
 62
     5
 10
90.604150432
 20
5.682591375
 40
1.600000131
 50
57.000039339
 51
-123.000033530
  0
LINE
  8
FIKTIV
  6
CONTINUOUS
 62
     5
 10
89.732726714
 20
4.340718243
 11
90.138282018
 21
4.077347211
  0
LINE
  8
FIKTIV
  6
CONTINUOUS
 62
     5
 10
90.198907817
 20
3.915879399
 11
89.523350365
 21
4.354591741
  0
LINE
  8
FIKTIV
  6
CONTINUOUS
 62
     5
 10
89.523350365
 20
4.354591741
 11
89.218509672
 21
4.882591309
  0
LINE
  8
FIKTIV
  6
CONTINUOUS
 62
     5
 10
90.259597830
 20
3.698067935
 11
91.942271730
 21
2.605325328
  0
LINE
  8
FIKTIV
  6
CONTINUOUS
 62
     5
 10
91.942271730
 20
2.605325328
 11
98.574857985
 21
-1.701932067
  0
LINE
  8
FIKTIV
  6
CONTINUOUS
 62
     5
 10
93.789355567
 20
-4.665621592
 11
90.129421056
 21
-4.665621592
  0
LINE
  8
FIKTIV
  6
CONTINUOUS
 62
     5
 10
90.129421056
 20
-4.665621592
 11
79.842531945
 21
-4.665621592
  0
LINE
  8
FIKTIV
  6
CONTINUOUS
 62
     5
 10
81.927833951
 20
3.698067935
 11
79.074033935
 21
-7.747898757
  0
LINE
  8
FIKTIV
  6
CONTINUOUS
 62
     5
 10
83.133150835
 20
-8.001932065
 11
83.461935375
 21
-6.683249300
  0
LINE
  8
FIKTIV
  6
CONTINUOUS
 62
     5
 10
83.461935375
 20
-6.683249300
 11
90.294721865
 21
-6.683249300
  0
LINE
  8
FIKTIV
  6
CONTINUOUS
 62
     5
 10
81.344626209
 20
1.358949443
 11
80.374330483
 21
1.600871339
  0
LINE
  8
FIKTIV
  6
CONTINUOUS
 62
     5
 10
78.989530797
 20
-3.953256838
 11
79.959826523
 21
-4.195178733
  0
LINE
  8
FIKTIV
  6
CONTINUOUS
 62
     5
 10
79.074033935
 20
-7.747898757
 11
78.043420305
 21
-7.747898757
  0
LINE
  8
FIKTIV
  6
CONTINUOUS
 62
     5
 10
80.897220321
 20
3.698067935
 11
90.259597830
 21
3.698067935
  0
CIRCLE
  8
FIKTIV
  6
CONTINUOUS
 62
     5
 10
96.076660879
 20
3.843445147
 40
1.900000000
  0
LINE
  8
FIKTIV
  6
CONTINUOUS
 62
     5
 10
98.320826684
 20
-2.049375523
 11
89.470539871
 21
3.698067935
  0
LINE
  8
FIKTIV
  6
CONTINUOUS
 62
     5
 10
95.404937584
 20
-3.732864879
 11
83.962304495
 21
3.698067935
  0
LINE
  8
FIKTIV
  6
CONTINUOUS
 62
     5
 10
97.237030818
 20
7.998067935
 11
97.538555239
 21
7.998067935
  0
LINE
  8
FIKTIV
  6
CONTINUOUS
 62
     5
 10
96.076660879
 20
6.594079165
 11
96.076660879
 21
1.092811129
  0
LINE
  8
FIKTIV
  6
CONTINUOUS
 62
     5
 10
93.381160433
 20
3.851819092
 11
98.437641536
 21
3.851819092
  0
LINE
  8
FIKTIV
  6
CONTINUOUS
 62
     5
 10
99.040935430
 20
7.191355898
 11
98.581815474
 21
-1.569175195
  0
ARC
  8
FIKTIV
  6
CONTINUOUS
 62
     5
 10
98.541620662
 20
7.217523874
 40
0.500000000
 50
-2.999999840
 51
90.000000000
  0
LINE
  8
FIKTIV
  6
CONTINUOUS
 62
     5
 10
97.538555239
 20
7.717523874
 11
98.541620662
 21
7.717523874
  0
LINE
  8
FIKTIV
  6
CONTINUOUS
 62
     5
 10
97.538555239
 20
7.998067935
 11
97.538555239
 21
7.717523874
  0
LINE
  8
FIKTIV
  6
CONTINUOUS
 62
     5
 10
91.287586081
 20
1.969111122
 11
90.196185378
 21
-2.408258008
  0
LINE
  8
FIKTIV
  6
CONTINUOUS
 62
     5
 10
90.828576947
 20
0.128126042
 11
98.569617204
 21
-1.801932065
  0
LINE
  8
FIKTIV
  6
CONTINUOUS
 62
     5
 10
85.950959586
 20
3.299681548
 11
91.287586081
 21
1.969111122
  0
LINE
  8
FIKTIV
  6
CONTINUOUS
 62
     5
 10
80.639829353
 20
2.665729146
 11
85.491307984
 21
1.456119668
  0
LINE
  8
FIKTIV
  6
CONTINUOUS
 62
     5
 10
83.638432259
 20
-5.975358963
 11
78.786953628
 21
-4.765749485
  0
LINE
  8
FIKTIV
  6
CONTINUOUS
 62
     5
 10
85.265267937
 20
-3.713103773
 11
78.015251375
 21
-1.905471623
  0
LINE
  8
FIKTIV
  6
CONTINUOUS
 62
     5
 10
85.860149806
 20
-1.327162919
 11
78.610133243
 21
0.480469232
  0
LINE
  8
FIKTIV
  6
CONTINUOUS
 62
     5
 10
85.950959586
 20
3.299681548
 11
83.461935375
 21
-6.683249300
  0
LINE
  8
MASS
  6
CONTINUOUS
 62
     4
 10
-46.000000000
 20
-8.000000000
 11
-34.000000000
 21
-8.000000000
  0
LINE
  8
MASS
  6
CONTINUOUS
 62
     4
 10
-44.000000000
 20
-8.000000000
 11
-44.450000000
 21
-4.500000000
  0
LINE
  8
MASS
  6
CONTINUOUS
 62
     4
 10
-44.450000000
 20
-4.500000000
 11
-43.550000000
 21
-4.500000000
  0
LINE
  8
MASS
  6
CONTINUOUS
 62
     4
 10
-43.550000000
 20
-4.500000000
 11
-44.000000000
 21
-8.000000000
  0
LINE
  8
MASS
  6
CONTINUOUS
 62
     4
 10
-44.000000000
 20
-4.600000000
 11
-44.000000000
 21
-7.900000000
  0
LINE
  8
MASS
  6
CONTINUOUS
 62
     4
 10
-43.800000000
 20
-4.600000000
 11
-43.800000000
 21
-6.344444444
  0
LINE
  8
MASS
  6
CONTINUOUS
 62
     4
 10
-44.200000000
 20
-4.600000000
 11
-44.200000000
 21
-6.344444444
  0
LINE
  8
MASS
  6
CONTINUOUS
 62
     4
 10
-43.600000000
 20
-4.600000000
 11
-43.600000000
 21
-4.788888889
  0
LINE
  8
MASS
  6
CONTINUOUS
 62
     4
 10
-44.400000000
 20
-4.600000000
 11
-44.400000000
 21
-4.788888889
  0
LINE
  8
MASS
  6
CONTINUOUS
 62
     4
 10
-46.000000000
 20
8.000000000
 11
-34.000000000
 21
8.000000000
  0
LINE
  8
MASS
  6
CONTINUOUS
 62
     4
 10
-44.000000000
 20
8.000000000
 11
-43.550000000
 21
4.500000000
  0
LINE
  8
MASS
  6
CONTINUOUS
 62
     4
 10
-43.550000000
 20
4.500000000
 11
-44.450000000
 21
4.500000000
  0
LINE
  8
MASS
  6
CONTINUOUS
 62
     4
 10
-44.450000000
 20
4.500000000
 11
-44.000000000
 21
8.000000000
  0
LINE
  8
MASS
  6
CONTINUOUS
 62
     4
 10
-44.000000000
 20
4.600000000
 11
-44.000000000
 21
7.900000000
  0
LINE
  8
MASS
  6
CONTINUOUS
 62
     4
 10
-44.200000000
 20
4.600000000
 11
-44.200000000
 21
6.344444444
  0
LINE
  8
MASS
  6
CONTINUOUS
 62
     4
 10
-43.800000000
 20
4.600000000
 11
-43.800000000
 21
6.344444444
  0
LINE
  8
MASS
  6
CONTINUOUS
 62
     4
 10
-44.400000000
 20
4.600000000
 11
-44.400000000
 21
4.788888889
  0
LINE
  8
MASS
  6
CONTINUOUS
 62
     4
 10
-43.600000000
 20
4.600000000
 11
-43.600000000
 21
4.788888889
  0
LINE
  8
MASS
  6
CONTINUOUS
 62
     4
 10
-44.000000000
 20
-4.500000000
 11
-44.000000000
 21
4.500000000
  0
TEXT
  8
MASS
  6
CONTINUOUS
 62
     4
 10
-45.500000000
 20
0.522812321
 40
3.500000000
  1
16
 50
90.000000000
 41
1.000
 51
0.000000000
  7
STANDARD
  0
CIRCLE
  8
MASS
  6
CONTINUOUS
 62
     4
 10
-46.750000000
 20
-1.727187679
 40
1.250000000
  0
LINE
  8
MASS
  6
CONTINUOUS
 62
     4
 10
-45.500000000
 20
-2.977187679
 11
-48.000000000
 21
-0.477187679
  0
LINE
  8
MASS
  6
CONTINUOUS
 62
     4
 10
-35.000000000
 20
-22.000000000
 11
-35.000000000
 21
-7.000000000
  0
LINE
  8
MASS
  6
CONTINUOUS
 62
     4
 10
-35.000000000
 20
-20.000000000
 11
-31.500000000
 21
-19.550000000
  0
LINE
  8
MASS
  6
CONTINUOUS
 62
     4
 10
-31.500000000
 20
-19.550000000
 11
-31.500000000
 21
-20.450000000
  0
LINE
  8
MASS
  6
CONTINUOUS
 62
     4
 10
-31.500000000
 20
-20.450000000
 11
-35.000000000
 21
-20.000000000
  0
LINE
  8
MASS
  6
CONTINUOUS
 62
     4
 10
-31.600000000
 20
-20.000000000
 11
-34.900000000
 21
-20.000000000
  0
LINE
  8
MASS
  6
CONTINUOUS
 62
     4
 10
-31.600000000
 20
-20.200000000
 11
-33.344444444
 21
-20.200000000
  0
LINE
  8
MASS
  6
CONTINUOUS
 62
     4
 10
-31.600000000
 20
-19.800000000
 11
-33.344444444
 21
-19.800000000
  0
LINE
  8
MASS
  6
CONTINUOUS
 62
     4
 10
-31.600000000
 20
-20.400000000
 11
-31.788888889
 21
-20.400000000
  0
LINE
  8
MASS
  6
CONTINUOUS
 62
     4
 10
-31.600000000
 20
-19.600000000
 11
-31.788888889
 21
-19.600000000
  0
LINE
  8
MASS
  6
CONTINUOUS
 62
     4
 10
0.000000000
 20
-22.000000000
 11
0.000000000
 21
-10.000000000
  0
LINE
  8
MASS
  6
CONTINUOUS
 62
     4
 10
0.000000000
 20
-20.000000000
 11
-3.500000000
 21
-20.450000000
  0
LINE
  8
MASS
  6
CONTINUOUS
 62
     4
 10
-3.500000000
 20
-20.450000000
 11
-3.500000000
 21
-19.550000000
  0
LINE
  8
MASS
  6
CONTINUOUS
 62
     4
 10
-3.500000000
 20
-19.550000000
 11
0.000000000
 21
-20.000000000
  0
LINE
  8
MASS
  6
CONTINUOUS
 62
     4
 10
-3.400000000
 20
-20.000000000
 11
-0.100000000
 21
-20.000000000
  0
LINE
  8
MASS
  6
CONTINUOUS
 62
     4
 10
-3.400000000
 20
-19.800000000
 11
-1.655555556
 21
-19.800000000
  0
LINE
  8
MASS
  6
CONTINUOUS
 62
     4
 10
-3.400000000
 20
-20.200000000
 11
-1.655555556
 21
-20.200000000
  0
LINE
  8
MASS
  6
CONTINUOUS
 62
     4
 10
-3.400000000
 20
-19.600000000
 11
-3.211111111
 21
-19.600000000
  0
LINE
  8
MASS
  6
CONTINUOUS
 62
     4
 10
-3.400000000
 20
-20.400000000
 11
-3.211111111
 21
-20.400000000
  0
LINE
  8
MASS
  6
CONTINUOUS
 62
     4
 10
-31.500000000
 20
-20.000000000
 11
-3.500000000
 21
-20.000000000
  0
TEXT
  8
MASS
  6
CONTINUOUS
 62
     4
 10
-15.437500391
 20
-18.500000000
 40
3.500000000
  1
35
 50
0.000000000
 41
1.000
 51
0.000000000
  7
STANDARD
  0
TEXT
  8
MASS
  6
CONTINUOUS
 62
     4
 10
-22.290312891
 20
-18.500000000
 40
3.500000000
  1
min.
 50
0.000000000
 41
1.000
 51
0.000000000
  7
STANDARD
  0
LINE
  8
MASS
  6
CONTINUOUS
 62
     4
 10
0.000000000
 20
-22.000000000
 11
0.000000000
 21
-10.000000000
  0
LINE
  8
MASS
  6
CONTINUOUS
 62
     4
 10
0.000000000
 20
-20.000000000
 11
3.499999998
 21
-19.549999981
  0
LINE
  8
MASS
  6
CONTINUOUS
 62
     4
 10
3.499999998
 20
-19.549999981
 11
3.500000002
 21
-20.449999981
  0
LINE
  8
MASS
  6
CONTINUOUS
 62
     4
 10
3.500000002
 20
-20.449999981
 11
0.000000000
 21
-20.000000000
  0
LINE
  8
MASS
  6
CONTINUOUS
 62
     4
 10
3.400000000
 20
-19.999999982
 11
0.100000000
 21
-19.999999999
  0
LINE
  8
MASS
  6
CONTINUOUS
 62
     4
 10
3.400000001
 20
-20.199999982
 11
1.655555557
 21
-20.199999991
  0
LINE
  8
MASS
  6
CONTINUOUS
 62
     4
 10
3.399999999
 20
-19.799999982
 11
1.655555554
 21
-19.799999991
  0
LINE
  8
MASS
  6
CONTINUOUS
 62
     4
 10
3.400000002
 20
-20.399999982
 11
3.211111113
 21
-20.399999983
  0
LINE
  8
MASS
  6
CONTINUOUS
 62
     4
 10
3.399999998
 20
-19.599999982
 11
3.211111109
 21
-19.599999983
  0
LINE
  8
MASS
  6
CONTINUOUS
 62
     4
 10
99.499401042
 20
-21.999999469
 11
99.499401042
 21
8.498068387
  0
LINE
  8
MASS
  6
CONTINUOUS
 62
     4
 10
99.499401042
 20
-19.999999469
 11
95.999401044
 21
-20.449999488
  0
LINE
  8
MASS
  6
CONTINUOUS
 62
     4
 10
95.999401044
 20
-20.449999488
 11
95.999401039
 21
-19.549999488
  0
LINE
  8
MASS
  6
CONTINUOUS
 62
     4
 10
95.999401039
 20
-19.549999488
 11
99.499401042
 21
-19.999999469
  0
LINE
  8
MASS
  6
CONTINUOUS
 62
     4
 10
96.099401042
 20
-19.999999487
 11
99.399401042
 21
-19.999999470
  0
LINE
  8
MASS
  6
CONTINUOUS
 62
     4
 10
96.099401041
 20
-19.799999487
 11
97.843845485
 21
-19.799999478
  0
LINE
  8
MASS
  6
CONTINUOUS
 62
     4
 10
96.099401043
 20
-20.199999487
 11
97.843845487
 21
-20.199999478
  0
LINE
  8
MASS
  6
CONTINUOUS
 62
     4
 10
96.099401040
 20
-19.599999487
 11
96.288289929
 21
-19.599999486
  0
LINE
  8
MASS
  6
CONTINUOUS
 62
     4
 10
96.099401044
 20
-20.399999487
 11
96.288289933
 21
-20.399999486
  0
LINE
  8
MASS
  6
CONTINUOUS
 62
     4
 10
3.500000000
 20
-19.999999981
 11
95.999401042
 21
-19.999999488
  0
TEXT
  8
MASS
  6
CONTINUOUS
 62
     4
 10
50.663761901
 20
-18.499999730
 40
3.500000000
  1
100
 50
0.000000306
 41
1.000
 51
0.000000000
  7
STANDARD
  0
TEXT
  8
MASS
  6
CONTINUOUS
 62
     4
 10
44.029699401
 20
-18.499999765
 40
3.500000000
  1
50-
 50
0.000000306
 41
1.000
 51
0.000000000
  7
STANDARD
  0
LINE
  8
MASS
  6
CONTINUOUS
 62
     4
 10
114.000000020
 20
8.898068586
 11
99.099401494
 21
8.898067935
  0
LINE
  8
MASS
  6
CONTINUOUS
 62
     4
 10
112.000000020
 20
8.898068499
 11
112.449999867
 21
12.398068518
  0
LINE
  8
MASS
  6
CONTINUOUS
 62
     4
 10
112.449999867
 20
12.398068518
 11
111.549999867
 21
12.398068479
  0
LINE
  8
MASS
  6
CONTINUOUS
 62
     4
 10
111.549999867
 20
12.398068479
 11
112.000000020
 21
8.898068499
  0
LINE
  8
MASS
  6
CONTINUOUS
 62
     4
 10
111.999999871
 20
12.298068499
 11
112.000000015
 21
8.998068499
  0
LINE
  8
MASS
  6
CONTINUOUS
 62
     4
 10
112.199999871
 20
12.298068507
 11
112.199999947
 21
10.553624063
  0
LINE
  8
MASS
  6
CONTINUOUS
 62
     4
 10
111.799999871
 20
12.298068490
 11
111.799999947
 21
10.553624045
  0
LINE
  8
MASS
  6
CONTINUOUS
 62
     4
 10
112.399999871
 20
12.298068516
 11
112.399999879
 21
12.109179627
  0
LINE
  8
MASS
  6
CONTINUOUS
 62
     4
 10
111.599999871
 20
12.298068481
 11
111.599999879
 21
12.109179592
  0
LINE
  8
MASS
  6
CONTINUOUS
 62
     4
 10
111.999999867
 20
12.398068499
 11
111.999998607
 21
41.218898786
  0
LINE
  8
MASS
  6
CONTINUOUS
 62
     4
 10
112.000000798
 20
-8.898065953
 11
112.000000020
 21
8.898068499
  0
TEXT
  8
MASS
  6
CONTINUOUS
 62
     4
 10
110.914106894
 20
16.435148739
 40
3.500000000
  1
17.8
 50
90.000002504
 41
1.000
 51
0.000000000
  7
STANDARD
  0
CIRCLE
  8
MASS
  6
CONTINUOUS
 62
     4
 10
109.664106992
 20
14.185148684
 40
1.250000000
  0
LINE
  8
MASS
  6
CONTINUOUS
 62
     4
 10
110.914107047
 20
12.935148739
 11
108.414106938
 21
15.435148630
  0
TEXT
  8
MASS
  6
CONTINUOUS
 62
     4
 10
110.914106575
 20
23.725461239
 40
3.500000000
  1
-33.0(40.0)
 50
90.000002504
 41
1.000
 51
0.000000000
  7
STANDARD
  0
LINE
  8
MASS
  6
CONTINUOUS
 62
     4
 10
-35.000000000
 20
18.000000000
 11
-35.000000000
 21
7.000000000
  0
LINE
  8
MASS
  6
CONTINUOUS
 62
     4
 10
-35.000000000
 20
16.000000000
 11
-31.500000000
 21
16.450000000
  0
LINE
  8
MASS
  6
CONTINUOUS
 62
     4
 10
-31.500000000
 20
16.450000000
 11
-31.500000000
 21
15.550000000
  0
LINE
  8
MASS
  6
CONTINUOUS
 62
     4
 10
-31.500000000
 20
15.550000000
 11
-35.000000000
 21
16.000000000
  0
LINE
  8
MASS
  6
CONTINUOUS
 62
     4
 10
-31.600000000
 20
16.000000000
 11
-34.900000000
 21
16.000000000
  0
LINE
  8
MASS
  6
CONTINUOUS
 62
     4
 10
-31.600000000
 20
15.800000000
 11
-33.344444444
 21
15.800000000
  0
LINE
  8
MASS
  6
CONTINUOUS
 62
     4
 10
-31.600000000
 20
16.200000000
 11
-33.344444444
 21
16.200000000
  0
LINE
  8
MASS
  6
CONTINUOUS
 62
     4
 10
-31.600000000
 20
15.600000000
 11
-31.788888889
 21
15.600000000
  0
LINE
  8
MASS
  6
CONTINUOUS
 62
     4
 10
-31.600000000
 20
16.400000000
 11
-31.788888889
 21
16.400000000
  0
LINE
  8
MASS
  6
CONTINUOUS
 62
     4
 10
83.000000000
 20
18.000000000
 11
83.000000000
 21
8.000000000
  0
LINE
  8
MASS
  6
CONTINUOUS
 62
     4
 10
83.000000000
 20
16.000000000
 11
79.500000000
 21
15.550000000
  0
LINE
  8
MASS
  6
CONTINUOUS
 62
     4
 10
79.500000000
 20
15.550000000
 11
79.500000000
 21
16.450000000
  0
LINE
  8
MASS
  6
CONTINUOUS
 62
     4
 10
79.500000000
 20
16.450000000
 11
83.000000000
 21
16.000000000
  0
LINE
  8
MASS
  6
CONTINUOUS
 62
     4
 10
79.600000000
 20
16.000000000
 11
82.900000000
 21
16.000000000
  0
LINE
  8
MASS
  6
CONTINUOUS
 62
     4
 10
79.600000000
 20
16.200000000
 11
81.344444444
 21
16.200000000
  0
LINE
  8
MASS
  6
CONTINUOUS
 62
     4
 10
79.600000000
 20
15.800000000
 11
81.344444444
 21
15.800000000
  0
LINE
  8
MASS
  6
CONTINUOUS
 62
     4
 10
79.600000000
 20
16.400000000
 11
79.788888889
 21
16.400000000
  0
LINE
  8
MASS
  6
CONTINUOUS
 62
     4
 10
79.600000000
 20
15.600000000
 11
79.788888889
 21
15.600000000
  0
LINE
  8
MASS
  6
CONTINUOUS
 62
     4
 10
-31.500000000
 20
16.000000000
 11
79.500000000
 21
16.000000000
  0
TEXT
  8
MASS
  6
CONTINUOUS
 62
     4
 10
21.979842431
 20
17.500000000
 40
3.500000000
  1
118
 50
0.000000000
 41
1.000
 51
0.000000000
  7
STANDARD
  0
TEXT
  8
MASS
  6
CONTINUOUS
 62
     4
 10
51.241035855
 20
-7.026580989
 40
3.500000000
  1
615.252
 50
0.000000000
 41
1.000
 51
0.000000000
  7
STANDARD
  0
ENDSEC
  0
EOF
