999
NT  : 16.0 - 919
  0
SECTION
  2
HEADER
  9
$ACADVER
  1
AC1006
  9
$INSBASE
 10
0.000000000
 20
0.000000000
  9
$EXTMIN
 10
-42.410000011
 20
-32.356376675
  9
$EXTMAX
 10
101.410001080
 20
57.558090257
  9
$LIMMIN
 10
-42.410000011
 20
-32.356376675
  9
$LIMMAX
 10
101.410001080
 20
57.558090257
  9
$AUNITS
 70
     2
  9
$ANGBASE
 50
0.000
  9
$ANGDIR
 70
     0
  0
ENDSEC
  0
SECTION
  2
TABLES
  0
TABLE
  2
LTYPE
 70
     8
  0
LTYPE
  2
PUNKT
 70
    64
  3
..............
 72
    65
 73
     2
 40
1.500
 49
0.700
 49
-0.800
  0
LTYPE
  2
GESTRICHELT
 70
    64
  3
-- -- -- -- --
 72
    65
 73
     7
 40
2.800
 49
0.900
 49
0.000
 49
0.900
 49
0.000
 49
0.200
 49
0.000
 49
-0.800
  0
LTYPE
  2
STRICHPUNKT
 70
    64
  3
--.--.--.--.--
 72
    65
 73
     4
 40
8.800
 49
5.500
 49
-1.300
 49
0.700
 49
-1.300
  0
LTYPE
  2
STRICHPUNKT
 70
    64
  3
--.--.--.--.--
 72
    65
 73
     4
 40
8.800
 49
5.500
 49
-1.300
 49
0.700
 49
-1.300
  0
LTYPE
  2
STRICHPUNKT
 70
    64
  3
--.--.--.--.--
 72
    65
 73
     4
 40
8.800
 49
5.500
 49
-1.300
 49
0.700
 49
-1.300
  0
LTYPE
  2
PHANTOM
 70
    64
  3
--..--..--..--
 72
    65
 73
     6
 40
14.200
 49
7.000
 49
-1.800
 49
0.900
 49
-1.800
 49
0.900
 49
-1.800
  0
LTYPE
  2
PHANTOM
 70
    64
  3
--..--..--..--
 72
    65
 73
     6
 40
14.200
 49
7.000
 49
-1.800
 49
0.900
 49
-1.800
 49
0.900
 49
-1.800
  0
LTYPE
  2
PHANTOM
 70
    64
  3
--..--..--..--
 72
    65
 73
     6
 40
14.200
 49
7.000
 49
-1.800
 49
0.900
 49
-1.800
 49
0.900
 49
-1.800
  0
ENDTAB
  0
ENDSEC
  0
SECTION
  2
BLOCKS
  0
ENDSEC
  0
SECTION
  2
ENTITIES
  0
LINE
  8
ZAPFEN
  6
CONTINUOUS
 62
     4
 10
70.500000000
 20
-5.000000000
 11
71.500000000
 21
-4.000000000
  0
LINE
  8
AUFNAHME
  6
CONTINUOUS
 62
     7
 10
45.000000000
 20
-6.999996185
 11
46.000000000
 21
-7.999996185
  0
LINE
  8
AUFNAHME
  6
CONTINUOUS
 62
     7
 10
45.000000000
 20
7.000000000
 11
46.000000000
 21
8.000000000
  0
LINE
  8
AUFNAHME
  6
CONTINUOUS
 62
     7
 10
62.000000000
 20
8.000000000
 11
62.000000000
 21
-7.999996185
  0
LINE
  8
AUFNAHME
  6
CONTINUOUS
 62
     7
 10
46.000000000
 20
8.000000000
 11
52.500000000
 21
8.000000000
  0
LINE
  8
AUFNAHME
  6
CONTINUOUS
 62
     7
 10
46.000000000
 20
-7.999996185
 11
52.500000000
 21
-7.999996185
  0
LINE
  8
AUFNAHME
  6
CONTINUOUS
 62
     7
 10
59.500000000
 20
8.000000000
 11
59.500000000
 21
7.000000000
  0
LINE
  8
AUFNAHME
  6
CONTINUOUS
 62
     7
 10
52.500000000
 20
8.000000000
 11
52.500000000
 21
7.000000000
  0
LINE
  8
AUFNAHME
  6
CONTINUOUS
 62
     7
 10
45.000000000
 20
-6.999996185
 11
45.000000000
 21
7.000000000
  0
LINE
  8
AUFNAHME
  6
CONTINUOUS
 62
     7
 10
52.500000000
 20
7.000000000
 11
59.500000000
 21
7.000000000
  0
LINE
  8
AUFNAHME
  6
CONTINUOUS
 62
     7
 10
52.500000000
 20
-6.999996185
 11
59.500000000
 21
-6.999996185
  0
LINE
  8
AUFNAHME
  6
CONTINUOUS
 62
     7
 10
59.500000000
 20
8.000000000
 11
62.000000000
 21
8.000000000
  0
LINE
  8
AUFNAHME
  6
CONTINUOUS
 62
     7
 10
59.500000000
 20
-7.999996185
 11
62.000000000
 21
-7.999996185
  0
LINE
  8
AUFNAHME
  6
CONTINUOUS
 62
     7
 10
52.500000000
 20
-6.999996185
 11
52.500000000
 21
-7.999996185
  0
LINE
  8
AUFNAHME
  6
CONTINUOUS
 62
     7
 10
59.500000000
 20
-6.999996185
 11
59.500000000
 21
-7.999996185
  0
LINE
  8
ZAPFEN
  6
CONTINUOUS
 62
     4
 10
-28.999998093
 20
-5.999996185
 11
0.000000000
 21
-5.999996185
  0
LINE
  8
AUFNAHME
  6
CONTINUOUS
 62
     7
 10
0.000000000
 20
-5.999996185
 11
45.000000000
 21
-5.999996185
  0
LINE
  8
ZAPFEN
  6
CONTINUOUS
 62
     4
 10
-28.999998093
 20
6.000000000
 11
0.000000000
 21
6.000000000
  0
LINE
  8
AUFNAHME
  6
CONTINUOUS
 62
     7
 10
0.000000000
 20
6.000000000
 11
45.000000000
 21
6.000000000
  0
LINE
  8
UNSICHT
  6
GESTRICHELT
 62
     1
 10
-30.000000000
 20
-1.999996185
 11
71.500000000
 21
-1.999996185
  0
LINE
  8
UNSICHT
  6
GESTRICHELT
 62
     1
 10
-30.000000000
 20
2.000007629
 11
71.500000000
 21
2.000007629
  0
LINE
  8
ZAPFEN
  6
CONTINUOUS
 62
     4
 10
-28.999998093
 20
6.000001907
 11
-28.999998093
 21
-5.999994278
  0
LINE
  8
ZAPFEN
  6
CONTINUOUS
 62
     4
 10
-30.000000000
 20
-4.999994278
 11
-29.000000000
 21
-5.999994278
  0
LINE
  8
ZAPFEN
  6
CONTINUOUS
 62
     4
 10
-30.000000000
 20
5.000001907
 11
-28.999998093
 21
6.000001907
  0
LINE
  8
ZAPFEN
  6
CONTINUOUS
 62
     4
 10
-30.000000000
 20
5.000001907
 11
-30.000000000
 21
-4.999994278
  0
LINE
  8
ZAPFEN
  6
STRICHPUNKT
 62
     4
 10
-32.539547929
 20
0.000000000
 11
90.932835126
 21
0.000000000
  0
LINE
  8
ZAPFEN
  6
CONTINUOUS
 62
     4
 10
62.000000000
 20
5.000000000
 11
70.500000000
 21
5.000000000
  0
LINE
  8
ZAPFEN
  6
CONTINUOUS
 62
     4
 10
62.000000000
 20
-5.000000000
 11
70.500000000
 21
-5.000000000
  0
LINE
  8
ZAPFEN
  6
CONTINUOUS
 62
     4
 10
71.500000000
 20
4.000000000
 11
71.500000000
 21
-4.000000000
  0
LINE
  8
ZAPFEN
  6
CONTINUOUS
 62
     4
 10
62.000000000
 20
4.188000000
 11
71.312000000
 21
4.188000000
  0
LINE
  8
ZAPFEN
  6
CONTINUOUS
 62
     4
 10
62.000000000
 20
-4.188000000
 11
71.312000000
 21
-4.188000000
  0
LINE
  8
ZAPFEN
  6
CONTINUOUS
 62
     4
 10
70.500000000
 20
5.000000000
 11
70.500000000
 21
-5.000000000
  0
LINE
  8
ZAPFEN
  6
CONTINUOUS
 62
     4
 10
70.500000000
 20
5.000000000
 11
71.500000000
 21
4.000000000
  0
LINE
  8
AUFNAHME
  6
CONTINUOUS
 62
     7
 10
46.000000000
 20
8.000000000
 11
46.000000000
 21
-7.999996185
  0
LINE
  8
FIKTIV
  6
CONTINUOUS
 62
     5
 10
79.817001340
 20
3.800369260
 11
87.879051210
 21
-1.435180660
  0
LINE
  8
FIKTIV
  6
CONTINUOUS
 62
     5
 10
79.853256230
 20
4.492233280
 11
88.418403630
 21
8.856399540
  0
LINE
  8
FIKTIV
  6
CONTINUOUS
 62
     5
 10
88.496368410
 20
-1.120651250
 11
88.999443050
 21
8.479049680
  0
ARC
  8
FIKTIV
  6
CONTINUOUS
 62
     5
 10
80.034858700
 20
4.135833740
 40
0.400000630
 50
117.000549320
 51
-123.000000000
  0
ARC
  8
FIKTIV
  6
CONTINUOUS
 62
     5
 10
88.599990840
 20
8.499984740
 40
0.400008260
 50
-3.000549320
 51
116.998657230
  0
CIRCLE
  8
FIKTIV
  6
CONTINUOUS
 62
     5
 10
85.577255250
 20
3.845367430
 40
1.250000000
  0
ARC
  8
FIKTIV
  6
CONTINUOUS
 62
     5
 10
88.096908570
 20
-1.099716190
 40
0.400014880
 50
-123.000000000
 51
-2.999206540
  0
LINE
  8
AUFNAHME
  6
CONTINUOUS
 62
     7
 10
62.000000000
 20
8.000000000
 11
62.000000000
 21
-8.000000000
  0
LINE
  8
FIKTIV
  6
CONTINUOUS
 62
     5
 10
67.000000000
 20
8.000000000
 11
62.000000000
 21
8.000000000
  0
LINE
  8
FIKTIV
  6
CONTINUOUS
 62
     5
 10
67.000000000
 20
8.000000000
 11
67.000000000
 21
-8.000000000
  0
LINE
  8
FIKTIV
  6
CONTINUOUS
 62
     5
 10
67.000000000
 20
8.000000000
 11
68.000000000
 21
7.000000000
  0
LINE
  8
FIKTIV
  6
CONTINUOUS
 62
     5
 10
78.999954220
 20
7.000000000
 11
74.000000000
 21
7.000000000
  0
LINE
  8
FIKTIV
  6
CONTINUOUS
 62
     5
 10
68.500000000
 20
7.000000000
 11
68.500000000
 21
6.000000000
  0
LINE
  8
FIKTIV
  6
CONTINUOUS
 62
     5
 10
74.000000000
 20
7.000000000
 11
74.000000000
 21
6.000000000
  0
LINE
  8
FIKTIV
  6
CONTINUOUS
 62
     5
 10
74.000000000
 20
6.000000000
 11
68.500000000
 21
6.000000000
  0
LINE
  8
FIKTIV
  6
CONTINUOUS
 62
     5
 10
68.500000000
 20
7.000000000
 11
68.000000000
 21
7.000000000
  0
LINE
  8
FIKTIV
  6
CONTINUOUS
 62
     5
 10
83.000000000
 20
-5.267944340
 11
75.917099000
 21
7.000000000
  0
LINE
  8
FIKTIV
  6
CONTINUOUS
 62
     5
 10
79.000000000
 20
7.000000000
 11
86.974601750
 21
8.120742800
  0
ARC
  8
FIKTIV
  6
CONTINUOUS
 62
     5
 10
77.194899584
 20
4.949732557
 40
2.415858312
 50
121.932673445
 51
161.862404739
  0
ARC
  8
FIKTIV
  6
CONTINUOUS
 62
     5
 10
79.928213835
 20
4.029301591
 40
5.299942468
 50
161.604943934
 51
-174.654302224
  0
ARC
  8
FIKTIV
  6
CONTINUOUS
 62
     5
 10
85.382241693
 20
4.348082761
 40
10.761638600
 50
-175.669807349
 51
-160.924466494
  0
ARC
  8
FIKTIV
  6
CONTINUOUS
 62
     5
 10
89.807629186
 20
5.739196386
 40
15.399219516
 50
-161.413946821
 51
-149.829778244
  0
ARC
  8
FIKTIV
  6
CONTINUOUS
 62
     5
 10
89.853380466
 20
5.659954762
 40
15.399220478
 50
-150.170225558
 51
-138.586056981
  0
ARC
  8
FIKTIV
  6
CONTINUOUS
 62
     5
 10
86.435942973
 20
2.523011569
 40
10.761635222
 50
-139.075533033
 51
-124.330185332
  0
ARC
  8
FIKTIV
  6
CONTINUOUS
 62
     5
 10
84.548524737
 20
-0.094600834
 40
7.536027387
 50
-123.703687843
 51
-120.543013008
  0
ARC
  8
FIKTIV
  6
CONTINUOUS
 62
     5
 10
76.597404881
 20
2.855016648
 40
0.555205588
 50
121.720803377
 51
160.569365148
  0
ARC
  8
FIKTIV
  6
CONTINUOUS
 62
     5
 10
77.161551713
 20
2.653406188
 40
1.154292831
 50
160.447476818
 51
-175.617145677
  0
ARC
  8
FIKTIV
  6
CONTINUOUS
 62
     5
 10
78.277519239
 20
2.701470907
 40
2.270977340
 50
-176.559734889
 51
-161.369274225
  0
ARC
  8
FIKTIV
  6
CONTINUOUS
 62
     5
 10
79.179040755
 20
2.976728134
 40
3.213307273
 50
-161.853811119
 51
-149.828206047
  0
ARC
  8
FIKTIV
  6
CONTINUOUS
 62
     5
 10
79.188680862
 20
2.960033666
 40
3.213308643
 50
-150.171946265
 51
-138.146341193
  0
ARC
  8
FIKTIV
  6
CONTINUOUS
 62
     5
 10
78.499536071
 20
2.316924537
 40
2.270977413
 50
-138.630816714
 51
-123.440356050
  0
ARC
  8
FIKTIV
  6
CONTINUOUS
 62
     5
 10
77.899925149
 20
1.374500345
 40
1.154291629
 50
-124.382964763
 51
-100.447569122
  0
ARC
  8
FIKTIV
  6
CONTINUOUS
 62
     5
 10
77.792451521
 20
0.785130492
 40
0.555205241
 50
-100.569541808
 51
-61.721000076
  0
ARC
  8
FIKTIV
  6
CONTINUOUS
 62
     5
 10
77.763571709
 20
0.768456221
 40
0.555204783
 50
-58.279073677
 51
-19.430514133
  0
ARC
  8
FIKTIV
  6
CONTINUOUS
 62
     5
 10
77.199424616
 20
0.970068038
 40
1.154292723
 50
-19.552524315
 51
4.382855457
  0
ARC
  8
FIKTIV
  6
CONTINUOUS
 62
     5
 10
76.083461821
 20
0.922007746
 40
2.270972243
 50
3.440161287
 51
18.630651614
  0
ARC
  8
FIKTIV
  6
CONTINUOUS
 62
     5
 10
75.181929158
 20
0.646742851
 40
3.213315183
 50
18.146203737
 51
30.171779097
  0
ARC
  8
FIKTIV
  6
CONTINUOUS
 62
     5
 10
75.172295739
 20
0.663440634
 40
3.213309107
 50
29.828047755
 51
41.853652827
  0
ARC
  8
FIKTIV
  6
CONTINUOUS
 62
     5
 10
75.861441549
 20
1.306549763
 40
2.270977115
 50
41.369191925
 51
56.559652589
  0
ARC
  8
FIKTIV
  6
CONTINUOUS
 62
     5
 10
76.461052028
 20
2.248972368
 40
1.154292885
 50
55.617078310
 51
79.552442214
  0
ARC
  8
FIKTIV
  6
CONTINUOUS
 62
     5
 10
76.568525319
 20
2.838344041
 40
0.555204769
 50
79.430413478
 51
118.278986382
  0
LINE
  8
FIKTIV
  6
CONTINUOUS
 62
     5
 10
87.411132810
 20
-2.721191410
 11
87.491714480
 21
-1.183639530
  0
LINE
  8
FIKTIV
  6
CONTINUOUS
 62
     5
 10
80.000000000
 20
-7.000000000
 11
87.411132810
 21
-2.721191410
  0
LINE
  8
FIKTIV
  6
CONTINUOUS
 62
     5
 10
67.000000000
 20
-8.000000000
 11
62.000000000
 21
-8.000000000
  0
LINE
  8
FIKTIV
  6
CONTINUOUS
 62
     5
 10
67.000000000
 20
-8.000000000
 11
68.000000000
 21
-7.000000000
  0
LINE
  8
FIKTIV
  6
CONTINUOUS
 62
     5
 10
80.000000000
 20
-7.000000000
 11
74.049987790
 21
-7.000000000
  0
LINE
  8
FIKTIV
  6
CONTINUOUS
 62
     5
 10
74.000000000
 20
-6.000000000
 11
68.500000000
 21
-6.000000000
  0
LINE
  8
FIKTIV
  6
CONTINUOUS
 62
     5
 10
68.500000000
 20
-7.000000000
 11
68.000000000
 21
-7.000000000
  0
LINE
  8
FIKTIV
  6
CONTINUOUS
 62
     5
 10
74.000000000
 20
-6.000000000
 11
74.000000000
 21
-7.000000000
  0
LINE
  8
FIKTIV
  6
CONTINUOUS
 62
     5
 10
68.500000000
 20
-6.000000000
 11
68.500000000
 21
-7.000000000
  0
LINE
  8
MASS
  6
CONTINUOUS
 62
     4
 10
-38.000000000
 20
-5.999996185
 11
-28.999998093
 21
-5.999996185
  0
LINE
  8
MASS
  6
CONTINUOUS
 62
     4
 10
-36.000000000
 20
-5.999996185
 11
-36.450000000
 21
-2.499996185
  0
LINE
  8
MASS
  6
CONTINUOUS
 62
     4
 10
-36.450000000
 20
-2.499996185
 11
-35.550000000
 21
-2.499996185
  0
LINE
  8
MASS
  6
CONTINUOUS
 62
     4
 10
-35.550000000
 20
-2.499996185
 11
-36.000000000
 21
-5.999996185
  0
LINE
  8
MASS
  6
CONTINUOUS
 62
     4
 10
-38.000000000
 20
6.000000000
 11
-28.999998093
 21
6.000000000
  0
LINE
  8
MASS
  6
CONTINUOUS
 62
     4
 10
-36.000000000
 20
6.000000000
 11
-35.550000000
 21
2.500000000
  0
LINE
  8
MASS
  6
CONTINUOUS
 62
     4
 10
-35.550000000
 20
2.500000000
 11
-36.450000000
 21
2.500000000
  0
LINE
  8
MASS
  6
CONTINUOUS
 62
     4
 10
-36.450000000
 20
2.500000000
 11
-36.000000000
 21
6.000000000
  0
LINE
  8
MASS
  6
CONTINUOUS
 62
     4
 10
-36.000000000
 20
-2.499996185
 11
-36.000000000
 21
2.500000000
  0
TEXT
  8
MASS
  6
CONTINUOUS
 62
     4
 10
-37.500000000
 20
0.468126773
 40
3.500000000
  1
12
 50
90.000000000
 41
1.000
 51
0.000000000
  7
STANDARD
  0
CIRCLE
  8
MASS
  6
CONTINUOUS
 62
     4
 10
-38.750000000
 20
-1.781873227
 40
1.250000000
  0
LINE
  8
MASS
  6
CONTINUOUS
 62
     4
 10
-37.500000000
 20
-3.031873227
 11
-40.000000000
 21
-0.531873227
  0
LINE
  8
MASS
  6
CONTINUOUS
 62
     4
 10
-30.000000000
 20
-22.000000000
 11
-30.000000000
 21
-4.999994278
  0
LINE
  8
MASS
  6
CONTINUOUS
 62
     4
 10
-30.000000000
 20
-20.000000000
 11
-26.500000000
 21
-19.550000000
  0
LINE
  8
MASS
  6
CONTINUOUS
 62
     4
 10
-26.500000000
 20
-19.550000000
 11
-26.500000000
 21
-20.450000000
  0
LINE
  8
MASS
  6
CONTINUOUS
 62
     4
 10
-26.500000000
 20
-20.450000000
 11
-30.000000000
 21
-20.000000000
  0
LINE
  8
MASS
  6
CONTINUOUS
 62
     4
 10
0.000000000
 20
-22.000000000
 11
0.000000000
 21
-7.999996185
  0
LINE
  8
MASS
  6
CONTINUOUS
 62
     4
 10
0.000000000
 20
-20.000000000
 11
-3.500000000
 21
-20.450000000
  0
LINE
  8
MASS
  6
CONTINUOUS
 62
     4
 10
-3.500000000
 20
-20.450000000
 11
-3.500000000
 21
-19.550000000
  0
LINE
  8
MASS
  6
CONTINUOUS
 62
     4
 10
-3.500000000
 20
-19.550000000
 11
0.000000000
 21
-20.000000000
  0
LINE
  8
MASS
  6
CONTINUOUS
 62
     4
 10
-26.500000000
 20
-20.000000000
 11
-3.500000000
 21
-20.000000000
  0
TEXT
  8
MASS
  6
CONTINUOUS
 62
     4
 10
-13.046875335
 20
-18.500000000
 40
3.500000000
  1
30
 50
0.000000001
 41
1.000
 51
0.000000000
  7
STANDARD
  0
TEXT
  8
MASS
  6
CONTINUOUS
 62
     4
 10
-19.899687835
 20
-18.500000000
 40
3.500000000
  1
min.
 50
0.000000001
 41
1.000
 51
0.000000000
  7
STANDARD
  0
LINE
  8
MASS
  6
CONTINUOUS
 62
     4
 10
4.000000000
 20
-22.000000000
 11
4.000000000
 21
-7.999996185
  0
LINE
  8
MASS
  6
CONTINUOUS
 62
     4
 10
4.000000000
 20
-20.000000000
 11
7.500000000
 21
-19.550000000
  0
LINE
  8
MASS
  6
CONTINUOUS
 62
     4
 10
7.500000000
 20
-19.550000000
 11
7.500000000
 21
-20.450000000
  0
LINE
  8
MASS
  6
CONTINUOUS
 62
     4
 10
7.500000000
 20
-20.450000000
 11
4.000000000
 21
-20.000000000
  0
LINE
  8
MASS
  6
CONTINUOUS
 62
     4
 10
88.999999100
 20
-22.000000001
 11
88.999999100
 21
8.499984740
  0
LINE
  8
MASS
  6
CONTINUOUS
 62
     4
 10
88.999999100
 20
-20.000000001
 11
85.499999100
 21
-20.450000001
  0
LINE
  8
MASS
  6
CONTINUOUS
 62
     4
 10
85.499999100
 20
-20.450000001
 11
85.499999100
 21
-19.550000001
  0
LINE
  8
MASS
  6
CONTINUOUS
 62
     4
 10
85.499999100
 20
-19.550000001
 11
88.999999100
 21
-20.000000001
  0
LINE
  8
MASS
  6
CONTINUOUS
 62
     4
 10
7.500000000
 20
-20.000000000
 11
85.499999100
 21
-20.000000001
  0
TEXT
  8
MASS
  6
CONTINUOUS
 62
     4
 10
48.371092350
 20
-18.500000000
 40
3.500000000
  1
85
 50
359.999999999
 41
1.000
 51
0.000000000
  7
STANDARD
  0
TEXT
  8
MASS
  6
CONTINUOUS
 62
     4
 10
41.518279850
 20
-18.500000000
 40
3.500000000
  1
40-
 50
359.999999999
 41
1.000
 51
0.000000000
  7
STANDARD
  0
LINE
  8
MASS
  6
CONTINUOUS
 62
     4
 10
-30.000000000
 20
18.000000000
 11
-30.000000000
 21
5.000001907
  0
LINE
  8
MASS
  6
CONTINUOUS
 62
     4
 10
-30.000000000
 20
16.000000000
 11
-26.500000000
 21
16.450000000
  0
LINE
  8
MASS
  6
CONTINUOUS
 62
     4
 10
-26.500000000
 20
16.450000000
 11
-26.500000000
 21
15.550000000
  0
LINE
  8
MASS
  6
CONTINUOUS
 62
     4
 10
-26.500000000
 20
15.550000000
 11
-30.000000000
 21
16.000000000
  0
LINE
  8
MASS
  6
CONTINUOUS
 62
     4
 10
62.000000000
 20
18.000000000
 11
62.000000000
 21
8.000000000
  0
LINE
  8
MASS
  6
CONTINUOUS
 62
     4
 10
62.000000000
 20
16.000000000
 11
58.500000000
 21
15.550000000
  0
LINE
  8
MASS
  6
CONTINUOUS
 62
     4
 10
58.500000000
 20
15.550000000
 11
58.500000000
 21
16.450000000
  0
LINE
  8
MASS
  6
CONTINUOUS
 62
     4
 10
58.500000000
 20
16.450000000
 11
62.000000000
 21
16.000000000
  0
LINE
  8
MASS
  6
CONTINUOUS
 62
     4
 10
-26.500000000
 20
16.000000000
 11
58.500000000
 21
16.000000000
  0
TEXT
  8
MASS
  6
CONTINUOUS
 62
     4
 10
14.389998972
 20
17.500000000
 40
3.500000000
  1
92
 50
0.000000000
 41
1.000
 51
0.000000000
  7
STANDARD
  0
LINE
  8
MASS
  6
CONTINUOUS
 62
     4
 10
102.000000112
 20
8.899993586
 11
88.599990840
 21
8.899993000
  0
LINE
  8
MASS
  6
CONTINUOUS
 62
     4
 10
100.000000112
 20
8.899993498
 11
100.449999959
 21
12.399993518
  0
LINE
  8
MASS
  6
CONTINUOUS
 62
     4
 10
100.449999959
 20
12.399993518
 11
99.549999959
 21
12.399993479
  0
LINE
  8
MASS
  6
CONTINUOUS
 62
     4
 10
99.549999959
 20
12.399993479
 11
100.000000112
 21
8.899993498
  0
LINE
  8
MASS
  6
CONTINUOUS
 62
     4
 10
99.999999959
 20
12.399993498
 11
99.999998525
 21
45.201713583
  0
LINE
  8
MASS
  6
CONTINUOUS
 62
     4
 10
100.000000890
 20
-8.899992706
 11
100.000000112
 21
8.899993498
  0
TEXT
  8
MASS
  6
CONTINUOUS
 62
     4
 10
99.017835071
 20
17.136713541
 40
3.500000000
  1
17.8
 50
90.000002504
 41
1.000
 51
0.000000000
  7
STANDARD
  0
CIRCLE
  8
MASS
  6
CONTINUOUS
 62
     4
 10
97.767835169
 20
14.886713486
 40
1.250000000
  0
LINE
  8
MASS
  6
CONTINUOUS
 62
     4
 10
99.017835224
 20
13.636713541
 11
96.517835114
 21
16.136713431
  0
TEXT
  8
MASS
  6
CONTINUOUS
 62
     4
 10
99.017834752
 20
24.427026041
 40
3.500000000
  1
-32.5(34.8)
 50
90.000002504
 41
1.000
 51
0.000000000
  7
STANDARD
  0
TEXT
  8
MASS
  6
CONTINUOUS
 62
     4
 10
47.758417622
 20
-6.319616542
 40
3.500000000
  1
615.243
 50
0.000000000
 41
1.000
 51
0.000000000
  7
STANDARD
  0
ENDSEC
  0
EOF
