999
NT  : 16.0 - 919
  0
SECTION
  2
HEADER
  9
$ACADVER
  1
AC1006
  9
$INSBASE
 10
0.000000000
 20
0.000000000
  9
$EXTMIN
 10
-42.930000010
 20
-48.825671136
  9
$EXTMAX
 10
153.930000962
 20
74.248740721
  9
$LIMMIN
 10
-42.930000010
 20
-48.825671136
  9
$LIMMAX
 10
153.930000962
 20
74.248740721
  9
$AUNITS
 70
     2
  9
$ANGBASE
 50
0.000
  9
$ANGDIR
 70
     0
  0
ENDSEC
  0
SECTION
  2
TABLES
  0
TABLE
  2
LTYPE
 70
     8
  0
LTYPE
  2
PUNKT
 70
    64
  3
..............
 72
    65
 73
     2
 40
1.500
 49
0.700
 49
-0.800
  0
LTYPE
  2
GESTRICHELT
 70
    64
  3
-- -- -- -- --
 72
    65
 73
     7
 40
2.800
 49
0.900
 49
0.000
 49
0.900
 49
0.000
 49
0.200
 49
0.000
 49
-0.800
  0
LTYPE
  2
STRICHPUNKT
 70
    64
  3
--.--.--.--.--
 72
    65
 73
     4
 40
8.800
 49
5.500
 49
-1.300
 49
0.700
 49
-1.300
  0
LTYPE
  2
STRICHPUNKT
 70
    64
  3
--.--.--.--.--
 72
    65
 73
     4
 40
8.800
 49
5.500
 49
-1.300
 49
0.700
 49
-1.300
  0
LTYPE
  2
STRICHPUNKT
 70
    64
  3
--.--.--.--.--
 72
    65
 73
     4
 40
8.800
 49
5.500
 49
-1.300
 49
0.700
 49
-1.300
  0
LTYPE
  2
PHANTOM
 70
    64
  3
--..--..--..--
 72
    65
 73
     6
 40
14.200
 49
7.000
 49
-1.800
 49
0.900
 49
-1.800
 49
0.900
 49
-1.800
  0
LTYPE
  2
PHANTOM
 70
    64
  3
--..--..--..--
 72
    65
 73
     6
 40
14.200
 49
7.000
 49
-1.800
 49
0.900
 49
-1.800
 49
0.900
 49
-1.800
  0
LTYPE
  2
PHANTOM
 70
    64
  3
--..--..--..--
 72
    65
 73
     6
 40
14.200
 49
7.000
 49
-1.800
 49
0.900
 49
-1.800
 49
0.900
 49
-1.800
  0
ENDTAB
  0
ENDSEC
  0
SECTION
  2
BLOCKS
  0
ENDSEC
  0
SECTION
  2
ENTITIES
  0
LINE
  8
AUFNAHME
  6
CONTINUOUS
 62
     7
 10
112.000000000
 20
8.000000000
 11
112.000000000
 21
-8.000000000
  0
LINE
  8
AUFNAHME
  6
CONTINUOUS
 62
     7
 10
95.000000000
 20
7.000000000
 11
95.000000000
 21
-7.000000000
  0
LINE
  8
AUFNAHME
  6
CONTINUOUS
 62
     7
 10
109.500000000
 20
8.000000000
 11
112.000000000
 21
8.000000000
  0
LINE
  8
AUFNAHME
  6
CONTINUOUS
 62
     7
 10
102.500000000
 20
7.000000000
 11
109.500000000
 21
7.000000000
  0
LINE
  8
AUFNAHME
  6
CONTINUOUS
 62
     7
 10
102.500000000
 20
8.000000000
 11
102.500000000
 21
7.000000000
  0
LINE
  8
AUFNAHME
  6
CONTINUOUS
 62
     7
 10
109.500000000
 20
8.000000000
 11
109.500000000
 21
7.000000000
  0
LINE
  8
AUFNAHME
  6
CONTINUOUS
 62
     7
 10
96.000000000
 20
8.000000000
 11
102.500000000
 21
8.000000000
  0
LINE
  8
AUFNAHME
  6
CONTINUOUS
 62
     7
 10
95.000000000
 20
7.000000000
 11
96.000000000
 21
8.000000000
  0
LINE
  8
AUFNAHME
  6
CONTINUOUS
 62
     7
 10
0.000000000
 20
6.000000000
 11
95.000000000
 21
6.000000000
  0
LINE
  8
AUFNAHME
  6
CONTINUOUS
 62
     7
 10
109.500000000
 20
-7.000000000
 11
109.500000000
 21
-8.000000000
  0
LINE
  8
AUFNAHME
  6
CONTINUOUS
 62
     7
 10
102.500000000
 20
-7.000000000
 11
102.500000000
 21
-8.000000000
  0
LINE
  8
AUFNAHME
  6
CONTINUOUS
 62
     7
 10
109.500000000
 20
-8.000000000
 11
112.000000000
 21
-8.000000000
  0
LINE
  8
AUFNAHME
  6
CONTINUOUS
 62
     7
 10
102.500000000
 20
-7.000000000
 11
109.500000000
 21
-7.000000000
  0
LINE
  8
AUFNAHME
  6
CONTINUOUS
 62
     7
 10
96.000000000
 20
-8.000000000
 11
102.500000000
 21
-8.000000000
  0
LINE
  8
AUFNAHME
  6
CONTINUOUS
 62
     7
 10
95.000000000
 20
-7.000000000
 11
96.000000000
 21
-8.000000000
  0
LINE
  8
AUFNAHME
  6
CONTINUOUS
 62
     7
 10
0.000000000
 20
-6.000000000
 11
95.000000000
 21
-6.000000000
  0
LINE
  8
UNSICHT
  6
GESTRICHELT
 62
     1
 10
-30.000000000
 20
2.000000000
 11
121.500000000
 21
2.000000000
  0
LINE
  8
UNSICHT
  6
GESTRICHELT
 62
     1
 10
-30.000000000
 20
-2.000000000
 11
121.500000000
 21
-2.000000000
  0
LINE
  8
ZAPFEN
  6
STRICHPUNKT
 62
     4
 10
-30.000000000
 20
0.000000000
 11
123.500000000
 21
0.000000000
  0
LINE
  8
ZAPFEN
  6
CONTINUOUS
 62
     4
 10
-30.000000000
 20
5.000000000
 11
-30.000000000
 21
-5.000000000
  0
LINE
  8
ZAPFEN
  6
CONTINUOUS
 62
     4
 10
-29.000000000
 20
6.000000000
 11
-29.000000000
 21
-6.000000000
  0
LINE
  8
ZAPFEN
  6
CONTINUOUS
 62
     4
 10
-30.000000000
 20
5.000000000
 11
-29.000000000
 21
6.000000000
  0
LINE
  8
ZAPFEN
  6
CONTINUOUS
 62
     4
 10
-29.000000000
 20
6.000000000
 11
0.000000000
 21
6.000000000
  0
LINE
  8
ZAPFEN
  6
CONTINUOUS
 62
     4
 10
121.299987790
 20
4.100006100
 11
112.000000000
 21
4.100006100
  0
LINE
  8
ZAPFEN
  6
CONTINUOUS
 62
     4
 10
120.399993900
 20
5.000000000
 11
120.399993900
 21
-5.000000000
  0
LINE
  8
ZAPFEN
  6
CONTINUOUS
 62
     4
 10
121.500000000
 20
3.899993900
 11
121.500000000
 21
-3.900001530
  0
LINE
  8
ZAPFEN
  6
CONTINUOUS
 62
     4
 10
120.399993900
 20
5.000000000
 11
121.500000000
 21
3.899993900
  0
LINE
  8
ZAPFEN
  6
CONTINUOUS
 62
     4
 10
112.000000000
 20
5.000000000
 11
120.399993900
 21
5.000000000
  0
LINE
  8
ZAPFEN
  6
CONTINUOUS
 62
     4
 10
-29.000000000
 20
-6.000000000
 11
0.000000000
 21
-6.000000000
  0
LINE
  8
ZAPFEN
  6
CONTINUOUS
 62
     4
 10
-30.000000000
 20
-5.000000000
 11
-29.000000000
 21
-6.000000000
  0
LINE
  8
ZAPFEN
  6
CONTINUOUS
 62
     4
 10
121.299987790
 20
-4.100006100
 11
112.000000000
 21
-4.100006100
  0
LINE
  8
ZAPFEN
  6
CONTINUOUS
 62
     4
 10
120.399993900
 20
-5.000000000
 11
112.000000000
 21
-5.000000000
  0
LINE
  8
ZAPFEN
  6
CONTINUOUS
 62
     4
 10
121.500000000
 20
-3.900001530
 11
120.399993900
 21
-5.000000000
  0
LINE
  8
FIKTIV
  6
CONTINUOUS
 62
     5
 10
129.817001340
 20
3.800369260
 11
137.879043580
 21
-1.435180660
  0
LINE
  8
FIKTIV
  6
CONTINUOUS
 62
     5
 10
129.853256230
 20
4.492233280
 11
138.418411250
 21
8.856399540
  0
LINE
  8
FIKTIV
  6
CONTINUOUS
 62
     5
 10
138.496368410
 20
-1.120651250
 11
138.999435420
 21
8.479049680
  0
ARC
  8
FIKTIV
  6
CONTINUOUS
 62
     5
 10
130.034866330
 20
4.135833740
 40
0.400000630
 50
117.000549320
 51
-123.000000000
  0
ARC
  8
FIKTIV
  6
CONTINUOUS
 62
     5
 10
138.599990840
 20
8.499984740
 40
0.400008260
 50
-3.000549320
 51
116.998657230
  0
CIRCLE
  8
FIKTIV
  6
CONTINUOUS
 62
     5
 10
135.577255250
 20
3.845367430
 40
1.250000000
  0
LINE
  8
FIKTIV
  6
CONTINUOUS
 62
     5
 10
117.000000000
 20
8.000000000
 11
112.000000000
 21
8.000000000
  0
LINE
  8
FIKTIV
  6
CONTINUOUS
 62
     5
 10
117.000000000
 20
8.000000000
 11
118.000000000
 21
7.000000000
  0
LINE
  8
FIKTIV
  6
CONTINUOUS
 62
     5
 10
128.999954220
 20
7.000000000
 11
124.000000000
 21
7.000000000
  0
LINE
  8
FIKTIV
  6
CONTINUOUS
 62
     5
 10
118.500000000
 20
7.000000000
 11
118.500000000
 21
6.000000000
  0
LINE
  8
FIKTIV
  6
CONTINUOUS
 62
     5
 10
124.000000000
 20
7.000000000
 11
124.000000000
 21
6.000000000
  0
LINE
  8
FIKTIV
  6
CONTINUOUS
 62
     5
 10
124.000000000
 20
6.000000000
 11
118.500000000
 21
6.000000000
  0
LINE
  8
FIKTIV
  6
CONTINUOUS
 62
     5
 10
118.500000000
 20
7.000000000
 11
118.000000000
 21
7.000000000
  0
LINE
  8
FIKTIV
  6
CONTINUOUS
 62
     5
 10
133.000000000
 20
-5.267944340
 11
125.917099000
 21
7.000000000
  0
LINE
  8
FIKTIV
  6
CONTINUOUS
 62
     5
 10
129.000000000
 20
7.000000000
 11
136.974594120
 21
8.120742800
  0
ARC
  8
FIKTIV
  6
CONTINUOUS
 62
     5
 10
127.194890999
 20
4.949727313
 40
2.415861754
 50
121.932569321
 51
161.862300615
  0
ARC
  8
FIKTIV
  6
CONTINUOUS
 62
     5
 10
129.928204300
 20
4.029306135
 40
5.299941941
 50
161.604993800
 51
-174.654252358
  0
ARC
  8
FIKTIV
  6
CONTINUOUS
 62
     5
 10
135.382233588
 20
4.348086432
 40
10.761639351
 50
-175.669788051
 51
-160.924447196
  0
ARC
  8
FIKTIV
  6
CONTINUOUS
 62
     5
 10
139.807620601
 20
5.739186971
 40
15.399215610
 50
-161.413978891
 51
-149.829810314
  0
ARC
  8
FIKTIV
  6
CONTINUOUS
 62
     5
 10
139.853375696
 20
5.660001787
 40
15.399248008
 50
-150.170082604
 51
-138.585914028
  0
ARC
  8
FIKTIV
  6
CONTINUOUS
 62
     5
 10
136.435939158
 20
2.522982085
 40
10.761613026
 50
-139.075638334
 51
-124.330290633
  0
ARC
  8
FIKTIV
  6
CONTINUOUS
 62
     5
 10
134.548519967
 20
-0.094497170
 40
7.536115215
 50
-123.703268595
 51
-120.542593760
  0
ARC
  8
FIKTIV
  6
CONTINUOUS
 62
     5
 10
126.597412986
 20
2.855017995
 40
0.555204692
 50
121.720918161
 51
160.569479932
  0
ARC
  8
FIKTIV
  6
CONTINUOUS
 62
     5
 10
127.161560298
 20
2.653406211
 40
1.154292828
 50
160.447478004
 51
-175.617144490
  0
ARC
  8
FIKTIV
  6
CONTINUOUS
 62
     5
 10
128.277528304
 20
2.701474469
 40
2.270978028
 50
-176.559645897
 51
-161.369185233
  0
ARC
  8
FIKTIV
  6
CONTINUOUS
 62
     5
 10
129.179047910
 20
2.976705490
 40
3.213297955
 50
-161.854181540
 51
-149.828576467
  0
ARC
  8
FIKTIV
  6
CONTINUOUS
 62
     5
 10
129.188686587
 20
2.960042733
 40
3.213313981
 50
-150.171814486
 51
-138.146209413
  0
ARC
  8
FIKTIV
  6
CONTINUOUS
 62
     5
 10
128.499542271
 20
2.316920937
 40
2.270974674
 50
-138.630876867
 51
-123.440416203
  0
ARC
  8
FIKTIV
  6
CONTINUOUS
 62
     5
 10
127.899932774
 20
1.374509333
 40
1.154300121
 50
-124.382790879
 51
-100.447395239
  0
ARC
  8
FIKTIV
  6
CONTINUOUS
 62
     5
 10
127.792460101
 20
0.785127798
 40
0.555202418
 50
-100.569496430
 51
-61.720954698
  0
ARC
  8
FIKTIV
  6
CONTINUOUS
 62
     5
 10
127.763583154
 20
0.768467040
 40
0.555211980
 50
-58.279995567
 51
-19.431436022
  0
ARC
  8
FIKTIV
  6
CONTINUOUS
 62
     5
 10
127.199439876
 20
0.970068038
 40
1.154292723
 50
-19.552524315
 51
4.382855457
  0
ARC
  8
FIKTIV
  6
CONTINUOUS
 62
     5
 10
126.083476131
 20
0.922000622
 40
2.270973619
 50
3.440339271
 51
18.630829599
  0
ARC
  8
FIKTIV
  6
CONTINUOUS
 62
     5
 10
125.181941083
 20
0.646729227
 40
3.213320790
 50
18.146426609
 51
30.172001969
  0
ARC
  8
FIKTIV
  6
CONTINUOUS
 62
     5
 10
125.172305274
 20
0.663431567
 40
3.213314445
 50
29.828179534
 51
41.853784606
  0
ARC
  8
FIKTIV
  6
CONTINUOUS
 62
     5
 10
125.861450609
 20
1.306553363
 40
2.270974376
 50
41.369131772
 51
56.559592436
  0
ARC
  8
FIKTIV
  6
CONTINUOUS
 62
     5
 10
126.461059658
 20
2.248963357
 40
1.154301400
 50
55.617252650
 51
79.552616554
  0
ARC
  8
FIKTIV
  6
CONTINUOUS
 62
     5
 10
126.568531994
 20
2.838346749
 40
0.555201931
 50
79.430459094
 51
118.279031999
  0
ARC
  8
FIKTIV
  6
CONTINUOUS
 62
     5
 10
138.096908570
 20
-1.099716190
 40
0.400014880
 50
-123.000000000
 51
-2.999206540
  0
LINE
  8
FIKTIV
  6
CONTINUOUS
 62
     5
 10
137.411132810
 20
-2.721191410
 11
137.491714480
 21
-1.183639530
  0
LINE
  8
FIKTIV
  6
CONTINUOUS
 62
     5
 10
130.000000000
 20
-7.000000000
 11
137.411132810
 21
-2.721191410
  0
LINE
  8
FIKTIV
  6
CONTINUOUS
 62
     5
 10
117.000000000
 20
-8.000000000
 11
112.000000000
 21
-8.000000000
  0
LINE
  8
FIKTIV
  6
CONTINUOUS
 62
     5
 10
117.000000000
 20
-8.000000000
 11
118.000000000
 21
-7.000000000
  0
LINE
  8
FIKTIV
  6
CONTINUOUS
 62
     5
 10
130.000000000
 20
-7.000000000
 11
124.049987790
 21
-7.000000000
  0
LINE
  8
FIKTIV
  6
CONTINUOUS
 62
     5
 10
124.000000000
 20
-6.000000000
 11
118.500000000
 21
-6.000000000
  0
LINE
  8
FIKTIV
  6
CONTINUOUS
 62
     5
 10
118.500000000
 20
-7.000000000
 11
118.000000000
 21
-7.000000000
  0
LINE
  8
FIKTIV
  6
CONTINUOUS
 62
     5
 10
124.000000000
 20
-6.000000000
 11
124.000000000
 21
-7.000000000
  0
LINE
  8
FIKTIV
  6
CONTINUOUS
 62
     5
 10
118.500000000
 20
-6.000000000
 11
118.500000000
 21
-7.000000000
  0
LINE
  8
MASS
  6
CONTINUOUS
 62
     4
 10
-38.000000000
 20
-6.000000000
 11
-29.000000000
 21
-6.000000000
  0
LINE
  8
MASS
  6
CONTINUOUS
 62
     4
 10
-36.000000000
 20
-6.000000000
 11
-36.450000000
 21
-2.500000000
  0
LINE
  8
MASS
  6
CONTINUOUS
 62
     4
 10
-36.450000000
 20
-2.500000000
 11
-35.550000000
 21
-2.500000000
  0
LINE
  8
MASS
  6
CONTINUOUS
 62
     4
 10
-35.550000000
 20
-2.500000000
 11
-36.000000000
 21
-6.000000000
  0
LINE
  8
MASS
  6
CONTINUOUS
 62
     4
 10
-38.000000000
 20
6.000000000
 11
-29.000000000
 21
6.000000000
  0
LINE
  8
MASS
  6
CONTINUOUS
 62
     4
 10
-36.000000000
 20
6.000000000
 11
-35.550000000
 21
2.500000000
  0
LINE
  8
MASS
  6
CONTINUOUS
 62
     4
 10
-35.550000000
 20
2.500000000
 11
-36.450000000
 21
2.500000000
  0
LINE
  8
MASS
  6
CONTINUOUS
 62
     4
 10
-36.450000000
 20
2.500000000
 11
-36.000000000
 21
6.000000000
  0
LINE
  8
MASS
  6
CONTINUOUS
 62
     4
 10
-36.000000000
 20
-2.500000000
 11
-36.000000000
 21
2.500000000
  0
TEXT
  8
MASS
  6
CONTINUOUS
 62
     4
 10
-37.500000000
 20
0.468124866
 40
3.500000000
  1
12
 50
90.000000000
 41
1.000
 51
0.000000000
  7
STANDARD
  0
CIRCLE
  8
MASS
  6
CONTINUOUS
 62
     4
 10
-38.750000000
 20
-1.781875134
 40
1.250000000
  0
LINE
  8
MASS
  6
CONTINUOUS
 62
     4
 10
-37.500000000
 20
-3.031875134
 11
-40.000000000
 21
-0.531875134
  0
LINE
  8
MASS
  6
CONTINUOUS
 62
     4
 10
-30.000000000
 20
-18.000000000
 11
-30.000000000
 21
-5.000000000
  0
LINE
  8
MASS
  6
CONTINUOUS
 62
     4
 10
-30.000000000
 20
-16.000000000
 11
-26.500000000
 21
-15.550000000
  0
LINE
  8
MASS
  6
CONTINUOUS
 62
     4
 10
-26.500000000
 20
-15.550000000
 11
-26.500000000
 21
-16.450000000
  0
LINE
  8
MASS
  6
CONTINUOUS
 62
     4
 10
-26.500000000
 20
-16.450000000
 11
-30.000000000
 21
-16.000000000
  0
LINE
  8
MASS
  6
CONTINUOUS
 62
     4
 10
0.000000000
 20
-18.000000000
 11
0.000000000
 21
-8.000000000
  0
LINE
  8
MASS
  6
CONTINUOUS
 62
     4
 10
0.000000000
 20
-16.000000000
 11
-3.500000000
 21
-16.450000000
  0
LINE
  8
MASS
  6
CONTINUOUS
 62
     4
 10
-3.500000000
 20
-16.450000000
 11
-3.500000000
 21
-15.550000000
  0
LINE
  8
MASS
  6
CONTINUOUS
 62
     4
 10
-3.500000000
 20
-15.550000000
 11
0.000000000
 21
-16.000000000
  0
LINE
  8
MASS
  6
CONTINUOUS
 62
     4
 10
-26.500000000
 20
-16.000000000
 11
-3.500000000
 21
-16.000000000
  0
TEXT
  8
MASS
  6
CONTINUOUS
 62
     4
 10
-16.473281585
 20
-14.500000000
 40
3.500000000
  1
30
 50
0.000000000
 41
1.000
 51
0.000000000
  7
STANDARD
  0
LINE
  8
MASS
  6
CONTINUOUS
 62
     4
 10
4.000000000
 20
-18.000000000
 11
4.000000000
 21
-8.000000000
  0
LINE
  8
MASS
  6
CONTINUOUS
 62
     4
 10
4.000000000
 20
-16.000000000
 11
7.500000000
 21
-15.550000000
  0
LINE
  8
MASS
  6
CONTINUOUS
 62
     4
 10
7.500000000
 20
-15.550000000
 11
7.500000000
 21
-16.450000000
  0
LINE
  8
MASS
  6
CONTINUOUS
 62
     4
 10
7.500000000
 20
-16.450000000
 11
4.000000000
 21
-16.000000000
  0
LINE
  8
MASS
  6
CONTINUOUS
 62
     4
 10
138.999999100
 20
-18.000000001
 11
138.999999100
 21
8.499984740
  0
LINE
  8
MASS
  6
CONTINUOUS
 62
     4
 10
138.999999100
 20
-16.000000001
 11
135.499999100
 21
-16.450000001
  0
LINE
  8
MASS
  6
CONTINUOUS
 62
     4
 10
135.499999100
 20
-16.450000001
 11
135.499999100
 21
-15.550000001
  0
LINE
  8
MASS
  6
CONTINUOUS
 62
     4
 10
135.499999100
 20
-15.550000001
 11
138.999999100
 21
-16.000000001
  0
LINE
  8
MASS
  6
CONTINUOUS
 62
     4
 10
7.500000000
 20
-16.000000000
 11
135.499999100
 21
-16.000000001
  0
TEXT
  8
MASS
  6
CONTINUOUS
 62
     4
 10
72.769529291
 20
-14.500000001
 40
3.500000000
  1
135
 50
359.999999999
 41
1.000
 51
0.000000000
  7
STANDARD
  0
TEXT
  8
MASS
  6
CONTINUOUS
 62
     4
 10
66.026091791
 20
-14.500000001
 40
3.500000000
  1
90-
 50
359.999999999
 41
1.000
 51
0.000000000
  7
STANDARD
  0
LINE
  8
MASS
  6
CONTINUOUS
 62
     4
 10
-30.000000000
 20
18.000000000
 11
-30.000000000
 21
5.000000000
  0
LINE
  8
MASS
  6
CONTINUOUS
 62
     4
 10
-30.000000000
 20
16.000000000
 11
-26.500000000
 21
16.450000000
  0
LINE
  8
MASS
  6
CONTINUOUS
 62
     4
 10
-26.500000000
 20
16.450000000
 11
-26.500000000
 21
15.550000000
  0
LINE
  8
MASS
  6
CONTINUOUS
 62
     4
 10
-26.500000000
 20
15.550000000
 11
-30.000000000
 21
16.000000000
  0
LINE
  8
MASS
  6
CONTINUOUS
 62
     4
 10
112.000000000
 20
18.000000000
 11
112.000000000
 21
8.000000000
  0
LINE
  8
MASS
  6
CONTINUOUS
 62
     4
 10
112.000000000
 20
16.000000000
 11
108.500000000
 21
15.550000000
  0
LINE
  8
MASS
  6
CONTINUOUS
 62
     4
 10
108.500000000
 20
15.550000000
 11
108.500000000
 21
16.450000000
  0
LINE
  8
MASS
  6
CONTINUOUS
 62
     4
 10
108.500000000
 20
16.450000000
 11
112.000000000
 21
16.000000000
  0
LINE
  8
MASS
  6
CONTINUOUS
 62
     4
 10
-26.500000000
 20
16.000000000
 11
108.500000000
 21
16.000000000
  0
TEXT
  8
MASS
  6
CONTINUOUS
 62
     4
 10
38.597029663
 20
17.500000000
 40
3.500000000
  1
142
 50
0.000000000
 41
1.000
 51
0.000000000
  7
STANDARD
  0
LINE
  8
MASS
  6
CONTINUOUS
 62
     4
 10
153.999999995
 20
8.899993673
 11
138.599990840
 21
8.899993000
  0
LINE
  8
MASS
  6
CONTINUOUS
 62
     4
 10
151.999999995
 20
8.899993586
 11
152.449999842
 21
12.399993605
  0
LINE
  8
MASS
  6
CONTINUOUS
 62
     4
 10
152.449999842
 20
12.399993605
 11
151.549999842
 21
12.399993566
  0
LINE
  8
MASS
  6
CONTINUOUS
 62
     4
 10
151.549999842
 20
12.399993566
 11
151.999999995
 21
8.899993586
  0
LINE
  8
MASS
  6
CONTINUOUS
 62
     4
 10
151.999999842
 20
12.399993586
 11
151.999998574
 21
41.423069586
  0
LINE
  8
MASS
  6
CONTINUOUS
 62
     4
 10
152.000000773
 20
-8.899991094
 11
151.999999995
 21
8.899993586
  0
TEXT
  8
MASS
  6
CONTINUOUS
 62
     4
 10
150.668004160
 20
16.858069528
 40
3.500000000
  1
17.8
 50
90.000002504
 41
1.000
 51
0.000000000
  7
STANDARD
  0
CIRCLE
  8
MASS
  6
CONTINUOUS
 62
     4
 10
149.418004259
 20
14.608069473
 40
1.250000000
  0
LINE
  8
MASS
  6
CONTINUOUS
 62
     4
 10
150.668004313
 20
13.358069528
 11
148.168004204
 21
15.858069418
  0
TEXT
  8
MASS
  6
CONTINUOUS
 62
     4
 10
150.668003842
 20
24.148382028
 40
3.500000000
  1
-32.5(34.8)
 50
90.000002504
 41
1.000
 51
0.000000000
  7
STANDARD
  0
TEXT
  8
MASS
  6
CONTINUOUS
 62
     4
 10
97.266301093
 20
-6.271354839
 40
3.500000000
  1
615.240
 50
0.000000000
 41
1.000
 51
0.000000000
  7
STANDARD
  0
ENDSEC
  0
EOF
