999
NT  : 16.0 - 919
  0
SECTION
  2
HEADER
  9
$ACADVER
  1
AC1006
  9
$INSBASE
 10
0.000000000
 20
0.000000000
  9
$EXTMIN
 10
-42.610000010
 20
-38.160831824
  9
$EXTMAX
 10
121.610000962
 20
64.507460033
  9
$LIMMIN
 10
-42.610000010
 20
-38.160831824
  9
$LIMMAX
 10
121.610000962
 20
64.507460033
  9
$AUNITS
 70
     2
  9
$ANGBASE
 50
0.000
  9
$ANGDIR
 70
     0
  0
ENDSEC
  0
SECTION
  2
TABLES
  0
TABLE
  2
LTYPE
 70
     8
  0
LTYPE
  2
PUNKT
 70
    64
  3
..............
 72
    65
 73
     2
 40
1.500
 49
0.700
 49
-0.800
  0
LTYPE
  2
GESTRICHELT
 70
    64
  3
-- -- -- -- --
 72
    65
 73
     7
 40
2.800
 49
0.900
 49
0.000
 49
0.900
 49
0.000
 49
0.200
 49
0.000
 49
-0.800
  0
LTYPE
  2
STRICHPUNKT
 70
    64
  3
--.--.--.--.--
 72
    65
 73
     4
 40
8.800
 49
5.500
 49
-1.300
 49
0.700
 49
-1.300
  0
LTYPE
  2
STRICHPUNKT
 70
    64
  3
--.--.--.--.--
 72
    65
 73
     4
 40
8.800
 49
5.500
 49
-1.300
 49
0.700
 49
-1.300
  0
LTYPE
  2
STRICHPUNKT
 70
    64
  3
--.--.--.--.--
 72
    65
 73
     4
 40
8.800
 49
5.500
 49
-1.300
 49
0.700
 49
-1.300
  0
LTYPE
  2
PHANTOM
 70
    64
  3
--..--..--..--
 72
    65
 73
     6
 40
14.200
 49
7.000
 49
-1.800
 49
0.900
 49
-1.800
 49
0.900
 49
-1.800
  0
LTYPE
  2
PHANTOM
 70
    64
  3
--..--..--..--
 72
    65
 73
     6
 40
14.200
 49
7.000
 49
-1.800
 49
0.900
 49
-1.800
 49
0.900
 49
-1.800
  0
LTYPE
  2
PHANTOM
 70
    64
  3
--..--..--..--
 72
    65
 73
     6
 40
14.200
 49
7.000
 49
-1.800
 49
0.900
 49
-1.800
 49
0.900
 49
-1.800
  0
ENDTAB
  0
ENDSEC
  0
SECTION
  2
BLOCKS
  0
ENDSEC
  0
SECTION
  2
ENTITIES
  0
LINE
  8
AUFNAHME
  6
CONTINUOUS
 62
     7
 10
82.000000000
 20
8.000000000
 11
82.000000000
 21
-8.000000000
  0
LINE
  8
AUFNAHME
  6
CONTINUOUS
 62
     7
 10
0.000000000
 20
6.000000000
 11
65.000000000
 21
6.000000000
  0
LINE
  8
AUFNAHME
  6
CONTINUOUS
 62
     7
 10
65.000000000
 20
7.000000000
 11
66.000000000
 21
8.000000000
  0
LINE
  8
AUFNAHME
  6
CONTINUOUS
 62
     7
 10
66.000000000
 20
8.000000000
 11
72.500000000
 21
8.000000000
  0
LINE
  8
AUFNAHME
  6
CONTINUOUS
 62
     7
 10
79.500000000
 20
8.000000000
 11
79.500000000
 21
7.000000000
  0
LINE
  8
AUFNAHME
  6
CONTINUOUS
 62
     7
 10
72.500000000
 20
8.000000000
 11
72.500000000
 21
7.000000000
  0
LINE
  8
AUFNAHME
  6
CONTINUOUS
 62
     7
 10
72.500000000
 20
7.000000000
 11
79.500000000
 21
7.000000000
  0
LINE
  8
AUFNAHME
  6
CONTINUOUS
 62
     7
 10
79.500000000
 20
8.000000000
 11
82.000000000
 21
8.000000000
  0
LINE
  8
AUFNAHME
  6
CONTINUOUS
 62
     7
 10
65.000000000
 20
7.000000000
 11
65.000000000
 21
-7.000000000
  0
LINE
  8
AUFNAHME
  6
CONTINUOUS
 62
     7
 10
0.000000000
 20
-6.000000000
 11
65.000000000
 21
-6.000000000
  0
LINE
  8
AUFNAHME
  6
CONTINUOUS
 62
     7
 10
65.000000000
 20
-7.000000000
 11
66.000000000
 21
-8.000000000
  0
LINE
  8
AUFNAHME
  6
CONTINUOUS
 62
     7
 10
66.000000000
 20
-8.000000000
 11
72.500000000
 21
-8.000000000
  0
LINE
  8
AUFNAHME
  6
CONTINUOUS
 62
     7
 10
72.500000000
 20
-7.000000000
 11
79.500000000
 21
-7.000000000
  0
LINE
  8
AUFNAHME
  6
CONTINUOUS
 62
     7
 10
79.500000000
 20
-8.000000000
 11
82.000000000
 21
-8.000000000
  0
LINE
  8
AUFNAHME
  6
CONTINUOUS
 62
     7
 10
72.500000000
 20
-7.000000000
 11
72.500000000
 21
-8.000000000
  0
LINE
  8
AUFNAHME
  6
CONTINUOUS
 62
     7
 10
79.500000000
 20
-7.000000000
 11
79.500000000
 21
-8.000000000
  0
LINE
  8
UNSICHT
  6
GESTRICHELT
 62
     1
 10
-30.000000000
 20
2.000000000
 11
91.500000000
 21
2.000000000
  0
LINE
  8
UNSICHT
  6
GESTRICHELT
 62
     1
 10
-30.000000000
 20
-2.000000000
 11
91.500000000
 21
-2.000000000
  0
LINE
  8
ZAPFEN
  6
STRICHPUNKT
 62
     4
 10
-30.000000000
 20
0.000000000
 11
93.500000000
 21
0.000000000
  0
LINE
  8
ZAPFEN
  6
CONTINUOUS
 62
     4
 10
-30.000000000
 20
5.000000000
 11
-30.000000000
 21
-5.000000000
  0
LINE
  8
ZAPFEN
  6
CONTINUOUS
 62
     4
 10
-30.000000000
 20
5.000000000
 11
-29.000000000
 21
6.000000000
  0
LINE
  8
ZAPFEN
  6
CONTINUOUS
 62
     4
 10
-29.000000000
 20
6.000000000
 11
-29.000000000
 21
-6.000000000
  0
LINE
  8
ZAPFEN
  6
CONTINUOUS
 62
     4
 10
-29.000000000
 20
6.000000000
 11
0.000000000
 21
6.000000000
  0
LINE
  8
ZAPFEN
  6
CONTINUOUS
 62
     4
 10
82.000000000
 20
4.100006100
 11
91.299987790
 21
4.100006100
  0
LINE
  8
ZAPFEN
  6
CONTINUOUS
 62
     4
 10
90.399993900
 20
5.000000000
 11
90.399993900
 21
-5.000000000
  0
LINE
  8
ZAPFEN
  6
CONTINUOUS
 62
     4
 10
91.500000000
 20
3.899993900
 11
91.500000000
 21
-3.900001530
  0
LINE
  8
ZAPFEN
  6
CONTINUOUS
 62
     4
 10
90.399993900
 20
5.000000000
 11
91.500000000
 21
3.899993900
  0
LINE
  8
ZAPFEN
  6
CONTINUOUS
 62
     4
 10
82.000000000
 20
5.000000000
 11
90.399993900
 21
5.000000000
  0
LINE
  8
ZAPFEN
  6
CONTINUOUS
 62
     4
 10
-29.000000000
 20
-6.000000000
 11
0.000000000
 21
-6.000000000
  0
LINE
  8
ZAPFEN
  6
CONTINUOUS
 62
     4
 10
-30.000000000
 20
-5.000000000
 11
-29.000000000
 21
-6.000000000
  0
LINE
  8
ZAPFEN
  6
CONTINUOUS
 62
     4
 10
82.000000000
 20
-4.100006100
 11
91.299987790
 21
-4.100006100
  0
LINE
  8
ZAPFEN
  6
CONTINUOUS
 62
     4
 10
90.399993900
 20
-5.000000000
 11
82.000000000
 21
-5.000000000
  0
LINE
  8
ZAPFEN
  6
CONTINUOUS
 62
     4
 10
91.500000000
 20
-3.900001530
 11
90.399993900
 21
-5.000000000
  0
ARC
  8
FIKTIV
  6
CONTINUOUS
 62
     5
 10
96.597412986
 20
2.855017995
 40
0.555204692
 50
121.720918161
 51
160.569479932
  0
ARC
  8
FIKTIV
  6
CONTINUOUS
 62
     5
 10
97.161560298
 20
2.653406211
 40
1.154292828
 50
160.447478004
 51
-175.617144490
  0
ARC
  8
FIKTIV
  6
CONTINUOUS
 62
     5
 10
98.277528304
 20
2.701474469
 40
2.270978028
 50
-176.559645897
 51
-161.369185233
  0
ARC
  8
FIKTIV
  6
CONTINUOUS
 62
     5
 10
99.179047910
 20
2.976705490
 40
3.213297955
 50
-161.854181540
 51
-149.828576467
  0
ARC
  8
FIKTIV
  6
CONTINUOUS
 62
     5
 10
99.188686587
 20
2.960042733
 40
3.213313981
 50
-150.171814486
 51
-138.146209413
  0
ARC
  8
FIKTIV
  6
CONTINUOUS
 62
     5
 10
98.499542271
 20
2.316920937
 40
2.270974674
 50
-138.630876867
 51
-123.440416203
  0
ARC
  8
FIKTIV
  6
CONTINUOUS
 62
     5
 10
97.899932774
 20
1.374509333
 40
1.154300121
 50
-124.382790879
 51
-100.447395239
  0
ARC
  8
FIKTIV
  6
CONTINUOUS
 62
     5
 10
97.792460101
 20
0.785127798
 40
0.555202418
 50
-100.569496430
 51
-61.720954698
  0
ARC
  8
FIKTIV
  6
CONTINUOUS
 62
     5
 10
97.763579339
 20
0.768456221
 40
0.555204783
 50
-58.279073677
 51
-19.430514133
  0
ARC
  8
FIKTIV
  6
CONTINUOUS
 62
     5
 10
97.199432246
 20
0.970068038
 40
1.154292723
 50
-19.552524315
 51
4.382855457
  0
ARC
  8
FIKTIV
  6
CONTINUOUS
 62
     5
 10
96.083468501
 20
0.922000622
 40
2.270973619
 50
3.440339271
 51
18.630829599
  0
ARC
  8
FIKTIV
  6
CONTINUOUS
 62
     5
 10
95.181937268
 20
0.646765447
 40
3.213305884
 50
18.145834093
 51
30.171409453
  0
ARC
  8
FIKTIV
  6
CONTINUOUS
 62
     5
 10
95.172305274
 20
0.663431567
 40
3.213314445
 50
29.828179534
 51
41.853784606
  0
ARC
  8
FIKTIV
  6
CONTINUOUS
 62
     5
 10
95.861450609
 20
1.306553363
 40
2.270974376
 50
41.369131772
 51
56.559592436
  0
ARC
  8
FIKTIV
  6
CONTINUOUS
 62
     5
 10
96.461059658
 20
2.248963357
 40
1.154301400
 50
55.617252650
 51
79.552616554
  0
ARC
  8
FIKTIV
  6
CONTINUOUS
 62
     5
 10
96.568531994
 20
2.838346749
 40
0.555201931
 50
79.430459094
 51
118.279031999
  0
ARC
  8
FIKTIV
  6
CONTINUOUS
 62
     5
 10
97.194890999
 20
4.949727313
 40
2.415861754
 50
121.932569321
 51
161.862300615
  0
ARC
  8
FIKTIV
  6
CONTINUOUS
 62
     5
 10
99.928204300
 20
4.029306135
 40
5.299941941
 50
161.604993800
 51
-174.654252358
  0
ARC
  8
FIKTIV
  6
CONTINUOUS
 62
     5
 10
105.382233588
 20
4.348086432
 40
10.761639351
 50
-175.669788051
 51
-160.924447196
  0
ARC
  8
FIKTIV
  6
CONTINUOUS
 62
     5
 10
109.807620601
 20
5.739186971
 40
15.399215610
 50
-161.413978891
 51
-149.829810314
  0
ARC
  8
FIKTIV
  6
CONTINUOUS
 62
     5
 10
109.853371881
 20
5.659964177
 40
15.399225990
 50
-150.170196937
 51
-138.586028361
  0
ARC
  8
FIKTIV
  6
CONTINUOUS
 62
     5
 10
106.435935343
 20
2.523011569
 40
10.761635222
 50
-139.075533033
 51
-124.330185332
  0
ARC
  8
FIKTIV
  6
CONTINUOUS
 62
     5
 10
104.548516152
 20
-0.094635450
 40
7.535998061
 50
-123.703827839
 51
-120.543153004
  0
LINE
  8
FIKTIV
  6
CONTINUOUS
 62
     5
 10
99.000000000
 20
7.000000000
 11
106.974594120
 21
8.120742800
  0
LINE
  8
FIKTIV
  6
CONTINUOUS
 62
     5
 10
103.000000000
 20
-5.267944340
 11
95.917099000
 21
7.000000000
  0
LINE
  8
FIKTIV
  6
CONTINUOUS
 62
     5
 10
88.500000000
 20
7.000000000
 11
88.000000000
 21
7.000000000
  0
LINE
  8
FIKTIV
  6
CONTINUOUS
 62
     5
 10
94.000000000
 20
6.000000000
 11
88.500000000
 21
6.000000000
  0
LINE
  8
FIKTIV
  6
CONTINUOUS
 62
     5
 10
94.000000000
 20
7.000000000
 11
94.000000000
 21
6.000000000
  0
LINE
  8
FIKTIV
  6
CONTINUOUS
 62
     5
 10
88.500000000
 20
7.000000000
 11
88.500000000
 21
6.000000000
  0
LINE
  8
FIKTIV
  6
CONTINUOUS
 62
     5
 10
98.999954220
 20
7.000000000
 11
94.000000000
 21
7.000000000
  0
LINE
  8
FIKTIV
  6
CONTINUOUS
 62
     5
 10
87.000000000
 20
8.000000000
 11
88.000000000
 21
7.000000000
  0
LINE
  8
FIKTIV
  6
CONTINUOUS
 62
     5
 10
87.000000000
 20
8.000000000
 11
82.000000000
 21
8.000000000
  0
CIRCLE
  8
FIKTIV
  6
CONTINUOUS
 62
     5
 10
105.577255250
 20
3.845367430
 40
1.250000000
  0
ARC
  8
FIKTIV
  6
CONTINUOUS
 62
     5
 10
108.599990840
 20
8.499984740
 40
0.400008260
 50
-3.000549320
 51
116.998657230
  0
ARC
  8
FIKTIV
  6
CONTINUOUS
 62
     5
 10
100.034866330
 20
4.135833740
 40
0.400000630
 50
117.000549320
 51
-123.000000000
  0
LINE
  8
FIKTIV
  6
CONTINUOUS
 62
     5
 10
108.496368410
 20
-1.120651250
 11
108.999435420
 21
8.479049680
  0
LINE
  8
FIKTIV
  6
CONTINUOUS
 62
     5
 10
99.853256230
 20
4.492233280
 11
108.418411250
 21
8.856399540
  0
LINE
  8
FIKTIV
  6
CONTINUOUS
 62
     5
 10
99.817001340
 20
3.800369260
 11
107.879043580
 21
-1.435180660
  0
LINE
  8
FIKTIV
  6
CONTINUOUS
 62
     5
 10
88.500000000
 20
-6.000000000
 11
88.500000000
 21
-7.000000000
  0
LINE
  8
FIKTIV
  6
CONTINUOUS
 62
     5
 10
94.000000000
 20
-6.000000000
 11
94.000000000
 21
-7.000000000
  0
LINE
  8
FIKTIV
  6
CONTINUOUS
 62
     5
 10
88.500000000
 20
-7.000000000
 11
88.000000000
 21
-7.000000000
  0
LINE
  8
FIKTIV
  6
CONTINUOUS
 62
     5
 10
94.000000000
 20
-6.000000000
 11
88.500000000
 21
-6.000000000
  0
LINE
  8
FIKTIV
  6
CONTINUOUS
 62
     5
 10
100.000000000
 20
-7.000000000
 11
94.049987790
 21
-7.000000000
  0
LINE
  8
FIKTIV
  6
CONTINUOUS
 62
     5
 10
87.000000000
 20
-8.000000000
 11
88.000000000
 21
-7.000000000
  0
LINE
  8
FIKTIV
  6
CONTINUOUS
 62
     5
 10
87.000000000
 20
-8.000000000
 11
82.000000000
 21
-8.000000000
  0
LINE
  8
FIKTIV
  6
CONTINUOUS
 62
     5
 10
100.000000000
 20
-7.000000000
 11
107.411132810
 21
-2.721191410
  0
LINE
  8
FIKTIV
  6
CONTINUOUS
 62
     5
 10
107.411132810
 20
-2.721191410
 11
107.491714480
 21
-1.183639530
  0
ARC
  8
FIKTIV
  6
CONTINUOUS
 62
     5
 10
108.096908570
 20
-1.099716190
 40
0.400014880
 50
-123.000000000
 51
-2.999206540
  0
LINE
  8
MASS
  6
CONTINUOUS
 62
     4
 10
-38.000000000
 20
-6.000000000
 11
-29.000000000
 21
-6.000000000
  0
LINE
  8
MASS
  6
CONTINUOUS
 62
     4
 10
-36.000000000
 20
-6.000000000
 11
-36.450000000
 21
-2.500000000
  0
LINE
  8
MASS
  6
CONTINUOUS
 62
     4
 10
-36.450000000
 20
-2.500000000
 11
-35.550000000
 21
-2.500000000
  0
LINE
  8
MASS
  6
CONTINUOUS
 62
     4
 10
-35.550000000
 20
-2.500000000
 11
-36.000000000
 21
-6.000000000
  0
LINE
  8
MASS
  6
CONTINUOUS
 62
     4
 10
-38.000000000
 20
6.000000000
 11
-29.000000000
 21
6.000000000
  0
LINE
  8
MASS
  6
CONTINUOUS
 62
     4
 10
-36.000000000
 20
6.000000000
 11
-35.550000000
 21
2.500000000
  0
LINE
  8
MASS
  6
CONTINUOUS
 62
     4
 10
-35.550000000
 20
2.500000000
 11
-36.450000000
 21
2.500000000
  0
LINE
  8
MASS
  6
CONTINUOUS
 62
     4
 10
-36.450000000
 20
2.500000000
 11
-36.000000000
 21
6.000000000
  0
LINE
  8
MASS
  6
CONTINUOUS
 62
     4
 10
-36.000000000
 20
-2.500000000
 11
-36.000000000
 21
2.500000000
  0
TEXT
  8
MASS
  6
CONTINUOUS
 62
     4
 10
-37.500000000
 20
0.468124866
 40
3.500000000
  1
12
 50
90.000000000
 41
1.000
 51
0.000000000
  7
STANDARD
  0
CIRCLE
  8
MASS
  6
CONTINUOUS
 62
     4
 10
-38.750000000
 20
-1.781875134
 40
1.250000000
  0
LINE
  8
MASS
  6
CONTINUOUS
 62
     4
 10
-37.500000000
 20
-3.031875134
 11
-40.000000000
 21
-0.531875134
  0
LINE
  8
MASS
  6
CONTINUOUS
 62
     4
 10
-30.000000000
 20
-18.000000000
 11
-30.000000000
 21
-5.000000000
  0
LINE
  8
MASS
  6
CONTINUOUS
 62
     4
 10
-30.000000000
 20
-16.000000000
 11
-26.500000000
 21
-15.550000000
  0
LINE
  8
MASS
  6
CONTINUOUS
 62
     4
 10
-26.500000000
 20
-15.550000000
 11
-26.500000000
 21
-16.450000000
  0
LINE
  8
MASS
  6
CONTINUOUS
 62
     4
 10
-26.500000000
 20
-16.450000000
 11
-30.000000000
 21
-16.000000000
  0
LINE
  8
MASS
  6
CONTINUOUS
 62
     4
 10
0.000000000
 20
-18.000000000
 11
0.000000000
 21
-8.000000000
  0
LINE
  8
MASS
  6
CONTINUOUS
 62
     4
 10
0.000000000
 20
-16.000000000
 11
-3.500000000
 21
-16.450000000
  0
LINE
  8
MASS
  6
CONTINUOUS
 62
     4
 10
-3.500000000
 20
-16.450000000
 11
-3.500000000
 21
-15.550000000
  0
LINE
  8
MASS
  6
CONTINUOUS
 62
     4
 10
-3.500000000
 20
-15.550000000
 11
0.000000000
 21
-16.000000000
  0
LINE
  8
MASS
  6
CONTINUOUS
 62
     4
 10
-26.500000000
 20
-16.000000000
 11
-3.500000000
 21
-16.000000000
  0
TEXT
  8
MASS
  6
CONTINUOUS
 62
     4
 10
-13.046875335
 20
-14.500000000
 40
3.500000000
  1
30
 50
0.000000000
 41
1.000
 51
0.000000000
  7
STANDARD
  0
TEXT
  8
MASS
  6
CONTINUOUS
 62
     4
 10
-19.899687835
 20
-14.500000000
 40
3.500000000
  1
min.
 50
0.000000000
 41
1.000
 51
0.000000000
  7
STANDARD
  0
LINE
  8
MASS
  6
CONTINUOUS
 62
     4
 10
4.000000000
 20
-18.000000000
 11
4.000000000
 21
-8.000000000
  0
LINE
  8
MASS
  6
CONTINUOUS
 62
     4
 10
4.000000000
 20
-16.000000000
 11
7.500000000
 21
-15.550000000
  0
LINE
  8
MASS
  6
CONTINUOUS
 62
     4
 10
7.500000000
 20
-15.550000000
 11
7.500000000
 21
-16.450000000
  0
LINE
  8
MASS
  6
CONTINUOUS
 62
     4
 10
7.500000000
 20
-16.450000000
 11
4.000000000
 21
-16.000000000
  0
LINE
  8
MASS
  6
CONTINUOUS
 62
     4
 10
108.999999100
 20
-18.000000001
 11
108.999999100
 21
8.499984740
  0
LINE
  8
MASS
  6
CONTINUOUS
 62
     4
 10
108.999999100
 20
-16.000000001
 11
105.499999100
 21
-16.450000001
  0
LINE
  8
MASS
  6
CONTINUOUS
 62
     4
 10
105.499999100
 20
-16.450000001
 11
105.499999100
 21
-15.550000001
  0
LINE
  8
MASS
  6
CONTINUOUS
 62
     4
 10
105.499999100
 20
-15.550000001
 11
108.999999100
 21
-16.000000001
  0
LINE
  8
MASS
  6
CONTINUOUS
 62
     4
 10
7.500000000
 20
-16.000000000
 11
105.499999100
 21
-16.000000001
  0
TEXT
  8
MASS
  6
CONTINUOUS
 62
     4
 10
57.523435877
 20
-14.500000001
 40
3.500000000
  1
105
 50
359.999999999
 41
1.000
 51
0.000000000
  7
STANDARD
  0
TEXT
  8
MASS
  6
CONTINUOUS
 62
     4
 10
50.889373377
 20
-14.500000001
 40
3.500000000
  1
75-
 50
359.999999999
 41
1.000
 51
0.000000000
  7
STANDARD
  0
LINE
  8
MASS
  6
CONTINUOUS
 62
     4
 10
121.999999995
 20
8.899993586
 11
108.599990840
 21
8.899993000
  0
LINE
  8
MASS
  6
CONTINUOUS
 62
     4
 10
119.999999995
 20
8.899993498
 11
120.449999842
 21
12.399993518
  0
LINE
  8
MASS
  6
CONTINUOUS
 62
     4
 10
120.449999842
 20
12.399993518
 11
119.549999842
 21
12.399993479
  0
LINE
  8
MASS
  6
CONTINUOUS
 62
     4
 10
119.549999842
 20
12.399993479
 11
119.999999995
 21
8.899993498
  0
LINE
  8
MASS
  6
CONTINUOUS
 62
     4
 10
119.999999842
 20
12.399993498
 11
119.999998533
 21
42.346628211
  0
LINE
  8
MASS
  6
CONTINUOUS
 62
     4
 10
120.000000773
 20
-8.899991182
 11
119.999999995
 21
8.899993498
  0
TEXT
  8
MASS
  6
CONTINUOUS
 62
     4
 10
118.542693818
 20
17.781628147
 40
3.500000000
  1
17.8
 50
90.000002504
 41
1.000
 51
0.000000000
  7
STANDARD
  0
CIRCLE
  8
MASS
  6
CONTINUOUS
 62
     4
 10
117.292693916
 20
15.531628092
 40
1.250000000
  0
LINE
  8
MASS
  6
CONTINUOUS
 62
     4
 10
118.542693971
 20
14.281628147
 11
116.042693862
 21
16.781628038
  0
TEXT
  8
MASS
  6
CONTINUOUS
 62
     4
 10
118.542693499
 20
25.071940647
 40
3.500000000
  1
-32.5(34.8)
 50
90.000002504
 41
1.000
 51
0.000000000
  7
STANDARD
  0
LINE
  8
MASS
  6
CONTINUOUS
 62
     4
 10
-30.000000000
 20
18.000000000
 11
-30.000000000
 21
5.000000000
  0
LINE
  8
MASS
  6
CONTINUOUS
 62
     4
 10
-30.000000000
 20
16.000000000
 11
-26.500000000
 21
16.450000000
  0
LINE
  8
MASS
  6
CONTINUOUS
 62
     4
 10
-26.500000000
 20
16.450000000
 11
-26.500000000
 21
15.550000000
  0
LINE
  8
MASS
  6
CONTINUOUS
 62
     4
 10
-26.500000000
 20
15.550000000
 11
-30.000000000
 21
16.000000000
  0
LINE
  8
MASS
  6
CONTINUOUS
 62
     4
 10
82.000000000
 20
18.000000000
 11
82.000000000
 21
8.000000000
  0
LINE
  8
MASS
  6
CONTINUOUS
 62
     4
 10
82.000000000
 20
16.000000000
 11
78.500000000
 21
15.550000000
  0
LINE
  8
MASS
  6
CONTINUOUS
 62
     4
 10
78.500000000
 20
15.550000000
 11
78.500000000
 21
16.450000000
  0
LINE
  8
MASS
  6
CONTINUOUS
 62
     4
 10
78.500000000
 20
16.450000000
 11
82.000000000
 21
16.000000000
  0
LINE
  8
MASS
  6
CONTINUOUS
 62
     4
 10
-26.500000000
 20
16.000000000
 11
78.500000000
 21
16.000000000
  0
TEXT
  8
MASS
  6
CONTINUOUS
 62
     4
 10
23.979842498
 20
17.500000000
 40
3.500000000
  1
112
 50
0.000000000
 41
1.000
 51
0.000000000
  7
STANDARD
  0
TEXT
  8
MASS
  6
CONTINUOUS
 62
     4
 10
67.427739910
 20
-6.377817648
 40
3.500000000
  1
615.239
 50
0.000000000
 41
1.000
 51
0.000000000
  7
STANDARD
  0
ENDSEC
  0
EOF
