999
NT  : 16.0 - 919
  0
SECTION
  2
HEADER
  9
$ACADVER
  1
AC1006
  9
$INSBASE
 10
0.000000000
 20
0.000000000
  9
$EXTMIN
 10
-42.210000007
 20
-25.078688466
  9
$EXTMAX
 10
81.210000962
 20
52.081953390
  9
$LIMMIN
 10
-42.210000007
 20
-25.078688466
  9
$LIMMAX
 10
81.210000962
 20
52.081953390
  9
$AUNITS
 70
     2
  9
$ANGBASE
 50
0.000
  9
$ANGDIR
 70
     0
  0
ENDSEC
  0
SECTION
  2
TABLES
  0
TABLE
  2
LTYPE
 70
     8
  0
LTYPE
  2
PUNKT
 70
    64
  3
..............
 72
    65
 73
     2
 40
1.500
 49
0.700
 49
-0.800
  0
LTYPE
  2
GESTRICHELT
 70
    64
  3
-- -- -- -- --
 72
    65
 73
     7
 40
2.800
 49
0.900
 49
0.000
 49
0.900
 49
0.000
 49
0.200
 49
0.000
 49
-0.800
  0
LTYPE
  2
STRICHPUNKT
 70
    64
  3
--.--.--.--.--
 72
    65
 73
     4
 40
8.800
 49
5.500
 49
-1.300
 49
0.700
 49
-1.300
  0
LTYPE
  2
STRICHPUNKT
 70
    64
  3
--.--.--.--.--
 72
    65
 73
     4
 40
8.800
 49
5.500
 49
-1.300
 49
0.700
 49
-1.300
  0
LTYPE
  2
STRICHPUNKT
 70
    64
  3
--.--.--.--.--
 72
    65
 73
     4
 40
8.800
 49
5.500
 49
-1.300
 49
0.700
 49
-1.300
  0
LTYPE
  2
PHANTOM
 70
    64
  3
--..--..--..--
 72
    65
 73
     6
 40
14.200
 49
7.000
 49
-1.800
 49
0.900
 49
-1.800
 49
0.900
 49
-1.800
  0
LTYPE
  2
PHANTOM
 70
    64
  3
--..--..--..--
 72
    65
 73
     6
 40
14.200
 49
7.000
 49
-1.800
 49
0.900
 49
-1.800
 49
0.900
 49
-1.800
  0
LTYPE
  2
PHANTOM
 70
    64
  3
--..--..--..--
 72
    65
 73
     6
 40
14.200
 49
7.000
 49
-1.800
 49
0.900
 49
-1.800
 49
0.900
 49
-1.800
  0
ENDTAB
  0
ENDSEC
  0
SECTION
  2
BLOCKS
  0
ENDSEC
  0
SECTION
  2
ENTITIES
  0
LINE
  8
AUFNAHME
  6
CONTINUOUS
 62
     7
 10
42.000000000
 20
8.000000000
 11
42.000000000
 21
-8.000000000
  0
ARC
  8
AUFNAHME
  6
CONTINUOUS
 62
     7
 10
37.500000000
 20
7.500000000
 40
0.500000000
 50
90.000000000
 51
180.000000000
  0
ARC
  8
AUFNAHME
  6
CONTINUOUS
 62
     7
 10
36.500000000
 20
6.500000000
 40
0.500000000
 50
-90.000000000
 51
0.000000000
  0
LINE
  8
AUFNAHME
  6
CONTINUOUS
 62
     7
 10
36.500000000
 20
6.000000000
 11
0.000000000
 21
6.000000000
  0
LINE
  8
AUFNAHME
  6
CONTINUOUS
 62
     7
 10
37.500000000
 20
8.000000000
 11
42.000000000
 21
8.000000000
  0
LINE
  8
AUFNAHME
  6
CONTINUOUS
 62
     7
 10
37.000000000
 20
7.500000000
 11
37.000000000
 21
-7.500000000
  0
ARC
  8
AUFNAHME
  6
CONTINUOUS
 62
     7
 10
36.500000000
 20
-6.500000000
 40
0.500000000
 50
0.000000000
 51
90.000000000
  0
ARC
  8
AUFNAHME
  6
CONTINUOUS
 62
     7
 10
37.500000000
 20
-7.500000000
 40
0.500000000
 50
180.000000000
 51
-90.000000000
  0
LINE
  8
AUFNAHME
  6
CONTINUOUS
 62
     7
 10
36.500000000
 20
-6.000000000
 11
0.000000000
 21
-6.000000000
  0
LINE
  8
AUFNAHME
  6
CONTINUOUS
 62
     7
 10
42.000000000
 20
-8.000000000
 11
37.500000000
 21
-8.000000000
  0
LINE
  8
UNSICHT
  6
GESTRICHELT
 62
     1
 10
51.500000000
 20
2.250000000
 11
-30.000000000
 21
2.250000000
  0
LINE
  8
UNSICHT
  6
GESTRICHELT
 62
     1
 10
51.500000000
 20
-2.250000000
 11
-30.000000000
 21
-2.250000000
  0
LINE
  8
ZAPFEN
  6
STRICHPUNKT
 62
     4
 10
53.500000000
 20
0.000000000
 11
-32.000000000
 21
0.000000000
  0
LINE
  8
ZAPFEN
  6
CONTINUOUS
 62
     4
 10
-30.000000000
 20
5.000000000
 11
-30.000000000
 21
-5.000000000
  0
LINE
  8
ZAPFEN
  6
CONTINUOUS
 62
     4
 10
-30.000000000
 20
5.000000000
 11
-28.999992370
 21
6.000000000
  0
LINE
  8
ZAPFEN
  6
CONTINUOUS
 62
     4
 10
0.000000000
 20
6.000000000
 11
-28.999992370
 21
6.000000000
  0
LINE
  8
ZAPFEN
  6
CONTINUOUS
 62
     4
 10
42.000000000
 20
4.100006100
 11
51.500000000
 21
4.100006100
  0
LINE
  8
ZAPFEN
  6
CONTINUOUS
 62
     4
 10
50.600006100
 20
5.000000000
 11
50.600006100
 21
-5.000000000
  0
LINE
  8
ZAPFEN
  6
CONTINUOUS
 62
     4
 10
51.500000000
 20
4.100006100
 11
51.500000000
 21
-4.100006100
  0
LINE
  8
ZAPFEN
  6
CONTINUOUS
 62
     4
 10
50.600006100
 20
5.000000000
 11
51.500000000
 21
4.100006100
  0
LINE
  8
ZAPFEN
  6
CONTINUOUS
 62
     4
 10
42.000000000
 20
5.000000000
 11
50.600006100
 21
5.000000000
  0
LINE
  8
ZAPFEN
  6
CONTINUOUS
 62
     4
 10
0.000000000
 20
-6.000000000
 11
-29.000003810
 21
-6.000000000
  0
LINE
  8
ZAPFEN
  6
CONTINUOUS
 62
     4
 10
-30.000000000
 20
-5.000000000
 11
-29.000003810
 21
-6.000000000
  0
LINE
  8
ZAPFEN
  6
CONTINUOUS
 62
     4
 10
42.000000000
 20
-4.100006100
 11
51.500000000
 21
-4.100006100
  0
LINE
  8
ZAPFEN
  6
CONTINUOUS
 62
     4
 10
50.600006100
 20
-5.000000000
 11
42.000000000
 21
-5.000000000
  0
LINE
  8
ZAPFEN
  6
CONTINUOUS
 62
     4
 10
51.500000000
 20
-4.100006100
 11
50.600006100
 21
-5.000000000
  0
ARC
  8
FIKTIV
  6
CONTINUOUS
 62
     5
 10
56.597405356
 20
2.855017995
 40
0.555204692
 50
121.720918161
 51
160.569479932
  0
ARC
  8
FIKTIV
  6
CONTINUOUS
 62
     5
 10
57.161552668
 20
2.653406211
 40
1.154292828
 50
160.447478004
 51
-175.617144490
  0
ARC
  8
FIKTIV
  6
CONTINUOUS
 62
     5
 10
58.277518764
 20
2.701460146
 40
2.270975262
 50
-176.560003740
 51
-161.369543076
  0
ARC
  8
FIKTIV
  6
CONTINUOUS
 62
     5
 10
59.179040280
 20
2.976741757
 40
3.213312880
 50
-161.853588247
 51
-149.827983175
  0
ARC
  8
FIKTIV
  6
CONTINUOUS
 62
     5
 10
59.188680867
 20
2.960024600
 40
3.213303304
 50
-150.172078045
 51
-138.146472973
  0
ARC
  8
FIKTIV
  6
CONTINUOUS
 62
     5
 10
58.499534641
 20
2.316920937
 40
2.270974674
 50
-138.630876867
 51
-123.440416203
  0
ARC
  8
FIKTIV
  6
CONTINUOUS
 62
     5
 10
57.899925144
 20
1.374509333
 40
1.154300121
 50
-124.382790879
 51
-100.447395239
  0
ARC
  8
FIKTIV
  6
CONTINUOUS
 62
     5
 10
57.792452471
 20
0.785127798
 40
0.555202418
 50
-100.569496430
 51
-61.720954698
  0
ARC
  8
FIKTIV
  6
CONTINUOUS
 62
     5
 10
57.763571709
 20
0.768456221
 40
0.555204783
 50
-58.279073677
 51
-19.430514133
  0
ARC
  8
FIKTIV
  6
CONTINUOUS
 62
     5
 10
57.199424616
 20
0.970068038
 40
1.154292723
 50
-19.552524315
 51
4.382855457
  0
ARC
  8
FIKTIV
  6
CONTINUOUS
 62
     5
 10
56.083462776
 20
0.922014908
 40
2.270970860
 50
3.439982366
 51
18.630472693
  0
ARC
  8
FIKTIV
  6
CONTINUOUS
 62
     5
 10
55.181929638
 20
0.646729275
 40
3.213320770
 50
18.146425832
 51
30.172001193
  0
ARC
  8
FIKTIV
  6
CONTINUOUS
 62
     5
 10
55.172295739
 20
0.663449653
 40
3.213303797
 50
29.827916665
 51
41.853521737
  0
ARC
  8
FIKTIV
  6
CONTINUOUS
 62
     5
 10
55.861441069
 20
1.306539039
 40
2.270985276
 50
41.369371131
 51
56.559831795
  0
ARC
  8
FIKTIV
  6
CONTINUOUS
 62
     5
 10
56.461050118
 20
2.248972368
 40
1.154292885
 50
55.617078310
 51
79.552442214
  0
ARC
  8
FIKTIV
  6
CONTINUOUS
 62
     5
 10
56.568524364
 20
2.838346749
 40
0.555201931
 50
79.430459094
 51
118.279031999
  0
ARC
  8
FIKTIV
  6
CONTINUOUS
 62
     5
 10
57.194900534
 20
4.949732557
 40
2.415858312
 50
121.932673445
 51
161.862404739
  0
ARC
  8
FIKTIV
  6
CONTINUOUS
 62
     5
 10
59.928213835
 20
4.029297072
 40
5.299942993
 50
161.604894330
 51
-174.654351829
  0
ARC
  8
FIKTIV
  6
CONTINUOUS
 62
     5
 10
65.382241218
 20
4.348086432
 40
10.761639351
 50
-175.669788051
 51
-160.924447196
  0
ARC
  8
FIKTIV
  6
CONTINUOUS
 62
     5
 10
69.807630141
 20
5.739205801
 40
15.399223422
 50
-161.413914751
 51
-149.829746174
  0
ARC
  8
FIKTIV
  6
CONTINUOUS
 62
     5
 10
69.853381421
 20
5.659945348
 40
15.399214967
 50
-150.170254178
 51
-138.586085602
  0
ARC
  8
FIKTIV
  6
CONTINUOUS
 62
     5
 10
66.435942973
 20
2.523011569
 40
10.761635222
 50
-139.075533033
 51
-124.330185332
  0
ARC
  8
FIKTIV
  6
CONTINUOUS
 62
     5
 10
64.548523782
 20
-0.094635450
 40
7.535998061
 50
-123.703827839
 51
-120.543153004
  0
LINE
  8
FIKTIV
  6
CONTINUOUS
 62
     5
 10
59.000000000
 20
7.000000000
 11
66.974601750
 21
8.120742800
  0
LINE
  8
FIKTIV
  6
CONTINUOUS
 62
     5
 10
63.000000000
 20
-5.267944340
 11
55.917099000
 21
7.000000000
  0
LINE
  8
FIKTIV
  6
CONTINUOUS
 62
     5
 10
48.500000000
 20
7.000000000
 11
48.000000000
 21
7.000000000
  0
LINE
  8
FIKTIV
  6
CONTINUOUS
 62
     5
 10
54.000000000
 20
6.000000000
 11
48.500000000
 21
6.000000000
  0
LINE
  8
FIKTIV
  6
CONTINUOUS
 62
     5
 10
54.000000000
 20
7.000000000
 11
54.000000000
 21
6.000000000
  0
LINE
  8
FIKTIV
  6
CONTINUOUS
 62
     5
 10
48.500000000
 20
7.000000000
 11
48.500000000
 21
6.000000000
  0
LINE
  8
FIKTIV
  6
CONTINUOUS
 62
     5
 10
58.999954220
 20
7.000000000
 11
54.000000000
 21
7.000000000
  0
LINE
  8
FIKTIV
  6
CONTINUOUS
 62
     5
 10
47.000000000
 20
8.000000000
 11
48.000000000
 21
7.000000000
  0
LINE
  8
FIKTIV
  6
CONTINUOUS
 62
     5
 10
47.000000000
 20
8.000000000
 11
42.000000000
 21
8.000000000
  0
CIRCLE
  8
FIKTIV
  6
CONTINUOUS
 62
     5
 10
65.577255250
 20
3.845367430
 40
1.250000000
  0
ARC
  8
FIKTIV
  6
CONTINUOUS
 62
     5
 10
68.599990840
 20
8.499984740
 40
0.400008260
 50
-3.000549320
 51
116.998657230
  0
ARC
  8
FIKTIV
  6
CONTINUOUS
 62
     5
 10
60.034858700
 20
4.135833740
 40
0.400000630
 50
117.000549320
 51
-123.000000000
  0
LINE
  8
FIKTIV
  6
CONTINUOUS
 62
     5
 10
68.496368410
 20
-1.120651250
 11
68.999443050
 21
8.479049680
  0
LINE
  8
FIKTIV
  6
CONTINUOUS
 62
     5
 10
59.853256230
 20
4.492233280
 11
68.418403630
 21
8.856399540
  0
LINE
  8
FIKTIV
  6
CONTINUOUS
 62
     5
 10
59.817001340
 20
3.800369260
 11
67.879051210
 21
-1.435180660
  0
LINE
  8
FIKTIV
  6
CONTINUOUS
 62
     5
 10
48.500000000
 20
-6.000000000
 11
48.500000000
 21
-7.000000000
  0
LINE
  8
FIKTIV
  6
CONTINUOUS
 62
     5
 10
54.000000000
 20
-6.000000000
 11
54.000000000
 21
-7.000000000
  0
LINE
  8
FIKTIV
  6
CONTINUOUS
 62
     5
 10
48.500000000
 20
-7.000000000
 11
48.000000000
 21
-7.000000000
  0
LINE
  8
FIKTIV
  6
CONTINUOUS
 62
     5
 10
54.000000000
 20
-6.000000000
 11
48.500000000
 21
-6.000000000
  0
LINE
  8
FIKTIV
  6
CONTINUOUS
 62
     5
 10
60.000000000
 20
-7.000000000
 11
54.049987790
 21
-7.000000000
  0
LINE
  8
FIKTIV
  6
CONTINUOUS
 62
     5
 10
47.000000000
 20
-8.000000000
 11
48.000000000
 21
-7.000000000
  0
LINE
  8
FIKTIV
  6
CONTINUOUS
 62
     5
 10
47.000000000
 20
-8.000000000
 11
42.000000000
 21
-8.000000000
  0
LINE
  8
FIKTIV
  6
CONTINUOUS
 62
     5
 10
60.000000000
 20
-7.000000000
 11
67.411132810
 21
-2.721191410
  0
LINE
  8
FIKTIV
  6
CONTINUOUS
 62
     5
 10
67.411132810
 20
-2.721191410
 11
67.491714480
 21
-1.183639530
  0
ARC
  8
FIKTIV
  6
CONTINUOUS
 62
     5
 10
68.096908570
 20
-1.099716190
 40
0.400014880
 50
-123.000000000
 51
-2.999206540
  0
LINE
  8
MASS
  6
CONTINUOUS
 62
     4
 10
-37.999999995
 20
-6.000000000
 11
-29.000003810
 21
-6.000000000
  0
LINE
  8
MASS
  6
CONTINUOUS
 62
     4
 10
-35.999999995
 20
-6.000000000
 11
-36.449999996
 21
-2.500000000
  0
LINE
  8
MASS
  6
CONTINUOUS
 62
     4
 10
-36.449999996
 20
-2.500000000
 11
-35.549999996
 21
-2.500000000
  0
LINE
  8
MASS
  6
CONTINUOUS
 62
     4
 10
-35.549999996
 20
-2.500000000
 11
-35.999999995
 21
-6.000000000
  0
LINE
  8
MASS
  6
CONTINUOUS
 62
     4
 10
-37.999999999
 20
6.000000000
 11
-28.999992370
 21
6.000000000
  0
LINE
  8
MASS
  6
CONTINUOUS
 62
     4
 10
-35.999999999
 20
6.000000000
 11
-35.549999998
 21
2.500000000
  0
LINE
  8
MASS
  6
CONTINUOUS
 62
     4
 10
-35.549999998
 20
2.500000000
 11
-36.449999998
 21
2.500000000
  0
LINE
  8
MASS
  6
CONTINUOUS
 62
     4
 10
-36.449999998
 20
2.500000000
 11
-35.999999999
 21
6.000000000
  0
LINE
  8
MASS
  6
CONTINUOUS
 62
     4
 10
-35.999999996
 20
-2.500000000
 11
-35.999999998
 21
2.500000000
  0
TEXT
  8
MASS
  6
CONTINUOUS
 62
     4
 10
-37.499999998
 20
0.468124865
 40
3.500000000
  1
12
 50
90.000000020
 41
1.000
 51
0.000000000
  7
STANDARD
  0
CIRCLE
  8
MASS
  6
CONTINUOUS
 62
     4
 10
-38.749999997
 20
-1.781875135
 40
1.250000000
  0
LINE
  8
MASS
  6
CONTINUOUS
 62
     4
 10
-37.499999996
 20
-3.031875135
 11
-39.999999997
 21
-0.531875135
  0
LINE
  8
MASS
  6
CONTINUOUS
 62
     4
 10
-30.000000000
 20
-18.000000000
 11
-30.000000000
 21
-5.000000000
  0
LINE
  8
MASS
  6
CONTINUOUS
 62
     4
 10
-30.000000000
 20
-16.000000000
 11
-26.500000000
 21
-15.550000000
  0
LINE
  8
MASS
  6
CONTINUOUS
 62
     4
 10
-26.500000000
 20
-15.550000000
 11
-26.500000000
 21
-16.450000000
  0
LINE
  8
MASS
  6
CONTINUOUS
 62
     4
 10
-26.500000000
 20
-16.450000000
 11
-30.000000000
 21
-16.000000000
  0
LINE
  8
MASS
  6
CONTINUOUS
 62
     4
 10
0.000000000
 20
-18.000000000
 11
0.000000000
 21
-8.000000000
  0
LINE
  8
MASS
  6
CONTINUOUS
 62
     4
 10
0.000000000
 20
-16.000000000
 11
-3.500000000
 21
-16.450000000
  0
LINE
  8
MASS
  6
CONTINUOUS
 62
     4
 10
-3.500000000
 20
-16.450000000
 11
-3.500000000
 21
-15.550000000
  0
LINE
  8
MASS
  6
CONTINUOUS
 62
     4
 10
-3.500000000
 20
-15.550000000
 11
0.000000000
 21
-16.000000000
  0
LINE
  8
MASS
  6
CONTINUOUS
 62
     4
 10
-26.500000000
 20
-16.000000000
 11
-3.500000000
 21
-16.000000000
  0
TEXT
  8
MASS
  6
CONTINUOUS
 62
     4
 10
-13.046875335
 20
-14.500000000
 40
3.500000000
  1
30
 50
0.000000000
 41
1.000
 51
0.000000000
  7
STANDARD
  0
TEXT
  8
MASS
  6
CONTINUOUS
 62
     4
 10
-19.899687835
 20
-14.500000000
 40
3.500000000
  1
min.
 50
0.000000000
 41
1.000
 51
0.000000000
  7
STANDARD
  0
LINE
  8
MASS
  6
CONTINUOUS
 62
     4
 10
0.000000000
 20
-18.000000000
 11
0.000000000
 21
-8.000000000
  0
LINE
  8
MASS
  6
CONTINUOUS
 62
     4
 10
0.000000000
 20
-16.000000000
 11
3.500000000
 21
-15.550000000
  0
LINE
  8
MASS
  6
CONTINUOUS
 62
     4
 10
3.500000000
 20
-15.550000000
 11
3.500000000
 21
-16.450000000
  0
LINE
  8
MASS
  6
CONTINUOUS
 62
     4
 10
3.500000000
 20
-16.450000000
 11
0.000000000
 21
-16.000000000
  0
LINE
  8
MASS
  6
CONTINUOUS
 62
     4
 10
68.999999100
 20
-18.000000001
 11
68.999999100
 21
8.499984740
  0
LINE
  8
MASS
  6
CONTINUOUS
 62
     4
 10
68.999999100
 20
-16.000000001
 11
65.499999100
 21
-16.450000001
  0
LINE
  8
MASS
  6
CONTINUOUS
 62
     4
 10
65.499999100
 20
-16.450000001
 11
65.499999100
 21
-15.550000001
  0
LINE
  8
MASS
  6
CONTINUOUS
 62
     4
 10
65.499999100
 20
-15.550000001
 11
68.999999100
 21
-16.000000001
  0
LINE
  8
MASS
  6
CONTINUOUS
 62
     4
 10
3.500000000
 20
-16.000000000
 11
65.499999100
 21
-16.000000001
  0
TEXT
  8
MASS
  6
CONTINUOUS
 62
     4
 10
36.070311279
 20
-14.500000001
 40
3.500000000
  1
69
 50
359.999999999
 41
1.000
 51
0.000000000
  7
STANDARD
  0
TEXT
  8
MASS
  6
CONTINUOUS
 62
     4
 10
29.819061279
 20
-14.500000001
 40
3.500000000
  1
35-
 50
359.999999999
 41
1.000
 51
0.000000000
  7
STANDARD
  0
LINE
  8
MASS
  6
CONTINUOUS
 62
     4
 10
-30.000000000
 20
18.000000000
 11
-30.000000000
 21
5.000000000
  0
LINE
  8
MASS
  6
CONTINUOUS
 62
     4
 10
-30.000000000
 20
16.000000000
 11
-26.500000000
 21
16.450000000
  0
LINE
  8
MASS
  6
CONTINUOUS
 62
     4
 10
-26.500000000
 20
16.450000000
 11
-26.500000000
 21
15.550000000
  0
LINE
  8
MASS
  6
CONTINUOUS
 62
     4
 10
-26.500000000
 20
15.550000000
 11
-30.000000000
 21
16.000000000
  0
LINE
  8
MASS
  6
CONTINUOUS
 62
     4
 10
42.000000000
 20
18.000000000
 11
42.000000000
 21
8.000000000
  0
LINE
  8
MASS
  6
CONTINUOUS
 62
     4
 10
42.000000000
 20
16.000000000
 11
38.500000000
 21
15.550000000
  0
LINE
  8
MASS
  6
CONTINUOUS
 62
     4
 10
38.500000000
 20
15.550000000
 11
38.500000000
 21
16.450000000
  0
LINE
  8
MASS
  6
CONTINUOUS
 62
     4
 10
38.500000000
 20
16.450000000
 11
42.000000000
 21
16.000000000
  0
LINE
  8
MASS
  6
CONTINUOUS
 62
     4
 10
-26.500000000
 20
16.000000000
 11
38.500000000
 21
16.000000000
  0
TEXT
  8
MASS
  6
CONTINUOUS
 62
     4
 10
4.335311695
 20
17.500000000
 40
3.500000000
  1
72
 50
0.000000000
 41
1.000
 51
0.000000000
  7
STANDARD
  0
LINE
  8
MASS
  6
CONTINUOUS
 62
     4
 10
81.999999995
 20
8.899993586
 11
68.599990840
 21
8.899993000
  0
LINE
  8
MASS
  6
CONTINUOUS
 62
     4
 10
79.999999995
 20
8.899993498
 11
80.449999842
 21
12.399993518
  0
LINE
  8
MASS
  6
CONTINUOUS
 62
     4
 10
80.449999842
 20
12.399993518
 11
79.549999842
 21
12.399993479
  0
LINE
  8
MASS
  6
CONTINUOUS
 62
     4
 10
79.549999842
 20
12.399993479
 11
79.999999995
 21
8.899993498
  0
LINE
  8
MASS
  6
CONTINUOUS
 62
     4
 10
79.999999842
 20
12.399993498
 11
79.999998505
 21
43.003264925
  0
LINE
  8
MASS
  6
CONTINUOUS
 62
     4
 10
80.000000773
 20
-8.899991182
 11
79.999999995
 21
8.899993498
  0
TEXT
  8
MASS
  6
CONTINUOUS
 62
     4
 10
79.147433753
 20
18.438264888
 40
3.500000000
  1
17.8
 50
90.000002504
 41
1.000
 51
0.000000000
  7
STANDARD
  0
CIRCLE
  8
MASS
  6
CONTINUOUS
 62
     4
 10
77.897433852
 20
16.188264834
 40
1.250000000
  0
LINE
  8
MASS
  6
CONTINUOUS
 62
     4
 10
79.147433906
 20
14.938264888
 11
76.647433797
 21
17.438264779
  0
TEXT
  8
MASS
  6
CONTINUOUS
 62
     4
 10
79.147433435
 20
25.728577388
 40
3.500000000
  1
-32.5(34.8)
 50
90.000002504
 41
1.000
 51
0.000000000
  7
STANDARD
  0
TEXT
  8
MASS
  6
CONTINUOUS
 62
     4
 10
22.140132238
 20
7.720200084
 40
3.500000000
  1
615.234
 50
0.000000000
 41
1.000
 51
0.000000000
  7
STANDARD
  0
ENDSEC
  0
EOF
