999
NT  : 16.0 - 919
  0
SECTION
  2
HEADER
  9
$ACADVER
  1
AC1006
  9
$INSBASE
 10
0.000000000
 20
0.000000000
  9
$EXTMIN
 10
-13.610000000
 20
-29.449583125
  9
$EXTMAX
 10
48.610000000
 20
9.449583125
  9
$LIMMIN
 10
-13.610000000
 20
-29.449583125
  9
$LIMMAX
 10
48.610000000
 20
9.449583125
  9
$AUNITS
 70
     2
  9
$ANGBASE
 50
0.000
  9
$ANGDIR
 70
     0
  0
ENDSEC
  0
SECTION
  2
TABLES
  0
TABLE
  2
LTYPE
 70
     8
  0
LTYPE
  2
PUNKT
 70
    64
  3
..............
 72
    65
 73
     2
 40
1.500
 49
0.700
 49
-0.800
  0
LTYPE
  2
GESTRICHELT
 70
    64
  3
-- -- -- -- --
 72
    65
 73
     7
 40
2.800
 49
0.900
 49
0.000
 49
0.900
 49
0.000
 49
0.200
 49
0.000
 49
-0.800
  0
LTYPE
  2
STRICHPUNKT
 70
    64
  3
--.--.--.--.--
 72
    65
 73
     4
 40
8.800
 49
5.500
 49
-1.300
 49
0.700
 49
-1.300
  0
LTYPE
  2
STRICHPUNKT
 70
    64
  3
--.--.--.--.--
 72
    65
 73
     4
 40
8.800
 49
5.500
 49
-1.300
 49
0.700
 49
-1.300
  0
LTYPE
  2
STRICHPUNKT
 70
    64
  3
--.--.--.--.--
 72
    65
 73
     4
 40
8.800
 49
5.500
 49
-1.300
 49
0.700
 49
-1.300
  0
LTYPE
  2
PHANTOM
 70
    64
  3
--..--..--..--
 72
    65
 73
     6
 40
14.200
 49
7.000
 49
-1.800
 49
0.900
 49
-1.800
 49
0.900
 49
-1.800
  0
LTYPE
  2
PHANTOM
 70
    64
  3
--..--..--..--
 72
    65
 73
     6
 40
14.200
 49
7.000
 49
-1.800
 49
0.900
 49
-1.800
 49
0.900
 49
-1.800
  0
LTYPE
  2
PHANTOM
 70
    64
  3
--..--..--..--
 72
    65
 73
     6
 40
14.200
 49
7.000
 49
-1.800
 49
0.900
 49
-1.800
 49
0.900
 49
-1.800
  0
ENDTAB
  0
ENDSEC
  0
SECTION
  2
BLOCKS
  0
ENDSEC
  0
SECTION
  2
ENTITIES
  0
LINE
  8
UNSICHT
  6
GESTRICHELT
 62
     1
 10
11.000000000
 20
5.000000000
 11
11.000000000
 21
-5.000000000
  0
LINE
  8
UNSICHT
  6
GESTRICHELT
 62
     1
 10
11.000000000
 20
5.000000000
 11
0.000000000
 21
5.000000000
  0
LINE
  8
UNSICHT
  6
GESTRICHELT
 62
     1
 10
15.000000000
 20
4.100006100
 11
0.000000000
 21
4.100006100
  0
LINE
  8
UNSICHT
  6
GESTRICHELT
 62
     1
 10
11.000000000
 20
5.000000000
 11
14.358810420
 21
4.100006100
  0
LINE
  8
UNSICHT
  6
GESTRICHELT
 62
     1
 10
15.000000000
 20
4.100006100
 11
15.000000000
 21
-4.100006100
  0
LINE
  8
UNSICHT
  6
GESTRICHELT
 62
     1
 10
15.000000000
 20
4.100006100
 11
16.789787290
 21
1.000000000
  0
LINE
  8
UNSICHT
  6
GESTRICHELT
 62
     1
 10
38.000000000
 20
1.000000000
 11
16.789779660
 21
1.000000000
  0
LINE
  8
UNSICHT
  6
GESTRICHELT
 62
     1
 10
16.789779660
 20
1.000000000
 11
16.789787290
 21
-1.000000000
  0
LINE
  8
UNSICHT
  6
GESTRICHELT
 62
     1
 10
11.000000000
 20
-5.000000000
 11
0.000000000
 21
-5.000000000
  0
LINE
  8
UNSICHT
  6
GESTRICHELT
 62
     1
 10
15.000000000
 20
-4.100006100
 11
0.000000000
 21
-4.100006100
  0
LINE
  8
UNSICHT
  6
GESTRICHELT
 62
     1
 10
11.000000000
 20
-5.000000000
 11
14.358810420
 21
-4.100006100
  0
LINE
  8
UNSICHT
  6
GESTRICHELT
 62
     1
 10
15.000000000
 20
-4.100006100
 11
16.789787290
 21
-1.000000000
  0
LINE
  8
UNSICHT
  6
GESTRICHELT
 62
     1
 10
38.000000000
 20
-1.000000000
 11
16.789787290
 21
-1.000000000
  0
LINE
  8
AUFNAHME
  6
CONTINUOUS
 62
     7
 10
0.000000000
 20
8.000000000
 11
0.000000000
 21
-8.000000000
  0
LINE
  8
AUFNAHME
  6
CONTINUOUS
 62
     7
 10
18.000000000
 20
8.000000000
 11
10.000000000
 21
8.000000000
  0
LINE
  8
AUFNAHME
  6
CONTINUOUS
 62
     7
 10
19.000000000
 20
7.000000000
 11
19.000000000
 21
-7.000000000
  0
LINE
  8
AUFNAHME
  6
CONTINUOUS
 62
     7
 10
32.000000000
 20
6.000000000
 11
32.000000000
 21
-6.000000000
  0
ARC
  8
AUFNAHME
  6
CONTINUOUS
 62
     7
 10
18.000000000
 20
7.000000000
 40
1.000000000
 50
0.000000000
 51
90.000007630
  0
LINE
  8
AUFNAHME
  6
CONTINUOUS
 62
     7
 10
3.000000000
 20
8.000000000
 11
3.000000000
 21
7.000000000
  0
LINE
  8
AUFNAHME
  6
CONTINUOUS
 62
     7
 10
10.000000000
 20
8.000000000
 11
10.000000000
 21
7.000000000
  0
LINE
  8
AUFNAHME
  6
CONTINUOUS
 62
     7
 10
10.000000000
 20
7.000000000
 11
3.000000000
 21
7.000000000
  0
LINE
  8
AUFNAHME
  6
CONTINUOUS
 62
     7
 10
3.000000000
 20
8.000000000
 11
0.000000000
 21
8.000000000
  0
ARC
  8
AUFNAHME
  6
CONTINUOUS
 62
     7
 10
20.000000000
 20
7.000000000
 40
1.000000000
 50
180.000000000
 51
-90.000000000
  0
LINE
  8
AUFNAHME
  6
CONTINUOUS
 62
     7
 10
32.000000000
 20
6.000000000
 11
20.000000000
 21
6.000000000
  0
LINE
  8
AUFNAHME
  6
CONTINUOUS
 62
     7
 10
0.000000000
 20
-8.000000000
 11
3.000000000
 21
-8.000000000
  0
ARC
  8
AUFNAHME
  6
CONTINUOUS
 62
     7
 10
18.000000000
 20
-7.000000000
 40
1.000000000
 50
-90.000000000
 51
0.000000000
  0
LINE
  8
AUFNAHME
  6
CONTINUOUS
 62
     7
 10
10.000000000
 20
-7.000000000
 11
3.000000000
 21
-7.000000000
  0
LINE
  8
AUFNAHME
  6
CONTINUOUS
 62
     7
 10
10.000000000
 20
-8.000000000
 11
18.000000000
 21
-8.000000000
  0
LINE
  8
AUFNAHME
  6
CONTINUOUS
 62
     7
 10
10.000000000
 20
-7.000000000
 11
10.000000000
 21
-8.000000000
  0
LINE
  8
AUFNAHME
  6
CONTINUOUS
 62
     7
 10
3.000000000
 20
-7.000000000
 11
3.000000000
 21
-8.000000000
  0
ARC
  8
AUFNAHME
  6
CONTINUOUS
 62
     7
 10
20.000000000
 20
-7.000000000
 40
1.000000000
 50
90.000000000
 51
180.000000000
  0
LINE
  8
AUFNAHME
  6
CONTINUOUS
 62
     7
 10
32.000000000
 20
-6.000000000
 11
20.000000000
 21
-6.000000000
  0
LINE
  8
ZAPFEN
  6
CONTINUOUS
 62
     4
 10
37.500000000
 20
3.000000000
 11
32.000000000
 21
3.000000000
  0
LINE
  8
ZAPFEN
  6
CONTINUOUS
 62
     4
 10
38.000000000
 20
2.500000000
 11
32.000000000
 21
2.500000000
  0
LINE
  8
ZAPFEN
  6
CONTINUOUS
 62
     4
 10
37.500000000
 20
3.000000000
 11
38.000000000
 21
2.500000000
  0
LINE
  8
ZAPFEN
  6
CONTINUOUS
 62
     4
 10
38.000000000
 20
2.500000000
 11
38.000000000
 21
-2.500000000
  0
LINE
  8
ZAPFEN
  6
STRICHPUNKT
 62
     4
 10
40.000000000
 20
0.000000000
 11
-2.000000000
 21
0.000000000
  0
LINE
  8
ZAPFEN
  6
CONTINUOUS
 62
     4
 10
37.500000000
 20
3.000000000
 11
37.500000000
 21
-3.000000000
  0
LINE
  8
ZAPFEN
  6
CONTINUOUS
 62
     4
 10
38.000000000
 20
-2.500000000
 11
32.000000000
 21
-2.500000000
  0
LINE
  8
ZAPFEN
  6
CONTINUOUS
 62
     4
 10
37.500000000
 20
-3.000000000
 11
32.000000000
 21
-3.000000000
  0
LINE
  8
ZAPFEN
  6
CONTINUOUS
 62
     4
 10
37.500000000
 20
-3.000000000
 11
38.000000000
 21
-2.500000000
  0
LINE
  8
MASS
  6
CONTINUOUS
 62
     4
 10
-10.000000000
 20
-8.000000000
 11
0.000000000
 21
-8.000000000
  0
LINE
  8
MASS
  6
CONTINUOUS
 62
     4
 10
-8.000000000
 20
-8.000000000
 11
-8.450000000
 21
-4.500000000
  0
LINE
  8
MASS
  6
CONTINUOUS
 62
     4
 10
-8.450000000
 20
-4.500000000
 11
-7.550000000
 21
-4.500000000
  0
LINE
  8
MASS
  6
CONTINUOUS
 62
     4
 10
-7.550000000
 20
-4.500000000
 11
-8.000000000
 21
-8.000000000
  0
LINE
  8
MASS
  6
CONTINUOUS
 62
     4
 10
-10.000000000
 20
8.000000000
 11
0.000000000
 21
8.000000000
  0
LINE
  8
MASS
  6
CONTINUOUS
 62
     4
 10
-8.000000000
 20
8.000000000
 11
-7.550000000
 21
4.500000000
  0
LINE
  8
MASS
  6
CONTINUOUS
 62
     4
 10
-7.550000000
 20
4.500000000
 11
-8.450000000
 21
4.500000000
  0
LINE
  8
MASS
  6
CONTINUOUS
 62
     4
 10
-8.450000000
 20
4.500000000
 11
-8.000000000
 21
8.000000000
  0
LINE
  8
MASS
  6
CONTINUOUS
 62
     4
 10
-8.000000000
 20
-4.500000000
 11
-8.000000000
 21
4.500000000
  0
TEXT
  8
MASS
  6
CONTINUOUS
 62
     4
 10
-9.500000000
 20
0.522812321
 40
3.500000000
  1
16
 50
90.000000000
 41
1.000
 51
0.000000000
  7
STANDARD
  0
CIRCLE
  8
MASS
  6
CONTINUOUS
 62
     4
 10
-10.750000000
 20
-1.727187679
 40
1.250000000
  0
LINE
  8
MASS
  6
CONTINUOUS
 62
     4
 10
-9.500000000
 20
-2.977187679
 11
-12.000000000
 21
-0.477187679
  0
LINE
  8
MASS
  6
CONTINUOUS
 62
     4
 10
0.000000000
 20
-22.000000000
 11
0.000000000
 21
-8.000000000
  0
LINE
  8
MASS
  6
CONTINUOUS
 62
     4
 10
0.000000000
 20
-20.000000000
 11
3.500000000
 21
-19.550000000
  0
LINE
  8
MASS
  6
CONTINUOUS
 62
     4
 10
3.500000000
 20
-19.550000000
 11
3.500000000
 21
-20.450000000
  0
LINE
  8
MASS
  6
CONTINUOUS
 62
     4
 10
3.500000000
 20
-20.450000000
 11
0.000000000
 21
-20.000000000
  0
LINE
  8
MASS
  6
CONTINUOUS
 62
     4
 10
19.000000000
 20
-22.000000000
 11
19.000000000
 21
-7.000000000
  0
LINE
  8
MASS
  6
CONTINUOUS
 62
     4
 10
19.000000000
 20
-20.000000000
 11
15.500000000
 21
-20.450000000
  0
LINE
  8
MASS
  6
CONTINUOUS
 62
     4
 10
15.500000000
 20
-20.450000000
 11
15.500000000
 21
-19.550000000
  0
LINE
  8
MASS
  6
CONTINUOUS
 62
     4
 10
15.500000000
 20
-19.550000000
 11
19.000000000
 21
-20.000000000
  0
LINE
  8
MASS
  6
CONTINUOUS
 62
     4
 10
3.500000000
 20
-20.000000000
 11
15.500000000
 21
-20.000000000
  0
TEXT
  8
MASS
  6
CONTINUOUS
 62
     4
 10
8.272812288
 20
-18.500000000
 40
3.500000000
  1
19
 50
0.000000000
 41
1.000
 51
0.000000000
  7
STANDARD
  0
LINE
  8
MASS
  6
CONTINUOUS
 62
     4
 10
0.000000000
 20
-30.000000000
 11
0.000000000
 21
-8.000000000
  0
LINE
  8
MASS
  6
CONTINUOUS
 62
     4
 10
0.000000000
 20
-28.000000000
 11
3.500000000
 21
-27.550000000
  0
LINE
  8
MASS
  6
CONTINUOUS
 62
     4
 10
3.500000000
 20
-27.550000000
 11
3.500000000
 21
-28.450000000
  0
LINE
  8
MASS
  6
CONTINUOUS
 62
     4
 10
3.500000000
 20
-28.450000000
 11
0.000000000
 21
-28.000000000
  0
LINE
  8
MASS
  6
CONTINUOUS
 62
     4
 10
32.000000000
 20
-30.000000000
 11
32.000000000
 21
-6.000000000
  0
LINE
  8
MASS
  6
CONTINUOUS
 62
     4
 10
32.000000000
 20
-28.000000000
 11
28.500000000
 21
-28.450000000
  0
LINE
  8
MASS
  6
CONTINUOUS
 62
     4
 10
28.500000000
 20
-28.450000000
 11
28.500000000
 21
-27.550000000
  0
LINE
  8
MASS
  6
CONTINUOUS
 62
     4
 10
28.500000000
 20
-27.550000000
 11
32.000000000
 21
-28.000000000
  0
LINE
  8
MASS
  6
CONTINUOUS
 62
     4
 10
3.500000000
 20
-28.000000000
 11
28.500000000
 21
-28.000000000
  0
TEXT
  8
MASS
  6
CONTINUOUS
 62
     4
 10
14.526718392
 20
-26.500000000
 40
3.500000000
  1
32
 50
0.000000000
 41
1.000
 51
0.000000000
  7
STANDARD
  0
LINE
  8
MASS
  6
CONTINUOUS
 62
     4
 10
50.000000000
 20
-6.000000000
 11
32.000000000
 21
-6.000000000
  0
LINE
  8
MASS
  6
CONTINUOUS
 62
     4
 10
48.000000000
 20
-6.000000000
 11
47.550000000
 21
-2.500000000
  0
LINE
  8
MASS
  6
CONTINUOUS
 62
     4
 10
47.550000000
 20
-2.500000000
 11
48.450000000
 21
-2.500000000
  0
LINE
  8
MASS
  6
CONTINUOUS
 62
     4
 10
48.450000000
 20
-2.500000000
 11
48.000000000
 21
-6.000000000
  0
LINE
  8
MASS
  6
CONTINUOUS
 62
     4
 10
50.000000000
 20
6.000000000
 11
32.000000000
 21
6.000000000
  0
LINE
  8
MASS
  6
CONTINUOUS
 62
     4
 10
48.000000000
 20
6.000000000
 11
48.450000000
 21
2.500000000
  0
LINE
  8
MASS
  6
CONTINUOUS
 62
     4
 10
48.450000000
 20
2.500000000
 11
47.550000000
 21
2.500000000
  0
LINE
  8
MASS
  6
CONTINUOUS
 62
     4
 10
47.550000000
 20
2.500000000
 11
48.000000000
 21
6.000000000
  0
LINE
  8
MASS
  6
CONTINUOUS
 62
     4
 10
48.000000000
 20
-2.500000000
 11
48.000000000
 21
2.500000000
  0
TEXT
  8
MASS
  6
CONTINUOUS
 62
     4
 10
46.500000000
 20
0.468124866
 40
3.500000000
  1
12
 50
90.000000000
 41
1.000
 51
0.000000000
  7
STANDARD
  0
CIRCLE
  8
MASS
  6
CONTINUOUS
 62
     4
 10
45.250000000
 20
-1.781875134
 40
1.250000000
  0
LINE
  8
MASS
  6
CONTINUOUS
 62
     4
 10
46.500000000
 20
-3.031875134
 11
44.000000000
 21
-0.531875134
  0
TEXT
  8
MASS
  6
CONTINUOUS
 62
     4
 10
19.439830941
 20
-5.528551836
 40
3.500000000
  1
615.231
 50
0.000000000
 41
1.000
 51
0.000000000
  7
STANDARD
  0
ENDSEC
  0
EOF
