999
NT  : 16.0 - 919
  0
SECTION
  2
HEADER
  9
$ACADVER
  1
AC1006
  9
$INSBASE
 10
0.000000000
 20
0.000000000
  9
$EXTMIN
 10
-47.170000010
 20
-58.002545922
  9
$EXTMAX
 10
174.170000962
 20
80.376455936
  9
$LIMMIN
 10
-47.170000010
 20
-58.002545922
  9
$LIMMAX
 10
174.170000962
 20
80.376455936
  9
$AUNITS
 70
     2
  9
$ANGBASE
 50
0.000
  9
$ANGDIR
 70
     0
  0
ENDSEC
  0
SECTION
  2
TABLES
  0
TABLE
  2
LTYPE
 70
     8
  0
LTYPE
  2
PUNKT
 70
    64
  3
..............
 72
    65
 73
     2
 40
1.500
 49
0.700
 49
-0.800
  0
LTYPE
  2
GESTRICHELT
 70
    64
  3
-- -- -- -- --
 72
    65
 73
     7
 40
2.800
 49
0.900
 49
0.000
 49
0.900
 49
0.000
 49
0.200
 49
0.000
 49
-0.800
  0
LTYPE
  2
STRICHPUNKT
 70
    64
  3
--.--.--.--.--
 72
    65
 73
     4
 40
8.800
 49
5.500
 49
-1.300
 49
0.700
 49
-1.300
  0
LTYPE
  2
STRICHPUNKT
 70
    64
  3
--.--.--.--.--
 72
    65
 73
     4
 40
8.800
 49
5.500
 49
-1.300
 49
0.700
 49
-1.300
  0
LTYPE
  2
STRICHPUNKT
 70
    64
  3
--.--.--.--.--
 72
    65
 73
     4
 40
8.800
 49
5.500
 49
-1.300
 49
0.700
 49
-1.300
  0
LTYPE
  2
PHANTOM
 70
    64
  3
--..--..--..--
 72
    65
 73
     6
 40
14.200
 49
7.000
 49
-1.800
 49
0.900
 49
-1.800
 49
0.900
 49
-1.800
  0
LTYPE
  2
PHANTOM
 70
    64
  3
--..--..--..--
 72
    65
 73
     6
 40
14.200
 49
7.000
 49
-1.800
 49
0.900
 49
-1.800
 49
0.900
 49
-1.800
  0
LTYPE
  2
PHANTOM
 70
    64
  3
--..--..--..--
 72
    65
 73
     6
 40
14.200
 49
7.000
 49
-1.800
 49
0.900
 49
-1.800
 49
0.900
 49
-1.800
  0
ENDTAB
  0
ENDSEC
  0
SECTION
  2
BLOCKS
  0
ENDSEC
  0
SECTION
  2
ENTITIES
  0
LINE
  8
AUFNAHME
  6
CONTINUOUS
 62
     7
 10
133.000000000
 20
8.000000000
 11
133.000000000
 21
-8.000000000
  0
LINE
  8
AUFNAHME
  6
CONTINUOUS
 62
     7
 10
133.000000000
 20
8.000000000
 11
0.000000000
 21
8.000000000
  0
LINE
  8
AUFNAHME
  6
CONTINUOUS
 62
     7
 10
133.000000000
 20
-8.000000000
 11
0.000000000
 21
-8.000000000
  0
ARC
  8
FIKTIV
  6
CONTINUOUS
 62
     5
 10
147.597393911
 20
2.855007176
 40
0.555211889
 50
121.719996271
 51
160.568558043
  0
ARC
  8
FIKTIV
  6
CONTINUOUS
 62
     5
 10
148.161537408
 20
2.653406211
 40
1.154292828
 50
160.447478004
 51
-175.617144490
  0
ARC
  8
FIKTIV
  6
CONTINUOUS
 62
     5
 10
149.277505414
 20
2.701474469
 40
2.270978028
 50
-176.559645897
 51
-161.369185233
  0
ARC
  8
FIKTIV
  6
CONTINUOUS
 62
     5
 10
150.179032650
 20
2.976777929
 40
3.213327766
 50
-161.852996513
 51
-149.827391441
  0
ARC
  8
FIKTIV
  6
CONTINUOUS
 62
     5
 10
150.188678957
 20
2.960042733
 40
3.213313981
 50
-150.171814486
 51
-138.146209413
  0
ARC
  8
FIKTIV
  6
CONTINUOUS
 62
     5
 10
149.499530826
 20
2.316892327
 40
2.270952902
 50
-138.631354965
 51
-123.440894301
  0
ARC
  8
FIKTIV
  6
CONTINUOUS
 62
     5
 10
148.899913699
 20
1.374491335
 40
1.154283113
 50
-124.383139106
 51
-100.447743465
  0
ARC
  8
FIKTIV
  6
CONTINUOUS
 62
     5
 10
148.792441026
 20
0.785138617
 40
0.555213753
 50
-100.569678656
 51
-61.721136924
  0
ARC
  8
FIKTIV
  6
CONTINUOUS
 62
     5
 10
148.763567894
 20
0.768467040
 40
0.555211980
 50
-58.279995567
 51
-19.431436022
  0
ARC
  8
FIKTIV
  6
CONTINUOUS
 62
     5
 10
148.199424616
 20
0.970068038
 40
1.154292723
 50
-19.552524315
 51
4.382855457
  0
ARC
  8
FIKTIV
  6
CONTINUOUS
 62
     5
 10
147.083460871
 20
0.922000622
 40
2.270973619
 50
3.440339271
 51
18.630829599
  0
ARC
  8
FIKTIV
  6
CONTINUOUS
 62
     5
 10
146.181922008
 20
0.646693008
 40
3.213335696
 50
18.147019120
 51
30.172594480
  0
ARC
  8
FIKTIV
  6
CONTINUOUS
 62
     5
 10
146.172282384
 20
0.663431567
 40
3.213314445
 50
29.828179534
 51
41.853784606
  0
ARC
  8
FIKTIV
  6
CONTINUOUS
 62
     5
 10
146.861431534
 20
1.306581973
 40
2.270952604
 50
41.368653674
 51
56.559114338
  0
ARC
  8
FIKTIV
  6
CONTINUOUS
 62
     5
 10
147.461048213
 20
2.248981355
 40
1.154284392
 50
55.616904424
 51
79.552268328
  0
ARC
  8
FIKTIV
  6
CONTINUOUS
 62
     5
 10
147.568520549
 20
2.838335931
 40
0.555213266
 50
79.430276869
 51
118.278849773
  0
ARC
  8
FIKTIV
  6
CONTINUOUS
 62
     5
 10
148.194906259
 20
4.949748316
 40
2.415847965
 50
121.932986365
 51
161.862717659
  0
ARC
  8
FIKTIV
  6
CONTINUOUS
 62
     5
 10
150.928227190
 20
4.029306135
 40
5.299941941
 50
161.604993800
 51
-174.654252358
  0
ARC
  8
FIKTIV
  6
CONTINUOUS
 62
     5
 10
156.382252663
 20
4.348056948
 40
10.761633321
 50
-175.669943044
 51
-160.924602189
  0
ARC
  8
FIKTIV
  6
CONTINUOUS
 62
     5
 10
160.807639676
 20
5.739224581
 40
15.399231214
 50
-161.413850779
 51
-149.829682203
  0
ARC
  8
FIKTIV
  6
CONTINUOUS
 62
     5
 10
160.853394771
 20
5.659964177
 40
15.399225990
 50
-150.170196937
 51
-138.586028361
  0
ARC
  8
FIKTIV
  6
CONTINUOUS
 62
     5
 10
157.435954418
 20
2.522982085
 40
10.761613026
 50
-139.075638334
 51
-124.330290633
  0
ARC
  8
FIKTIV
  6
CONTINUOUS
 62
     5
 10
155.548535227
 20
-0.094497170
 40
7.536115215
 50
-123.703268595
 51
-120.542593760
  0
LINE
  8
FIKTIV
  6
CONTINUOUS
 62
     5
 10
150.000000000
 20
7.000000000
 11
157.974609380
 21
8.120742800
  0
LINE
  8
FIKTIV
  6
CONTINUOUS
 62
     5
 10
154.000000000
 20
-5.267944340
 11
146.917099000
 21
7.000000000
  0
LINE
  8
FIKTIV
  6
CONTINUOUS
 62
     5
 10
139.500000000
 20
7.000000000
 11
139.000000000
 21
7.000000000
  0
LINE
  8
FIKTIV
  6
CONTINUOUS
 62
     5
 10
145.000000000
 20
6.000000000
 11
139.500000000
 21
6.000000000
  0
LINE
  8
FIKTIV
  6
CONTINUOUS
 62
     5
 10
145.000000000
 20
7.000000000
 11
145.000000000
 21
6.000000000
  0
LINE
  8
FIKTIV
  6
CONTINUOUS
 62
     5
 10
139.500000000
 20
7.000000000
 11
139.500000000
 21
6.000000000
  0
LINE
  8
FIKTIV
  6
CONTINUOUS
 62
     5
 10
149.999954220
 20
7.000000000
 11
145.000000000
 21
7.000000000
  0
LINE
  8
FIKTIV
  6
CONTINUOUS
 62
     5
 10
138.000000000
 20
8.000000000
 11
139.000000000
 21
7.000000000
  0
LINE
  8
FIKTIV
  6
CONTINUOUS
 62
     5
 10
138.000000000
 20
8.000000000
 11
133.000000000
 21
8.000000000
  0
CIRCLE
  8
FIKTIV
  6
CONTINUOUS
 62
     5
 10
156.577255250
 20
3.845367430
 40
1.250000000
  0
ARC
  8
FIKTIV
  6
CONTINUOUS
 62
     5
 10
159.599990840
 20
8.499984740
 40
0.400008260
 50
-3.000549320
 51
116.998657230
  0
ARC
  8
FIKTIV
  6
CONTINUOUS
 62
     5
 10
151.034866330
 20
4.135833740
 40
0.400000630
 50
117.000549320
 51
-123.000000000
  0
LINE
  8
FIKTIV
  6
CONTINUOUS
 62
     5
 10
159.496368410
 20
-1.120651250
 11
159.999450680
 21
8.479049680
  0
LINE
  8
FIKTIV
  6
CONTINUOUS
 62
     5
 10
150.853256230
 20
4.492233280
 11
159.418396000
 21
8.856399540
  0
LINE
  8
FIKTIV
  6
CONTINUOUS
 62
     5
 10
150.817001340
 20
3.800369260
 11
158.879058840
 21
-1.435180660
  0
LINE
  8
FIKTIV
  6
CONTINUOUS
 62
     5
 10
139.500000000
 20
-6.000000000
 11
139.500000000
 21
-7.000000000
  0
LINE
  8
FIKTIV
  6
CONTINUOUS
 62
     5
 10
145.000000000
 20
-6.000000000
 11
145.000000000
 21
-7.000000000
  0
LINE
  8
FIKTIV
  6
CONTINUOUS
 62
     5
 10
139.500000000
 20
-7.000000000
 11
139.000000000
 21
-7.000000000
  0
LINE
  8
FIKTIV
  6
CONTINUOUS
 62
     5
 10
145.000000000
 20
-6.000000000
 11
139.500000000
 21
-6.000000000
  0
LINE
  8
FIKTIV
  6
CONTINUOUS
 62
     5
 10
151.000000000
 20
-7.000000000
 11
145.049987790
 21
-7.000000000
  0
LINE
  8
FIKTIV
  6
CONTINUOUS
 62
     5
 10
138.000000000
 20
-8.000000000
 11
139.000000000
 21
-7.000000000
  0
LINE
  8
FIKTIV
  6
CONTINUOUS
 62
     5
 10
138.000000000
 20
-8.000000000
 11
133.000000000
 21
-8.000000000
  0
LINE
  8
FIKTIV
  6
CONTINUOUS
 62
     5
 10
151.000000000
 20
-7.000000000
 11
158.411132810
 21
-2.721191410
  0
LINE
  8
FIKTIV
  6
CONTINUOUS
 62
     5
 10
158.411132810
 20
-2.721191410
 11
158.491714480
 21
-1.183639530
  0
ARC
  8
FIKTIV
  6
CONTINUOUS
 62
     5
 10
159.096908570
 20
-1.099716190
 40
0.400014880
 50
-123.000000000
 51
-2.999206540
  0
LINE
  8
UNSICHT
  6
GESTRICHELT
 62
     1
 10
130.577346800
 20
1.500000000
 11
130.577346800
 21
-1.500000000
  0
LINE
  8
UNSICHT
  6
GESTRICHELT
 62
     1
 10
130.000000000
 20
2.500000000
 11
130.577346800
 21
1.500000000
  0
LINE
  8
UNSICHT
  6
GESTRICHELT
 62
     1
 10
142.500000000
 20
1.500000000
 11
130.577346800
 21
1.500000000
  0
LINE
  8
UNSICHT
  6
GESTRICHELT
 62
     1
 10
130.000000000
 20
2.500000000
 11
-35.000000000
 21
2.500000000
  0
LINE
  8
UNSICHT
  6
GESTRICHELT
 62
     1
 10
130.000000000
 20
2.500000000
 11
130.000000000
 21
-2.500000000
  0
LINE
  8
UNSICHT
  6
GESTRICHELT
 62
     1
 10
130.000000000
 20
-2.500000000
 11
130.577346800
 21
-1.500000000
  0
LINE
  8
UNSICHT
  6
GESTRICHELT
 62
     1
 10
142.500000000
 20
-1.500000000
 11
130.577346800
 21
-1.500000000
  0
LINE
  8
UNSICHT
  6
GESTRICHELT
 62
     1
 10
130.000000000
 20
-2.500000000
 11
-35.000000000
 21
-2.500000000
  0
LINE
  8
ZAPFEN
  6
STRICHPUNKT
 62
     4
 10
144.500000000
 20
0.000000000
 11
-37.000000000
 21
0.000000000
  0
LINE
  8
ZAPFEN
  6
CONTINUOUS
 62
     4
 10
-35.000000000
 20
7.000000000
 11
-35.000000000
 21
-7.000000000
  0
LINE
  8
ZAPFEN
  6
CONTINUOUS
 62
     4
 10
-35.000000000
 20
7.000000000
 11
-34.000000000
 21
8.000000000
  0
LINE
  8
ZAPFEN
  6
CONTINUOUS
 62
     4
 10
0.000000000
 20
8.000000000
 11
-34.000000000
 21
8.000000000
  0
LINE
  8
ZAPFEN
  6
CONTINUOUS
 62
     4
 10
133.000000000
 20
4.100006100
 11
142.500000000
 21
4.100006100
  0
LINE
  8
ZAPFEN
  6
CONTINUOUS
 62
     4
 10
141.600006100
 20
5.000000000
 11
141.600006100
 21
-5.000000000
  0
LINE
  8
ZAPFEN
  6
CONTINUOUS
 62
     4
 10
142.500000000
 20
4.100006100
 11
142.500000000
 21
-4.100006100
  0
LINE
  8
ZAPFEN
  6
CONTINUOUS
 62
     4
 10
141.600006100
 20
5.000000000
 11
142.500000000
 21
4.100006100
  0
LINE
  8
ZAPFEN
  6
CONTINUOUS
 62
     4
 10
133.000000000
 20
5.000000000
 11
141.600006100
 21
5.000000000
  0
LINE
  8
ZAPFEN
  6
CONTINUOUS
 62
     4
 10
0.000000000
 20
-8.000000000
 11
-34.000000000
 21
-8.000000000
  0
LINE
  8
ZAPFEN
  6
CONTINUOUS
 62
     4
 10
-35.000000000
 20
-7.000000000
 11
-34.000000000
 21
-8.000000000
  0
LINE
  8
ZAPFEN
  6
CONTINUOUS
 62
     4
 10
133.000000000
 20
-4.100006100
 11
142.500000000
 21
-4.100006100
  0
LINE
  8
ZAPFEN
  6
CONTINUOUS
 62
     4
 10
141.600006100
 20
-5.000000000
 11
133.000000000
 21
-5.000000000
  0
LINE
  8
ZAPFEN
  6
CONTINUOUS
 62
     4
 10
142.500000000
 20
-4.100006100
 11
141.600006100
 21
-5.000000000
  0
LINE
  8
MASS
  6
CONTINUOUS
 62
     4
 10
-42.000000000
 20
-8.000000000
 11
-34.000000000
 21
-8.000000000
  0
LINE
  8
MASS
  6
CONTINUOUS
 62
     4
 10
-40.000000000
 20
-8.000000000
 11
-40.450000000
 21
-4.500000000
  0
LINE
  8
MASS
  6
CONTINUOUS
 62
     4
 10
-40.450000000
 20
-4.500000000
 11
-39.550000000
 21
-4.500000000
  0
LINE
  8
MASS
  6
CONTINUOUS
 62
     4
 10
-39.550000000
 20
-4.500000000
 11
-40.000000000
 21
-8.000000000
  0
LINE
  8
MASS
  6
CONTINUOUS
 62
     4
 10
-42.000000000
 20
8.000000000
 11
-34.000000000
 21
8.000000000
  0
LINE
  8
MASS
  6
CONTINUOUS
 62
     4
 10
-40.000000000
 20
8.000000000
 11
-39.550000000
 21
4.500000000
  0
LINE
  8
MASS
  6
CONTINUOUS
 62
     4
 10
-39.550000000
 20
4.500000000
 11
-40.450000000
 21
4.500000000
  0
LINE
  8
MASS
  6
CONTINUOUS
 62
     4
 10
-40.450000000
 20
4.500000000
 11
-40.000000000
 21
8.000000000
  0
LINE
  8
MASS
  6
CONTINUOUS
 62
     4
 10
-40.000000000
 20
-4.500000000
 11
-40.000000000
 21
4.500000000
  0
TEXT
  8
MASS
  6
CONTINUOUS
 62
     4
 10
-41.500000000
 20
0.522812321
 40
3.500000000
  1
16
 50
90.000000000
 41
1.000
 51
0.000000000
  7
STANDARD
  0
CIRCLE
  8
MASS
  6
CONTINUOUS
 62
     4
 10
-42.750000000
 20
-1.727187679
 40
1.250000000
  0
LINE
  8
MASS
  6
CONTINUOUS
 62
     4
 10
-41.500000000
 20
-2.977187679
 11
-44.000000000
 21
-0.477187679
  0
LINE
  8
MASS
  6
CONTINUOUS
 62
     4
 10
-35.000000000
 20
-22.000000000
 11
-35.000000000
 21
-7.000000000
  0
LINE
  8
MASS
  6
CONTINUOUS
 62
     4
 10
-35.000000000
 20
-20.000000000
 11
-31.500000000
 21
-19.550000000
  0
LINE
  8
MASS
  6
CONTINUOUS
 62
     4
 10
-31.500000000
 20
-19.550000000
 11
-31.500000000
 21
-20.450000000
  0
LINE
  8
MASS
  6
CONTINUOUS
 62
     4
 10
-31.500000000
 20
-20.450000000
 11
-35.000000000
 21
-20.000000000
  0
LINE
  8
MASS
  6
CONTINUOUS
 62
     4
 10
0.000000000
 20
-22.000000000
 11
0.000000000
 21
-10.891128540
  0
LINE
  8
MASS
  6
CONTINUOUS
 62
     4
 10
0.000000000
 20
-20.000000000
 11
-3.500000000
 21
-20.450000000
  0
LINE
  8
MASS
  6
CONTINUOUS
 62
     4
 10
-3.500000000
 20
-20.450000000
 11
-3.500000000
 21
-19.550000000
  0
LINE
  8
MASS
  6
CONTINUOUS
 62
     4
 10
-3.500000000
 20
-19.550000000
 11
0.000000000
 21
-20.000000000
  0
LINE
  8
MASS
  6
CONTINUOUS
 62
     4
 10
-31.500000000
 20
-20.000000000
 11
-3.500000000
 21
-20.000000000
  0
TEXT
  8
MASS
  6
CONTINUOUS
 62
     4
 10
-15.437500391
 20
-18.500000000
 40
3.500000000
  1
35
 50
0.000000000
 41
1.000
 51
0.000000000
  7
STANDARD
  0
TEXT
  8
MASS
  6
CONTINUOUS
 62
     4
 10
-22.290312891
 20
-18.500000000
 40
3.500000000
  1
min.
 50
0.000000000
 41
1.000
 51
0.000000000
  7
STANDARD
  0
LINE
  8
MASS
  6
CONTINUOUS
 62
     4
 10
0.000000000
 20
-22.000000000
 11
0.000000000
 21
-10.891128540
  0
LINE
  8
MASS
  6
CONTINUOUS
 62
     4
 10
0.000000000
 20
-20.000000000
 11
3.500000000
 21
-19.550000000
  0
LINE
  8
MASS
  6
CONTINUOUS
 62
     4
 10
3.500000000
 20
-19.550000000
 11
3.500000000
 21
-20.450000000
  0
LINE
  8
MASS
  6
CONTINUOUS
 62
     4
 10
3.500000000
 20
-20.450000000
 11
0.000000000
 21
-20.000000000
  0
LINE
  8
MASS
  6
CONTINUOUS
 62
     4
 10
159.999999100
 20
-22.000000001
 11
159.999999100
 21
8.499984740
  0
LINE
  8
MASS
  6
CONTINUOUS
 62
     4
 10
159.999999100
 20
-20.000000001
 11
156.499999100
 21
-20.450000001
  0
LINE
  8
MASS
  6
CONTINUOUS
 62
     4
 10
156.499999100
 20
-20.450000001
 11
156.499999100
 21
-19.550000001
  0
LINE
  8
MASS
  6
CONTINUOUS
 62
     4
 10
156.499999100
 20
-19.550000001
 11
159.999999100
 21
-20.000000001
  0
LINE
  8
MASS
  6
CONTINUOUS
 62
     4
 10
3.500000000
 20
-20.000000000
 11
156.499999100
 21
-20.000000001
  0
TEXT
  8
MASS
  6
CONTINUOUS
 62
     4
 10
81.023435262
 20
-18.500000001
 40
3.500000000
  1
160
 50
360.000000000
 41
1.000
 51
0.000000000
  7
STANDARD
  0
TEXT
  8
MASS
  6
CONTINUOUS
 62
     4
 10
74.279997762
 20
-18.500000001
 40
3.500000000
  1
90-
 50
360.000000000
 41
1.000
 51
0.000000000
  7
STANDARD
  0
LINE
  8
MASS
  6
CONTINUOUS
 62
     4
 10
-35.000000000
 20
18.000000000
 11
-35.000000000
 21
7.000000000
  0
LINE
  8
MASS
  6
CONTINUOUS
 62
     4
 10
-35.000000000
 20
16.000000000
 11
-31.500000000
 21
16.450000000
  0
LINE
  8
MASS
  6
CONTINUOUS
 62
     4
 10
-31.500000000
 20
16.450000000
 11
-31.500000000
 21
15.550000000
  0
LINE
  8
MASS
  6
CONTINUOUS
 62
     4
 10
-31.500000000
 20
15.550000000
 11
-35.000000000
 21
16.000000000
  0
LINE
  8
MASS
  6
CONTINUOUS
 62
     4
 10
133.000000000
 20
18.000000000
 11
133.000000000
 21
8.000000000
  0
LINE
  8
MASS
  6
CONTINUOUS
 62
     4
 10
133.000000000
 20
16.000000000
 11
129.500000000
 21
15.550000000
  0
LINE
  8
MASS
  6
CONTINUOUS
 62
     4
 10
129.500000000
 20
15.550000000
 11
129.500000000
 21
16.450000000
  0
LINE
  8
MASS
  6
CONTINUOUS
 62
     4
 10
129.500000000
 20
16.450000000
 11
133.000000000
 21
16.000000000
  0
LINE
  8
MASS
  6
CONTINUOUS
 62
     4
 10
-31.500000000
 20
16.000000000
 11
129.500000000
 21
16.000000000
  0
TEXT
  8
MASS
  6
CONTINUOUS
 62
     4
 10
46.651716872
 20
17.500000000
 40
3.500000000
  1
168
 50
0.000000000
 41
1.000
 51
0.000000000
  7
STANDARD
  0
LINE
  8
MASS
  6
CONTINUOUS
 62
     4
 10
173.999999995
 20
8.899993629
 11
159.599990840
 21
8.899993000
  0
LINE
  8
MASS
  6
CONTINUOUS
 62
     4
 10
171.999999995
 20
8.899993542
 11
172.449999842
 21
12.399993562
  0
LINE
  8
MASS
  6
CONTINUOUS
 62
     4
 10
172.449999842
 20
12.399993562
 11
171.549999842
 21
12.399993522
  0
LINE
  8
MASS
  6
CONTINUOUS
 62
     4
 10
171.549999842
 20
12.399993522
 11
171.999999995
 21
8.899993542
  0
LINE
  8
MASS
  6
CONTINUOUS
 62
     4
 10
171.999999842
 20
12.399993542
 11
171.999998532
 21
42.373910015
  0
LINE
  8
MASS
  6
CONTINUOUS
 62
     4
 10
172.000000773
 20
-8.899991138
 11
171.999999995
 21
8.899993542
  0
TEXT
  8
MASS
  6
CONTINUOUS
 62
     4
 10
170.693843591
 20
17.262034958
 40
3.500000000
  1
17.8
 50
90.000002504
 41
1.000
 51
0.000000000
  7
STANDARD
  0
CIRCLE
  8
MASS
  6
CONTINUOUS
 62
     4
 10
169.443843689
 20
15.012034904
 40
1.250000000
  0
LINE
  8
MASS
  6
CONTINUOUS
 62
     4
 10
170.693843744
 20
13.762034958
 11
168.193843634
 21
16.262034849
  0
TEXT
  8
MASS
  6
CONTINUOUS
 62
     4
 10
170.693843272
 20
24.552347458
 40
3.500000000
  1
-50.0(54.0)
 50
90.000002504
 41
1.000
 51
0.000000000
  7
STANDARD
  0
TEXT
  8
MASS
  6
CONTINUOUS
 62
     4
 10
118.176220029
 20
-7.115605101
 40
3.500000000
  1
615.229
 50
0.000000000
 41
1.000
 51
0.000000000
  7
STANDARD
  0
ENDSEC
  0
EOF
