999
NT  : 16.0 - 919
  0
SECTION
  2
HEADER
  9
$ACADVER
  1
AC1006
  9
$INSBASE
 10
0.000000000
 20
0.000000000
  9
$EXTMIN
 10
-14.778077036
 20
-20.325196513
  9
$EXTMAX
 10
38.278077036
 20
12.844847811
  9
$LIMMIN
 10
-14.778077036
 20
-20.325196513
  9
$LIMMAX
 10
38.278077036
 20
12.844847811
  9
$AUNITS
 70
     2
  9
$ANGBASE
 50
0.000
  9
$ANGDIR
 70
     0
  0
ENDSEC
  0
SECTION
  2
TABLES
  0
TABLE
  2
LTYPE
 70
     8
  0
LTYPE
  2
PUNKT
 70
    64
  3
..............
 72
    65
 73
     2
 40
1.500
 49
0.700
 49
-0.800
  0
LTYPE
  2
GESTRICHELT
 70
    64
  3
-- -- -- -- --
 72
    65
 73
     7
 40
2.800
 49
0.900
 49
0.000
 49
0.900
 49
0.000
 49
0.200
 49
0.000
 49
-0.800
  0
LTYPE
  2
STRICHPUNKT
 70
    64
  3
--.--.--.--.--
 72
    65
 73
     4
 40
8.800
 49
5.500
 49
-1.300
 49
0.700
 49
-1.300
  0
LTYPE
  2
STRICHPUNKT
 70
    64
  3
--.--.--.--.--
 72
    65
 73
     4
 40
8.800
 49
5.500
 49
-1.300
 49
0.700
 49
-1.300
  0
LTYPE
  2
STRICHPUNKT
 70
    64
  3
--.--.--.--.--
 72
    65
 73
     4
 40
8.800
 49
5.500
 49
-1.300
 49
0.700
 49
-1.300
  0
LTYPE
  2
PHANTOM
 70
    64
  3
--..--..--..--
 72
    65
 73
     6
 40
14.200
 49
7.000
 49
-1.800
 49
0.900
 49
-1.800
 49
0.900
 49
-1.800
  0
LTYPE
  2
PHANTOM
 70
    64
  3
--..--..--..--
 72
    65
 73
     6
 40
14.200
 49
7.000
 49
-1.800
 49
0.900
 49
-1.800
 49
0.900
 49
-1.800
  0
LTYPE
  2
PHANTOM
 70
    64
  3
--..--..--..--
 72
    65
 73
     6
 40
14.200
 49
7.000
 49
-1.800
 49
0.900
 49
-1.800
 49
0.900
 49
-1.800
  0
ENDTAB
  0
ENDSEC
  0
SECTION
  2
BLOCKS
  0
ENDSEC
  0
SECTION
  2
ENTITIES
  0
LINE
  8
AUFNAHME
  6
CONTINUOUS
 62
     7
 10
15.000000000
 20
8.000000000
 11
0.000000000
 21
8.000000000
  0
LINE
  8
AUFNAHME
  6
CONTINUOUS
 62
     7
 10
22.000000000
 20
7.000000000
 11
15.000000000
 21
7.000000000
  0
LINE
  8
AUFNAHME
  6
CONTINUOUS
 62
     7
 10
22.000000000
 20
8.000000000
 11
22.000000000
 21
7.000000000
  0
LINE
  8
AUFNAHME
  6
CONTINUOUS
 62
     7
 10
15.000000000
 20
8.000000000
 11
15.000000000
 21
7.000000000
  0
LINE
  8
AUFNAHME
  6
CONTINUOUS
 62
     7
 10
0.000000000
 20
8.000000000
 11
0.000000000
 21
-8.000000000
  0
LINE
  8
AUFNAHME
  6
CONTINUOUS
 62
     7
 10
25.000000000
 20
8.000000000
 11
25.000000000
 21
-8.000000000
  0
LINE
  8
AUFNAHME
  6
CONTINUOUS
 62
     7
 10
25.000000000
 20
8.000000000
 11
22.000000000
 21
8.000000000
  0
LINE
  8
AUFNAHME
  6
CONTINUOUS
 62
     7
 10
22.000000000
 20
-8.000000000
 11
25.000000000
 21
-8.000000000
  0
LINE
  8
AUFNAHME
  6
CONTINUOUS
 62
     7
 10
22.000000000
 20
-7.000000000
 11
22.000000000
 21
-8.000000000
  0
LINE
  8
AUFNAHME
  6
CONTINUOUS
 62
     7
 10
15.000000000
 20
-7.000000000
 11
15.000000000
 21
-8.000000000
  0
LINE
  8
AUFNAHME
  6
CONTINUOUS
 62
     7
 10
22.000000000
 20
-7.000000000
 11
15.000000000
 21
-7.000000000
  0
LINE
  8
AUFNAHME
  6
CONTINUOUS
 62
     7
 10
0.000000000
 20
-8.000000000
 11
15.000000000
 21
-8.000000000
  0
LINE
  8
UNSICHT
  6
GESTRICHELT
 62
     1
 10
11.000000000
 20
5.000000000
 11
14.358810420
 21
4.100006100
  0
LINE
  8
UNSICHT
  6
GESTRICHELT
 62
     1
 10
21.356773380
 20
1.750000000
 11
21.356773380
 21
-1.750000000
  0
LINE
  8
UNSICHT
  6
GESTRICHELT
 62
     1
 10
20.000000000
 20
4.100006100
 11
21.356773380
 21
1.750000000
  0
LINE
  8
UNSICHT
  6
GESTRICHELT
 62
     1
 10
20.000000000
 20
4.100006100
 11
0.000000000
 21
4.100006100
  0
LINE
  8
UNSICHT
  6
GESTRICHELT
 62
     1
 10
11.000000000
 20
5.000000000
 11
0.000000000
 21
5.000000000
  0
LINE
  8
UNSICHT
  6
GESTRICHELT
 62
     1
 10
34.500000000
 20
1.750000000
 11
21.356781010
 21
1.750000000
  0
LINE
  8
UNSICHT
  6
GESTRICHELT
 62
     1
 10
20.000000000
 20
4.100006100
 11
20.000000000
 21
-4.100006100
  0
LINE
  8
UNSICHT
  6
GESTRICHELT
 62
     1
 10
11.000000000
 20
5.000000000
 11
11.000000000
 21
-5.000000000
  0
LINE
  8
UNSICHT
  6
GESTRICHELT
 62
     1
 10
11.000000000
 20
-5.000000000
 11
14.358810420
 21
-4.100006100
  0
LINE
  8
UNSICHT
  6
GESTRICHELT
 62
     1
 10
20.000000000
 20
-4.100006100
 11
21.356773380
 21
-1.750000000
  0
LINE
  8
UNSICHT
  6
GESTRICHELT
 62
     1
 10
20.000000000
 20
-4.100006100
 11
0.000000000
 21
-4.100006100
  0
LINE
  8
UNSICHT
  6
GESTRICHELT
 62
     1
 10
11.000000000
 20
-5.000000000
 11
0.000000000
 21
-5.000000000
  0
LINE
  8
UNSICHT
  6
GESTRICHELT
 62
     1
 10
34.500000000
 20
-1.750000000
 11
21.356773380
 21
-1.750000000
  0
LINE
  8
ZAPFEN
  6
CONTINUOUS
 62
     4
 10
33.600006100
 20
5.000000000
 11
33.600006100
 21
-5.000000000
  0
LINE
  8
ZAPFEN
  6
STRICHPUNKT
 62
     4
 10
36.500000000
 20
0.000000000
 11
-2.000000000
 21
0.000000000
  0
LINE
  8
ZAPFEN
  6
CONTINUOUS
 62
     4
 10
34.500000000
 20
4.100006100
 11
34.500000000
 21
-4.100006100
  0
LINE
  8
ZAPFEN
  6
CONTINUOUS
 62
     4
 10
33.600006100
 20
5.000000000
 11
34.500000000
 21
4.100006100
  0
LINE
  8
ZAPFEN
  6
CONTINUOUS
 62
     4
 10
25.000000000
 20
4.100006100
 11
34.500000000
 21
4.100006100
  0
LINE
  8
ZAPFEN
  6
CONTINUOUS
 62
     4
 10
25.000000000
 20
5.000000000
 11
33.600006100
 21
5.000000000
  0
LINE
  8
ZAPFEN
  6
CONTINUOUS
 62
     4
 10
34.500000000
 20
-4.100006100
 11
33.600006100
 21
-5.000000000
  0
LINE
  8
ZAPFEN
  6
CONTINUOUS
 62
     4
 10
33.600006100
 20
-5.000000000
 11
25.000000000
 21
-5.000000000
  0
LINE
  8
ZAPFEN
  6
CONTINUOUS
 62
     4
 10
25.000000000
 20
-4.100006100
 11
34.500000000
 21
-4.100006100
  0
LINE
  8
MASS
  6
CONTINUOUS
 62
     4
 10
-10.000000000
 20
-8.000000000
 11
0.000000000
 21
-8.000000000
  0
LINE
  8
MASS
  6
CONTINUOUS
 62
     4
 10
-8.000000000
 20
-8.000000000
 11
-8.450000000
 21
-4.500000000
  0
LINE
  8
MASS
  6
CONTINUOUS
 62
     4
 10
-8.450000000
 20
-4.500000000
 11
-7.550000000
 21
-4.500000000
  0
LINE
  8
MASS
  6
CONTINUOUS
 62
     4
 10
-7.550000000
 20
-4.500000000
 11
-8.000000000
 21
-8.000000000
  0
LINE
  8
MASS
  6
CONTINUOUS
 62
     4
 10
-10.000000000
 20
8.000000000
 11
0.000000000
 21
8.000000000
  0
LINE
  8
MASS
  6
CONTINUOUS
 62
     4
 10
-8.000000000
 20
8.000000000
 11
-7.550000000
 21
4.500000000
  0
LINE
  8
MASS
  6
CONTINUOUS
 62
     4
 10
-7.550000000
 20
4.500000000
 11
-8.450000000
 21
4.500000000
  0
LINE
  8
MASS
  6
CONTINUOUS
 62
     4
 10
-8.450000000
 20
4.500000000
 11
-8.000000000
 21
8.000000000
  0
LINE
  8
MASS
  6
CONTINUOUS
 62
     4
 10
-8.000000000
 20
-4.500000000
 11
-8.000000000
 21
4.500000000
  0
TEXT
  8
MASS
  6
CONTINUOUS
 62
     4
 10
-9.500000000
 20
0.522812321
 40
3.500000000
  1
16
 50
90.000000000
 41
1.000
 51
0.000000000
  7
STANDARD
  0
CIRCLE
  8
MASS
  6
CONTINUOUS
 62
     4
 10
-10.750000000
 20
-1.727187679
 40
1.250000000
  0
LINE
  8
MASS
  6
CONTINUOUS
 62
     4
 10
-9.500000000
 20
-2.977187679
 11
-12.000000000
 21
-0.477187679
  0
LINE
  8
MASS
  6
CONTINUOUS
 62
     4
 10
0.000000000
 20
-22.000000000
 11
0.000000000
 21
-8.000000000
  0
LINE
  8
MASS
  6
CONTINUOUS
 62
     4
 10
0.000000000
 20
-20.000000000
 11
3.500000000
 21
-19.550000000
  0
LINE
  8
MASS
  6
CONTINUOUS
 62
     4
 10
3.500000000
 20
-19.550000000
 11
3.500000000
 21
-20.450000000
  0
LINE
  8
MASS
  6
CONTINUOUS
 62
     4
 10
3.500000000
 20
-20.450000000
 11
0.000000000
 21
-20.000000000
  0
LINE
  8
MASS
  6
CONTINUOUS
 62
     4
 10
25.000000000
 20
-22.000000000
 11
25.000000000
 21
-8.000000000
  0
LINE
  8
MASS
  6
CONTINUOUS
 62
     4
 10
25.000000000
 20
-20.000000000
 11
21.500000000
 21
-20.450000000
  0
LINE
  8
MASS
  6
CONTINUOUS
 62
     4
 10
21.500000000
 20
-20.450000000
 11
21.500000000
 21
-19.550000000
  0
LINE
  8
MASS
  6
CONTINUOUS
 62
     4
 10
21.500000000
 20
-19.550000000
 11
25.000000000
 21
-20.000000000
  0
LINE
  8
MASS
  6
CONTINUOUS
 62
     4
 10
3.500000000
 20
-20.000000000
 11
21.500000000
 21
-20.000000000
  0
TEXT
  8
MASS
  6
CONTINUOUS
 62
     4
 10
10.944687221
 20
-18.500000000
 40
3.500000000
  1
25
 50
0.000000000
 41
1.000
 51
0.000000000
  7
STANDARD
  0
TEXT
  8
MASS
  6
CONTINUOUS
 62
     4
 10
11.153437304
 20
9.019651298
 40
3.500000000
  1
615.228
 50
0.000000000
 41
1.000
 51
0.000000000
  7
STANDARD
  0
ENDSEC
  0
EOF
