999
NT  : 16.0 - 919
  0
SECTION
  2
HEADER
  9
$ACADVER
  1
AC1006
  9
$INSBASE
 10
0.000000000
 20
0.000000000
  9
$EXTMIN
 10
-15.229794322
 20
-16.266376341
  9
$EXTMAX
 10
28.229786692
 20
10.904010464
  9
$LIMMIN
 10
-15.229794322
 20
-16.266376341
  9
$LIMMAX
 10
28.229786692
 20
10.904010464
  9
$AUNITS
 70
     2
  9
$ANGBASE
 50
0.000
  9
$ANGDIR
 70
     0
  0
ENDSEC
  0
SECTION
  2
TABLES
  0
TABLE
  2
LTYPE
 70
     8
  0
LTYPE
  2
PUNKT
 70
    64
  3
..............
 72
    65
 73
     2
 40
1.500
 49
0.700
 49
-0.800
  0
LTYPE
  2
GESTRICHELT
 70
    64
  3
-- -- -- -- --
 72
    65
 73
     7
 40
2.800
 49
0.900
 49
0.000
 49
0.900
 49
0.000
 49
0.200
 49
0.000
 49
-0.800
  0
LTYPE
  2
STRICHPUNKT
 70
    64
  3
--.--.--.--.--
 72
    65
 73
     4
 40
8.800
 49
5.500
 49
-1.300
 49
0.700
 49
-1.300
  0
LTYPE
  2
STRICHPUNKT
 70
    64
  3
--.--.--.--.--
 72
    65
 73
     4
 40
8.800
 49
5.500
 49
-1.300
 49
0.700
 49
-1.300
  0
LTYPE
  2
STRICHPUNKT
 70
    64
  3
--.--.--.--.--
 72
    65
 73
     4
 40
8.800
 49
5.500
 49
-1.300
 49
0.700
 49
-1.300
  0
LTYPE
  2
PHANTOM
 70
    64
  3
--..--..--..--
 72
    65
 73
     6
 40
14.200
 49
7.000
 49
-1.800
 49
0.900
 49
-1.800
 49
0.900
 49
-1.800
  0
LTYPE
  2
PHANTOM
 70
    64
  3
--..--..--..--
 72
    65
 73
     6
 40
14.200
 49
7.000
 49
-1.800
 49
0.900
 49
-1.800
 49
0.900
 49
-1.800
  0
LTYPE
  2
PHANTOM
 70
    64
  3
--..--..--..--
 72
    65
 73
     6
 40
14.200
 49
7.000
 49
-1.800
 49
0.900
 49
-1.800
 49
0.900
 49
-1.800
  0
ENDTAB
  0
ENDSEC
  0
SECTION
  2
BLOCKS
  0
ENDSEC
  0
SECTION
  2
ENTITIES
  0
LINE
  8
AUFNAHME
  6
CONTINUOUS
 62
     7
 10
9.000000000
 20
6.000000000
 11
0.000000000
 21
6.000000000
  0
LINE
  8
AUFNAHME
  6
CONTINUOUS
 62
     7
 10
14.500000000
 20
5.000000000
 11
9.000000000
 21
5.000000000
  0
LINE
  8
AUFNAHME
  6
CONTINUOUS
 62
     7
 10
14.500000000
 20
6.000000000
 11
14.500000000
 21
5.000000000
  0
LINE
  8
AUFNAHME
  6
CONTINUOUS
 62
     7
 10
9.000000000
 20
6.000000000
 11
9.000000000
 21
5.000000000
  0
LINE
  8
AUFNAHME
  6
CONTINUOUS
 62
     7
 10
0.000000000
 20
6.000000000
 11
0.000000000
 21
-6.000000000
  0
LINE
  8
AUFNAHME
  6
CONTINUOUS
 62
     7
 10
18.000000000
 20
6.000000000
 11
14.500000000
 21
6.000000000
  0
LINE
  8
AUFNAHME
  6
CONTINUOUS
 62
     7
 10
18.000000000
 20
6.000000000
 11
18.000000000
 21
-6.000000000
  0
LINE
  8
AUFNAHME
  6
CONTINUOUS
 62
     7
 10
9.000000000
 20
-5.000000000
 11
9.000000000
 21
-6.000000000
  0
LINE
  8
AUFNAHME
  6
CONTINUOUS
 62
     7
 10
14.500000000
 20
-5.000000000
 11
14.500000000
 21
-6.000000000
  0
LINE
  8
AUFNAHME
  6
CONTINUOUS
 62
     7
 10
9.000000000
 20
-6.000000000
 11
0.000000000
 21
-6.000000000
  0
LINE
  8
AUFNAHME
  6
CONTINUOUS
 62
     7
 10
14.500000000
 20
-5.000000000
 11
9.000000000
 21
-5.000000000
  0
LINE
  8
AUFNAHME
  6
CONTINUOUS
 62
     7
 10
18.000000000
 20
-6.000000000
 11
14.500000000
 21
-6.000000000
  0
LINE
  8
UNSICHT
  6
GESTRICHELT
 62
     1
 10
9.866020200
 20
1.000000000
 11
9.866020200
 21
-1.000000000
  0
LINE
  8
UNSICHT
  6
GESTRICHELT
 62
     1
 10
6.500000000
 20
3.000000000
 11
8.366020200
 21
2.500000000
  0
LINE
  8
UNSICHT
  6
GESTRICHELT
 62
     1
 10
9.000000000
 20
2.500000000
 11
9.866020200
 21
1.000000000
  0
LINE
  8
UNSICHT
  6
GESTRICHELT
 62
     1
 10
6.500000000
 20
3.000000000
 11
6.500000000
 21
-3.000000000
  0
LINE
  8
UNSICHT
  6
GESTRICHELT
 62
     1
 10
9.000000000
 20
2.500000000
 11
9.000000000
 21
-2.500000000
  0
LINE
  8
UNSICHT
  6
GESTRICHELT
 62
     1
 10
6.500000000
 20
3.000000000
 11
0.000000000
 21
3.000000000
  0
LINE
  8
UNSICHT
  6
GESTRICHELT
 62
     1
 10
9.000000000
 20
2.500000000
 11
0.000000000
 21
2.500000000
  0
LINE
  8
UNSICHT
  6
GESTRICHELT
 62
     1
 10
24.000000000
 20
1.000000000
 11
9.866020200
 21
1.000000000
  0
LINE
  8
UNSICHT
  6
GESTRICHELT
 62
     1
 10
6.500000000
 20
-3.000000000
 11
8.366020200
 21
-2.500000000
  0
LINE
  8
UNSICHT
  6
GESTRICHELT
 62
     1
 10
9.000000000
 20
-2.500000000
 11
9.866020200
 21
-1.000000000
  0
LINE
  8
UNSICHT
  6
GESTRICHELT
 62
     1
 10
6.500000000
 20
-3.000000000
 11
0.000000000
 21
-3.000000000
  0
LINE
  8
UNSICHT
  6
GESTRICHELT
 62
     1
 10
9.000000000
 20
-2.500000000
 11
0.000000000
 21
-2.500000000
  0
LINE
  8
UNSICHT
  6
GESTRICHELT
 62
     1
 10
24.000000000
 20
-1.000000000
 11
9.866020200
 21
-1.000000000
  0
LINE
  8
ZAPFEN
  6
CONTINUOUS
 62
     4
 10
23.499992370
 20
3.000000000
 11
23.499992370
 21
-3.000000000
  0
LINE
  8
ZAPFEN
  6
STRICHPUNKT
 62
     4
 10
25.999992370
 20
0.000000000
 11
-2.000000000
 21
0.000000000
  0
LINE
  8
ZAPFEN
  6
CONTINUOUS
 62
     4
 10
24.000000000
 20
2.500000000
 11
24.000000000
 21
-2.500000000
  0
LINE
  8
ZAPFEN
  6
CONTINUOUS
 62
     4
 10
23.499992370
 20
3.000000000
 11
24.000000000
 21
2.500000000
  0
LINE
  8
ZAPFEN
  6
CONTINUOUS
 62
     4
 10
24.000000000
 20
2.500000000
 11
18.000000000
 21
2.500000000
  0
LINE
  8
ZAPFEN
  6
CONTINUOUS
 62
     4
 10
18.000000000
 20
3.000000000
 11
23.499992370
 21
3.000000000
  0
LINE
  8
ZAPFEN
  6
CONTINUOUS
 62
     4
 10
24.000000000
 20
-2.500000000
 11
23.500000000
 21
-3.000000000
  0
LINE
  8
ZAPFEN
  6
CONTINUOUS
 62
     4
 10
23.500000000
 20
-3.000000000
 11
18.000000000
 21
-3.000000000
  0
LINE
  8
ZAPFEN
  6
CONTINUOUS
 62
     4
 10
24.000000000
 20
-2.500000000
 11
18.000000000
 21
-2.500000000
  0
LINE
  8
MASS
  6
CONTINUOUS
 62
     4
 10
-10.000000000
 20
-6.000000000
 11
0.000000000
 21
-6.000000000
  0
LINE
  8
MASS
  6
CONTINUOUS
 62
     4
 10
-8.000000000
 20
-6.000000000
 11
-8.450000000
 21
-2.500000000
  0
LINE
  8
MASS
  6
CONTINUOUS
 62
     4
 10
-8.450000000
 20
-2.500000000
 11
-7.550000000
 21
-2.500000000
  0
LINE
  8
MASS
  6
CONTINUOUS
 62
     4
 10
-7.550000000
 20
-2.500000000
 11
-8.000000000
 21
-6.000000000
  0
LINE
  8
MASS
  6
CONTINUOUS
 62
     4
 10
-10.000000000
 20
6.000000000
 11
0.000000000
 21
6.000000000
  0
LINE
  8
MASS
  6
CONTINUOUS
 62
     4
 10
-8.000000000
 20
6.000000000
 11
-7.550000000
 21
2.500000000
  0
LINE
  8
MASS
  6
CONTINUOUS
 62
     4
 10
-7.550000000
 20
2.500000000
 11
-8.450000000
 21
2.500000000
  0
LINE
  8
MASS
  6
CONTINUOUS
 62
     4
 10
-8.450000000
 20
2.500000000
 11
-8.000000000
 21
6.000000000
  0
LINE
  8
MASS
  6
CONTINUOUS
 62
     4
 10
-8.000000000
 20
-2.500000000
 11
-8.000000000
 21
2.500000000
  0
TEXT
  8
MASS
  6
CONTINUOUS
 62
     4
 10
-9.500000000
 20
0.468124866
 40
3.500000000
  1
12
 50
90.000000000
 41
1.000
 51
0.000000000
  7
STANDARD
  0
CIRCLE
  8
MASS
  6
CONTINUOUS
 62
     4
 10
-10.750000000
 20
-1.781875134
 40
1.250000000
  0
LINE
  8
MASS
  6
CONTINUOUS
 62
     4
 10
-9.500000000
 20
-3.031875134
 11
-12.000000000
 21
-0.531875134
  0
LINE
  8
MASS
  6
CONTINUOUS
 62
     4
 10
0.000000000
 20
-18.000000000
 11
0.000000000
 21
-6.000000000
  0
LINE
  8
MASS
  6
CONTINUOUS
 62
     4
 10
0.000000000
 20
-16.000000000
 11
3.500000000
 21
-15.550000000
  0
LINE
  8
MASS
  6
CONTINUOUS
 62
     4
 10
3.500000000
 20
-15.550000000
 11
3.500000000
 21
-16.450000000
  0
LINE
  8
MASS
  6
CONTINUOUS
 62
     4
 10
3.500000000
 20
-16.450000000
 11
0.000000000
 21
-16.000000000
  0
LINE
  8
MASS
  6
CONTINUOUS
 62
     4
 10
18.000000000
 20
-18.000000000
 11
18.000000000
 21
-6.000000000
  0
LINE
  8
MASS
  6
CONTINUOUS
 62
     4
 10
18.000000000
 20
-16.000000000
 11
14.500000000
 21
-16.450000000
  0
LINE
  8
MASS
  6
CONTINUOUS
 62
     4
 10
14.500000000
 20
-16.450000000
 11
14.500000000
 21
-15.550000000
  0
LINE
  8
MASS
  6
CONTINUOUS
 62
     4
 10
14.500000000
 20
-15.550000000
 11
18.000000000
 21
-16.000000000
  0
LINE
  8
MASS
  6
CONTINUOUS
 62
     4
 10
3.500000000
 20
-16.000000000
 11
14.500000000
 21
-16.000000000
  0
TEXT
  8
MASS
  6
CONTINUOUS
 62
     4
 10
7.718124799
 20
-14.500000000
 40
3.500000000
  1
18
 50
0.000000000
 41
1.000
 51
0.000000000
  7
STANDARD
  0
TEXT
  8
MASS
  6
CONTINUOUS
 62
     4
 10
4.268376760
 20
7.137634123
 40
3.500000000
  1
615.220
 50
0.000000000
 41
1.000
 51
0.000000000
  7
STANDARD
  0
ENDSEC
  0
EOF
