  0
SECTION
  2
HEADER
  9
$ACADVER
  1
AC1015
  9
$ACADMAINTVER
 70
     6
  9
$DWGCODEPAGE
  3
ANSI_1252
  9
$INSBASE
 10
0.0
 20
0.0
 30
0.0
  9
$EXTMIN
 10
-95.88116235604241
 20
-50.36646806528135
 30
0.0
  9
$EXTMAX
 10
175.6627409447033
 20
85.72345068497528
 30
0.0
  9
$LIMMIN
 10
-46.610000012
 20
-44.271928895
  9
$LIMMAX
 10
117.610001216
 20
58.396363122
  9
$ORTHOMODE
 70
     0
  9
$REGENMODE
 70
     1
  9
$FILLMODE
 70
     1
  9
$QTEXTMODE
 70
     0
  9
$MIRRTEXT
 70
     1
  9
$LTSCALE
 40
1.0
  9
$ATTMODE
 70
     1
  9
$TEXTSIZE
 40
0.2
  9
$TRACEWID
 40
0.05
  9
$TEXTSTYLE
  7
Standard
  9
$CLAYER
  8
SK1
  9
$CELTYPE
  6
ByLayer
  9
$CECOLOR
 62
   256
  9
$CELTSCALE
 40
1.0
  9
$DISPSILH
 70
     0
  9
$DIMSCALE
 40
1.0
  9
$DIMASZ
 40
0.18
  9
$DIMEXO
 40
0.0625
  9
$DIMDLI
 40
0.38
  9
$DIMRND
 40
0.0
  9
$DIMDLE
 40
0.0
  9
$DIMEXE
 40
0.18
  9
$DIMTP
 40
0.0
  9
$DIMTM
 40
0.0
  9
$DIMTXT
 40
0.18
  9
$DIMCEN
 40
0.09
  9
$DIMTSZ
 40
0.0
  9
$DIMTOL
 70
     0
  9
$DIMLIM
 70
     0
  9
$DIMTIH
 70
     1
  9
$DIMTOH
 70
     1
  9
$DIMSE1
 70
     0
  9
$DIMSE2
 70
     0
  9
$DIMTAD
 70
     0
  9
$DIMZIN
 70
     0
  9
$DIMBLK
  1

  9
$DIMASO
 70
     1
  9
$DIMSHO
 70
     1
  9
$DIMPOST
  1

  9
$DIMAPOST
  1

  9
$DIMALT
 70
     0
  9
$DIMALTD
 70
     2
  9
$DIMALTF
 40
25.4
  9
$DIMLFAC
 40
1.0
  9
$DIMTOFL
 70
     0
  9
$DIMTVP
 40
0.0
  9
$DIMTIX
 70
     0
  9
$DIMSOXD
 70
     0
  9
$DIMSAH
 70
     0
  9
$DIMBLK1
  1

  9
$DIMBLK2
  1

  9
$DIMSTYLE
  2
Standard
  9
$DIMCLRD
 70
     0
  9
$DIMCLRE
 70
     0
  9
$DIMCLRT
 70
     0
  9
$DIMTFAC
 40
1.0
  9
$DIMGAP
 40
0.09
  9
$DIMJUST
 70
     0
  9
$DIMSD1
 70
     0
  9
$DIMSD2
 70
     0
  9
$DIMTOLJ
 70
     1
  9
$DIMTZIN
 70
     0
  9
$DIMALTZ
 70
     0
  9
$DIMALTTZ
 70
     0
  9
$DIMUPT
 70
     0
  9
$DIMDEC
 70
     4
  9
$DIMTDEC
 70
     4
  9
$DIMALTU
 70
     2
  9
$DIMALTTD
 70
     2
  9
$DIMTXSTY
  7
Standard
  9
$DIMAUNIT
 70
     0
  9
$DIMADEC
 70
     0
  9
$DIMALTRND
 40
0.0
  9
$DIMAZIN
 70
     0
  9
$DIMDSEP
 70
    46
  9
$DIMATFIT
 70
     3
  9
$DIMFRAC
 70
     0
  9
$DIMLDRBLK
  1

  9
$DIMLUNIT
 70
     2
  9
$DIMLWD
 70
    -2
  9
$DIMLWE
 70
    -2
  9
$DIMTMOVE
 70
     2
  9
$LUNITS
 70
     2
  9
$LUPREC
 70
     4
  9
$SKETCHINC
 40
0.1
  9
$FILLETRAD
 40
0.5
  9
$AUNITS
 70
     2
  9
$AUPREC
 70
     0
  9
$MENU
  1
.
  9
$ELEVATION
 40
0.0
  9
$PELEVATION
 40
0.0
  9
$THICKNESS
 40
0.0
  9
$LIMCHECK
 70
     0
  9
$CHAMFERA
 40
0.5
  9
$CHAMFERB
 40
0.5
  9
$CHAMFERC
 40
1.0
  9
$CHAMFERD
 40
0.0
  9
$SKPOLY
 70
     0
  9
$TDCREATE
 40
2458327.544458623
  9
$TDUCREATE
 40
2458327.46112529
  9
$TDUPDATE
 40
2458589.558249479
  9
$TDUUPDATE
 40
2458589.474916146
  9
$TDINDWG
 40
0.0197952431
  9
$TDUSRTIMER
 40
0.0007609028
  9
$USRTIMER
 70
     1
  9
$ANGBASE
 50
0.0
  9
$ANGDIR
 70
     0
  9
$PDMODE
 70
     0
  9
$PDSIZE
 40
0.0
  9
$PLINEWID
 40
0.0
  9
$SPLFRAME
 70
     0
  9
$SPLINETYPE
 70
     6
  9
$SPLINESEGS
 70
     8
  9
$HANDSEED
  5
244
  9
$SURFTAB1
 70
     6
  9
$SURFTAB2
 70
     6
  9
$SURFTYPE
 70
     6
  9
$SURFU
 70
     6
  9
$SURFV
 70
     6
  9
$UCSBASE
  2

  9
$UCSNAME
  2

  9
$UCSORG
 10
0.0
 20
0.0
 30
0.0
  9
$UCSXDIR
 10
1.0
 20
0.0
 30
0.0
  9
$UCSYDIR
 10
0.0
 20
1.0
 30
0.0
  9
$UCSORTHOREF
  2

  9
$UCSORTHOVIEW
 70
     0
  9
$UCSORGTOP
 10
0.0
 20
0.0
 30
0.0
  9
$UCSORGBOTTOM
 10
0.0
 20
0.0
 30
0.0
  9
$UCSORGLEFT
 10
0.0
 20
0.0
 30
0.0
  9
$UCSORGRIGHT
 10
0.0
 20
0.0
 30
0.0
  9
$UCSORGFRONT
 10
0.0
 20
0.0
 30
0.0
  9
$UCSORGBACK
 10
0.0
 20
0.0
 30
0.0
  9
$PUCSBASE
  2

  9
$PUCSNAME
  2

  9
$PUCSORG
 10
0.0
 20
0.0
 30
0.0
  9
$PUCSXDIR
 10
1.0
 20
0.0
 30
0.0
  9
$PUCSYDIR
 10
0.0
 20
1.0
 30
0.0
  9
$PUCSORTHOREF
  2

  9
$PUCSORTHOVIEW
 70
     0
  9
$PUCSORGTOP
 10
0.0
 20
0.0
 30
0.0
  9
$PUCSORGBOTTOM
 10
0.0
 20
0.0
 30
0.0
  9
$PUCSORGLEFT
 10
0.0
 20
0.0
 30
0.0
  9
$PUCSORGRIGHT
 10
0.0
 20
0.0
 30
0.0
  9
$PUCSORGFRONT
 10
0.0
 20
0.0
 30
0.0
  9
$PUCSORGBACK
 10
0.0
 20
0.0
 30
0.0
  9
$USERI1
 70
     0
  9
$USERI2
 70
     0
  9
$USERI3
 70
     0
  9
$USERI4
 70
     0
  9
$USERI5
 70
     0
  9
$USERR1
 40
0.0
  9
$USERR2
 40
0.0
  9
$USERR3
 40
0.0
  9
$USERR4
 40
0.0
  9
$USERR5
 40
0.0
  9
$WORLDVIEW
 70
     1
  9
$SHADEDGE
 70
     3
  9
$SHADEDIF
 70
    70
  9
$TILEMODE
 70
     1
  9
$MAXACTVP
 70
    64
  9
$PINSBASE
 10
0.0
 20
0.0
 30
0.0
  9
$PLIMCHECK
 70
     0
  9
$PEXTMIN
 10
1.000000000000000E+20
 20
1.000000000000000E+20
 30
1.000000000000000E+20
  9
$PEXTMAX
 10
-1.000000000000000E+20
 20
-1.000000000000000E+20
 30
-1.000000000000000E+20
  9
$PLIMMIN
 10
0.0
 20
0.0
  9
$PLIMMAX
 10
0.0
 20
0.0
  9
$UNITMODE
 70
     0
  9
$VISRETAIN
 70
     1
  9
$PLINEGEN
 70
     0
  9
$PSLTSCALE
 70
     1
  9
$TREEDEPTH
 70
  3020
  9
$CMLSTYLE
  2
Standard
  9
$CMLJUST
 70
     0
  9
$CMLSCALE
 40
1.0
  9
$PROXYGRAPHICS
 70
     1
  9
$MEASUREMENT
 70
     0
  9
$CELWEIGHT
370
    -1
  9
$ENDCAPS
280
     0
  9
$JOINSTYLE
280
     0
  9
$LWDISPLAY
290
     0
  9
$INSUNITS
 70
     0
  9
$HYPERLINKBASE
  1

  9
$STYLESHEET
  1

  9
$XEDIT
290
     1
  9
$CEPSNTYPE
380
     0
  9
$PSTYLEMODE
290
     1
  9
$FINGERPRINTGUID
  2
{57D793DC-9B4D-48FD-8B15-6DFDBEFF38D4}
  9
$VERSIONGUID
  2
{FAEB1C32-E019-11D5-929B-00C0DF256EC4}
  9
$EXTNAMES
290
     1
  9
$PSVPSCALE
 40
0.0
  9
$OLESTARTUP
290
     0
  0
ENDSEC
  0
SECTION
  2
CLASSES
  0
CLASS
  1
ACDBDICTIONARYWDFLT
  2
AcDbDictionaryWithDefault
  3
ObjectDBX Classes
 90
        0
280
     0
281
     0
  0
CLASS
  1
SCALE
  2
AcDbScale
  3
ObjectDBX Classes
 90
     1153
280
     0
281
     0
  0
CLASS
  1
VISUALSTYLE
  2
AcDbVisualStyle
  3
ObjectDBX Classes
 90
     4095
280
     0
281
     0
  0
CLASS
  1
MATERIAL
  2
AcDbMaterial
  3
ObjectDBX Classes
 90
     1153
280
     0
281
     0
  0
CLASS
  1
DICTIONARYVAR
  2
AcDbDictionaryVar
  3
ObjectDBX Classes
 90
        0
280
     0
281
     0
  0
CLASS
  1
ACDBPLACEHOLDER
  2
AcDbPlaceHolder
  3
ObjectDBX Classes
 90
        0
280
     0
281
     0
  0
CLASS
  1
LAYOUT
  2
AcDbLayout
  3
ObjectDBX Classes
 90
        0
280
     0
281
     0
  0
CLASS
  1
TABLESTYLE
  2
AcDbTableStyle
  3
ObjectDBX Classes
 90
     4095
280
     0
281
     0
  0
CLASS
  1
MLEADERSTYLE
  2
AcDbMLeaderStyle
  3
ACDB_MLEADERSTYLE_CLASS
 90
     4095
280
     0
281
     0
  0
CLASS
  1
SUN
  2
AcDbSun
  3
SCENEOE
 90
     1153
280
     0
281
     0
  0
CLASS
  1
SORTENTSTABLE
  2
AcDbSortentsTable
  3
ObjectDBX Classes
 90
        0
280
     0
281
     0
  0
CLASS
  1
CELLSTYLEMAP
  2
AcDbCellStyleMap
  3
ObjectDBX Classes
 90
     1152
280
     0
281
     0
  0
ENDSEC
  0
SECTION
  2
TABLES
  0
TABLE
  2
VPORT
  5
8
330
0
100
AcDbSymbolTable
 70
     1
  0
VPORT
  5
83
330
8
100
AcDbSymbolTableRecord
100
AcDbViewportTableRecord
  2
*Active
 70
     0
 10
0.0
 20
0.0
 11
1.0
 21
1.0
 12
52.80447379795478
 22
-3.816869068500278
 13
0.0
 23
0.0
 14
0.5
 24
0.5
 15
0.5
 25
0.5
 16
0.0
 26
0.0
 36
1.0
 17
0.0
 27
0.0
 37
0.0
 40
239.194741472931
 41
1.70021645021645
 42
50.0
 43
0.0
 44
0.0
 50
0.0
 51
0.0
 71
    16
 72
   100
 73
     1
 74
     3
 75
     0
 76
     0
 77
     0
 78
     0
281
     0
 65
     1
110
0.0
120
0.0
130
0.0
111
1.0
121
0.0
131
0.0
112
0.0
122
1.0
132
0.0
 79
     0
146
0.0
  0
ENDTAB
  0
TABLE
  2
LTYPE
  5
5
330
0
100
AcDbSymbolTable
 70
     8
  0
LTYPE
  5
14
330
5
100
AcDbSymbolTableRecord
100
AcDbLinetypeTableRecord
  2
ByBlock
 70
     0
  3

 72
    65
 73
     0
 40
0.0
  0
LTYPE
  5
15
330
5
100
AcDbSymbolTableRecord
100
AcDbLinetypeTableRecord
  2
ByLayer
 70
     0
  3

 72
    65
 73
     0
 40
0.0
  0
LTYPE
  5
16
330
5
100
AcDbSymbolTableRecord
100
AcDbLinetypeTableRecord
  2
Continuous
 70
     0
  3
Solid line
 72
    65
 73
     0
 40
0.0
  0
LTYPE
  5
20
330
5
100
AcDbSymbolTableRecord
100
AcDbLinetypeTableRecord
  2
PUNKT
 70
     0
  3
..............
 72
    65
 73
     2
 40
1.5
 49
0.7
 74
     0
 49
-0.8
 74
     0
  0
LTYPE
  5
21
330
5
100
AcDbSymbolTableRecord
100
AcDbLinetypeTableRecord
  2
GESTRICHELT
 70
     0
  3
-- -- -- -- --
 72
    65
 73
     7
 40
2.8
 49
0.9
 74
     0
 49
0.0
 74
     0
 49
0.9
 74
     0
 49
0.0
 74
     0
 49
0.2
 74
     0
 49
0.0
 74
     0
 49
-0.8
 74
     0
  0
LTYPE
  5
22
330
5
100
AcDbSymbolTableRecord
100
AcDbLinetypeTableRecord
  2
STRICHPUNKT
 70
     0
  3
--.--.--.--.--
 72
    65
 73
     4
 40
8.8
 49
5.5
 74
     0
 49
-1.3
 74
     0
 49
0.7
 74
     0
 49
-1.3
 74
     0
  0
LTYPE
  5
25
330
5
100
AcDbSymbolTableRecord
100
AcDbLinetypeTableRecord
  2
PHANTOM
 70
     0
  3
--..--..--..--
 72
    65
 73
     6
 40
14.2
 49
7.0
 74
     0
 49
-1.8
 74
     0
 49
0.9
 74
     0
 49
-1.8
 74
     0
 49
0.9
 74
     0
 49
-1.8
 74
     0
  0
LTYPE
  5
F9
330
5
100
AcDbSymbolTableRecord
100
AcDbLinetypeTableRecord
  2
DASH
 70
     0
  3
DASH _ _ _ _ _
 72
    65
 73
     2
 40
0.75
 49
0.4
 74
     0
 49
-0.35
 74
     0
  0
LTYPE
  5
FA
330
5
100
AcDbSymbolTableRecord
100
AcDbLinetypeTableRecord
  2
LONGDASH_DASH
 70
     0
  3
LONGDASH_DASH __ . __ . __
 72
    65
 73
     4
 40
0.85
 49
0.4
 74
     0
 49
-0.2
 74
     0
 49
0.05
 74
     0
 49
-0.2
 74
     0
  0
LTYPE
  5
FB
330
5
100
AcDbSymbolTableRecord
100
AcDbLinetypeTableRecord
  2
LONGDASH_DASH_DASH
 70
     0
  3
LONGDASH_DASH_DASH __ . . __ . . __
 72
    65
 73
     6
 40
1.1
 49
0.4
 74
     0
 49
-0.2
 74
     0
 49
0.05
 74
     0
 49
-0.2
 74
     0
 49
0.05
 74
     0
 49
-0.2
 74
     0
  0
ENDTAB
  0
TABLE
  2
LAYER
  5
2
102
{ACAD_XDICTIONARY
360
118
102
}
330
0
100
AcDbSymbolTable
 70
    16
  0
LAYER
  5
C4
330
2
100
AcDbSymbolTableRecord
100
AcDbLayerTableRecord
  2
200
 70
     0
 62
     2
  6
Continuous
370
    50
390
F
  0
LAYER
  5
FC
330
2
100
AcDbSymbolTableRecord
100
AcDbLayerTableRecord
  2
0
 70
     0
 62
     1
  6
Continuous
370
    -3
390
F
  0
LAYER
  5
FD
330
2
100
AcDbSymbolTableRecord
100
AcDbLayerTableRecord
  2
1
 70
     0
 62
     4
  6
Continuous
370
    50
390
F
  0
LAYER
  5
FE
330
2
100
AcDbSymbolTableRecord
100
AcDbLayerTableRecord
  2
2
 70
     0
 62
     7
  6
Continuous
370
    25
390
F
  0
LAYER
  5
FF
330
2
100
AcDbSymbolTableRecord
100
AcDbLayerTableRecord
  2
3
 70
     0
 62
     1
  6
DASH
370
    35
390
F
  0
LAYER
  5
100
330
2
100
AcDbSymbolTableRecord
100
AcDbLayerTableRecord
  2
4
 70
     0
 62
     2
  6
LONGDASH_DASH
370
    25
390
F
  0
LAYER
  5
101
330
2
100
AcDbSymbolTableRecord
100
AcDbLayerTableRecord
  2
6
 70
     0
 62
     5
  6
Continuous
370
    -3
390
F
  0
LAYER
  5
102
330
2
100
AcDbSymbolTableRecord
100
AcDbLayerTableRecord
  2
CUT
 70
     0
 62
     1
  6
Continuous
370
    25
390
F
  0
LAYER
  5
103
330
2
100
AcDbSymbolTableRecord
100
AcDbLayerTableRecord
  2
NOCUT
 70
     0
 62
     7
  6
Continuous
370
    25
390
F
  0
LAYER
  5
104
330
2
100
AcDbSymbolTableRecord
100
AcDbLayerTableRecord
  2
SK1
 70
     0
 62
     4
  6
Continuous
370
    50
390
F
  0
LAYER
  5
105
330
2
100
AcDbSymbolTableRecord
100
AcDbLayerTableRecord
  2
SK2
 70
     0
 62
     7
  6
Continuous
370
    25
390
F
  0
LAYER
  5
106
330
2
100
AcDbSymbolTableRecord
100
AcDbLayerTableRecord
  2
SK3
 70
     0
 62
     1
  6
DASH
370
    35
390
F
  0
LAYER
  5
107
330
2
100
AcDbSymbolTableRecord
100
AcDbLayerTableRecord
  2
SK4
 70
     0
 62
     2
  6
LONGDASH_DASH
370
    25
390
F
  0
LAYER
  5
108
330
2
100
AcDbSymbolTableRecord
100
AcDbLayerTableRecord
  2
SK6
 70
     0
 62
     5
  6
Continuous
370
    -3
390
F
  0
LAYER
  5
109
330
2
100
AcDbSymbolTableRecord
100
AcDbLayerTableRecord
  2
INFTOTAL
 70
     0
 62
     9
  6
Continuous
370
    18
390
F
  0
LAYER
  5
21B
330
2
100
AcDbSymbolTableRecord
100
AcDbLayerTableRecord
  2
7
 70
     0
 62
     5
  6
Continuous
370
    -3
390
F
1001
AcAecLayerStandard
1000

1000

  0
ENDTAB
  0
TABLE
  2
STYLE
  5
3
330
0
100
AcDbSymbolTable
 70
     2
  0
STYLE
  5
11
330
3
100
AcDbSymbolTableRecord
100
AcDbTextStyleTableRecord
  2
Standard
 70
     0
 40
0.0
 41
1.0
 50
0.0
 71
     0
 42
0.2
  3
txt
  4

  0
STYLE
  5
C3
330
3
100
AcDbSymbolTableRecord
100
AcDbTextStyleTableRecord
  2
BMG_Text
 70
     0
 40
3.5
 41
1.0
 50
0.0
 71
     0
 42
0.2
  3
monos.ttf
  4

1001
ACAD
1000
Monospac821 BT
1071
       49
  0
ENDTAB
  0
TABLE
  2
VIEW
  5
6
330
0
100
AcDbSymbolTable
 70
     0
  0
ENDTAB
  0
TABLE
  2
UCS
  5
7
330
0
100
AcDbSymbolTable
 70
     0
  0
ENDTAB
  0
TABLE
  2
APPID
  5
9
330
0
100
AcDbSymbolTable
 70
     2
  0
APPID
  5
12
330
9
100
AcDbSymbolTableRecord
100
AcDbRegAppTableRecord
  2
ACAD
 70
     0
  0
APPID
  5
21C
330
9
100
AcDbSymbolTableRecord
100
AcDbRegAppTableRecord
  2
AcAecLayerStandard
 70
     0
  0
ENDTAB
  0
TABLE
  2
DIMSTYLE
  5
A
330
0
100
AcDbSymbolTable
 70
     1
100
AcDbDimStyleTable
  0
DIMSTYLE
105
28
330
A
100
AcDbSymbolTableRecord
100
AcDbDimStyleTableRecord
  2
Standard
 70
     0
178
     0
340
11
  0
ENDTAB
  0
TABLE
  2
BLOCK_RECORD
  5
1
330
0
100
AcDbSymbolTable
 70
     0
  0
BLOCK_RECORD
  5
1D
102
{ACAD_XDICTIONARY
360
215
102
}
330
1
100
AcDbSymbolTableRecord
100
AcDbBlockTableRecord
  2
*Model_Space
340
1E
  0
BLOCK_RECORD
  5
1B
330
1
100
AcDbSymbolTableRecord
100
AcDbBlockTableRecord
  2
*Paper_Space
340
1C
  0
ENDTAB
  0
ENDSEC
  0
SECTION
  2
BLOCKS
  0
BLOCK
  5
AC
330
1D
100
AcDbEntity
  8
0
100
AcDbBlockBegin
  2
*Model_Space
 70
     0
 10
0.0
 20
0.0
 30
0.0
  3
*Model_Space
  1

  0
ENDBLK
  5
AD
330
1D
100
AcDbEntity
  8
0
100
AcDbBlockEnd
  0
BLOCK
  5
AA
330
1B
100
AcDbEntity
 67
     1
  8
0
100
AcDbBlockBegin
  2
*Paper_Space
 70
     0
 10
0.0
 20
0.0
 30
0.0
  3
*Paper_Space
  1

  0
ENDBLK
  5
AB
330
1B
100
AcDbEntity
 67
     1
  8
0
100
AcDbBlockEnd
  0
ENDSEC
  0
SECTION
  2
ENTITIES
  0
LINE
  5
29
330
1D
100
AcDbEntity
  8
1
100
AcDbLine
 10
104.312449862
 20
-4.5
 30
0.0
 11
0.0
 21
-4.5
 31
0.0
  0
LINE
  5
2A
330
1D
100
AcDbEntity
  8
SK1
100
AcDbLine
 10
0.0
 20
-4.5
 30
0.0
 11
-29.5
 21
-4.5
 31
0.0
  0
LINE
  5
2B
330
1D
100
AcDbEntity
  8
SK1
100
AcDbLine
 10
-29.5
 20
-4.5
 30
0.0
 11
-30.0
 21
-4.0
 31
0.0
  0
LINE
  5
2C
330
1D
100
AcDbEntity
  8
SK1
100
AcDbLine
 10
-30.0
 20
-4.0
 30
0.0
 11
-30.0
 21
4.0
 31
0.0
  0
LINE
  5
2D
330
1D
100
AcDbEntity
  8
SK1
100
AcDbLine
 10
-30.0
 20
4.0
 30
0.0
 11
-29.5
 21
4.5
 31
0.0
  0
LINE
  5
2E
330
1D
100
AcDbEntity
  8
SK1
100
AcDbLine
 10
-29.5
 20
4.5
 30
0.0
 11
0.0
 21
4.5
 31
0.0
  0
LINE
  5
2F
330
1D
100
AcDbEntity
  8
1
100
AcDbLine
 10
0.0
 20
4.5
 30
0.0
 11
103.229599193
 21
4.5
 31
0.0
  0
LINE
  5
30
330
1D
100
AcDbEntity
  8
1
100
AcDbLine
 10
103.229599193
 20
4.5
 30
0.0
 11
103.294257261
 21
4.258692806
 31
0.0
  0
LINE
  5
31
330
1D
100
AcDbEntity
  8
SK1
100
AcDbLine
 10
-29.5
 20
4.5
 30
0.0
 11
-29.5
 21
-4.5
 31
0.0
  0
LINE
  5
34
330
1D
100
AcDbEntity
  8
1
100
AcDbLine
 10
84.642431734
 20
4.5
 30
0.0
 11
84.642431734
 21
-4.5
 31
0.0
  0
ARC
  5
35
330
1D
100
AcDbEntity
  8
1
100
AcDbCircle
 10
95.519588856
 20
0.0
 30
0.0
 40
4.5
100
AcDbArc
 50
90.0
 51
270.0
  0
LINE
  5
36
330
1D
100
AcDbEntity
  8
1
100
AcDbLine
 10
94.727138994
 20
1.0
 30
0.0
 11
96.0
 21
1.0
 31
0.0
  0
LINE
  5
37
330
1D
100
AcDbEntity
  8
1
100
AcDbLine
 10
96.0
 20
1.0
 30
0.0
 11
96.0
 21
-1.0
 31
0.0
  0
LINE
  5
38
330
1D
100
AcDbEntity
  8
1
100
AcDbLine
 10
96.0
 20
-1.0
 30
0.0
 11
94.727138994
 21
-1.0
 31
0.0
  0
LINE
  5
39
330
1D
100
AcDbEntity
  8
1
100
AcDbLine
 10
96.0
 20
1.0
 30
0.0
 11
96.384900179
 21
0.0
 31
0.0
  0
LINE
  5
3A
330
1D
100
AcDbEntity
  8
1
100
AcDbLine
 10
96.384900179
 20
0.0
 30
0.0
 11
96.0
 21
-1.0
 31
0.0
  0
ARC
  5
3B
330
1D
100
AcDbEntity
  8
1
100
AcDbCircle
 10
99.333839661
 20
0.714066537
 30
0.0
 40
1.100000072
100
AcDbArc
 50
117.000170237
 51
297.000306534
  0
LINE
  5
3D
330
1D
100
AcDbEntity
  8
1
100
AcDbLine
 10
99.833232598
 20
-0.266034324
 30
0.0
 11
100.927617466
 21
0.291587319
 31
0.0
  0
LINE
  5
3E
330
1D
100
AcDbEntity
  8
1
100
AcDbLine
 10
98.861243317
 20
1.667824879
 30
0.0
 11
98.834447505
 21
1.654171631
 31
0.0
  0
LINE
  5
3F
330
1D
100
AcDbEntity
  8
1
100
AcDbLine
 10
104.4148176636758
 20
-1.925745261608484
 30
0.0
 11
104.312449862
 21
-4.5
 31
0.0
  0
LINE
  5
40
102
{ACAD_REACTORS
330
22E
102
}
330
1D
100
AcDbEntity
  8
1
100
AcDbLine
 10
104.673253365
 20
-1.644282217
 30
0.0
 11
104.999588858
 21
4.582569754
 31
0.0
  0
ARC
  5
41
102
{ACAD_REACTORS
330
22E
102
}
330
1D
100
AcDbEntity
  8
1
100
AcDbCircle
 10
104.699996939
 20
4.598270673
 30
0.0
 40
0.300003061
100
AcDbArc
 50
357.000005364
 51
116.999928868
  0
ARC
  5
43
330
1D
100
AcDbEntity
  8
1
100
AcDbCircle
 10
99.144220709
 20
1.767443818
 30
0.0
 40
0.300000229
100
AcDbArc
 50
116.998614192
 51
236.99811817
  0
ARC
  5
45
102
{ACAD_REACTORS
330
22E
102
}
330
1D
100
AcDbEntity
  8
1
100
AcDbCircle
 10
104.373661445
 20
-1.628581509
 30
0.0
 40
0.300000217
100
AcDbArc
 50
237.001391172
 51
357.000005364
  0
CIRCLE
  5
46
330
1D
100
AcDbEntity
  8
1
100
AcDbCircle
 10
102.749285052
 20
1.578518041
 30
0.0
 40
1.5
  0
ARC
  5
49
330
1D
100
AcDbEntity
  8
1
100
AcDbCircle
 10
94.727138994
 20
0.0
 30
0.0
 40
1.0
100
AcDbArc
 50
90.0
 51
270.0
  0
LINE
  5
4A
330
1D
100
AcDbEntity
  8
SK2
100
AcDbLine
 10
-42.0
 20
-4.5
 30
0.0
 11
-29.5
 21
-4.5
 31
0.0
  0
LINE
  5
4B
330
1D
100
AcDbEntity
  8
SK2
100
AcDbLine
 10
-40.0
 20
-4.5
 30
0.0
 11
-40.45
 21
-8.0
 31
0.0
  0
LINE
  5
4C
330
1D
100
AcDbEntity
  8
SK2
100
AcDbLine
 10
-40.45
 20
-8.0
 30
0.0
 11
-39.55
 21
-8.0
 31
0.0
  0
LINE
  5
4D
330
1D
100
AcDbEntity
  8
SK2
100
AcDbLine
 10
-39.55
 20
-8.0
 30
0.0
 11
-40.0
 21
-4.5
 31
0.0
  0
LINE
  5
4E
330
1D
100
AcDbEntity
  8
SK2
100
AcDbLine
 10
-40.0
 20
-8.0
 30
0.0
 11
-40.0
 21
-12.0
 31
0.0
  0
LINE
  5
4F
330
1D
100
AcDbEntity
  8
SK2
100
AcDbLine
 10
-42.0
 20
4.5
 30
0.0
 11
-29.5
 21
4.5
 31
0.0
  0
LINE
  5
50
330
1D
100
AcDbEntity
  8
SK2
100
AcDbLine
 10
-40.0
 20
4.5
 30
0.0
 11
-39.55
 21
8.0
 31
0.0
  0
LINE
  5
51
330
1D
100
AcDbEntity
  8
SK2
100
AcDbLine
 10
-39.55
 20
8.0
 30
0.0
 11
-40.45
 21
8.0
 31
0.0
  0
LINE
  5
52
330
1D
100
AcDbEntity
  8
SK2
100
AcDbLine
 10
-40.45
 20
8.0
 30
0.0
 11
-40.0
 21
4.5
 31
0.0
  0
LINE
  5
53
330
1D
100
AcDbEntity
  8
SK2
100
AcDbLine
 10
-40.0
 20
8.0
 30
0.0
 11
-40.0
 21
12.0
 31
0.0
  0
LINE
  5
54
330
1D
100
AcDbEntity
  8
SK2
100
AcDbLine
 10
-40.0
 20
-4.5
 30
0.0
 11
-40.0
 21
4.5
 31
0.0
  0
TEXT
  5
55
330
1D
100
AcDbEntity
  8
SK2
100
AcDbText
 10
-41.5
 20
1.261093649
 30
0.0
 40
3.5
  1
9
 50
90.0
  7
BMG_Text
100
AcDbText
  0
CIRCLE
  5
56
330
1D
100
AcDbEntity
  8
SK2
100
AcDbCircle
 10
-42.75
 20
-0.988906351
 30
0.0
 40
1.25
  0
LINE
  5
57
330
1D
100
AcDbEntity
  8
SK2
100
AcDbLine
 10
-41.5
 20
-2.238906351
 30
0.0
 11
-44.0
 21
0.261093649
 31
0.0
  0
LINE
  5
58
330
1D
100
AcDbEntity
  8
SK2
100
AcDbLine
 10
-30.0
 20
-18.0
 30
0.0
 11
-30.0
 21
-4.0
 31
0.0
  0
LINE
  5
59
330
1D
100
AcDbEntity
  8
SK2
100
AcDbLine
 10
-30.0
 20
-16.0
 30
0.0
 11
-26.5
 21
-15.55
 31
0.0
  0
LINE
  5
5A
330
1D
100
AcDbEntity
  8
SK2
100
AcDbLine
 10
-26.5
 20
-15.55
 30
0.0
 11
-26.5
 21
-16.45
 31
0.0
  0
LINE
  5
5B
330
1D
100
AcDbEntity
  8
SK2
100
AcDbLine
 10
-26.5
 20
-16.45
 30
0.0
 11
-30.0
 21
-16.0
 31
0.0
  0
LINE
  5
5C
330
1D
100
AcDbEntity
  8
SK2
100
AcDbLine
 10
0.0
 20
-18.0
 30
0.0
 11
0.0
 21
-4.5
 31
0.0
  0
LINE
  5
5D
330
1D
100
AcDbEntity
  8
SK2
100
AcDbLine
 10
0.0
 20
-16.0
 30
0.0
 11
-3.5
 21
-16.45
 31
0.0
  0
LINE
  5
5E
330
1D
100
AcDbEntity
  8
SK2
100
AcDbLine
 10
-3.5
 20
-16.45
 30
0.0
 11
-3.5
 21
-15.55
 31
0.0
  0
LINE
  5
5F
330
1D
100
AcDbEntity
  8
SK2
100
AcDbLine
 10
-3.5
 20
-15.55
 30
0.0
 11
0.0
 21
-16.0
 31
0.0
  0
LINE
  5
60
330
1D
100
AcDbEntity
  8
SK2
100
AcDbLine
 10
-26.5
 20
-16.0
 30
0.0
 11
-3.5
 21
-16.0
 31
0.0
  0
TEXT
  5
61
330
1D
100
AcDbEntity
  8
SK2
100
AcDbText
 10
-8.08877037361924
 20
-14.5
 30
0.0
 40
3.5
  1
30
  7
BMG_Text
100
AcDbText
  0
TEXT
  5
62
330
1D
100
AcDbEntity
  8
SK2
100
AcDbText
 10
-19.899687835
 20
-14.5
 30
0.0
 40
3.5
  1
min.
  7
BMG_Text
100
AcDbText
  0
LINE
  5
63
330
1D
100
AcDbEntity
  8
SK2
100
AcDbLine
 10
0.0
 20
-18.0
 30
0.0
 11
0.0
 21
-4.5
 31
0.0
  0
LINE
  5
64
330
1D
100
AcDbEntity
  8
2
100
AcDbLine
 10
0.0
 20
-16.0
 30
0.0
 11
3.499999999
 21
-15.549999991
 31
0.0
  0
LINE
  5
65
330
1D
100
AcDbEntity
  8
2
100
AcDbLine
 10
3.499999999
 20
-15.549999991
 30
0.0
 11
3.500000001
 21
-16.449999991
 31
0.0
  0
LINE
  5
66
330
1D
100
AcDbEntity
  8
2
100
AcDbLine
 10
3.500000001
 20
-16.449999991
 30
0.0
 11
0.0
 21
-16.0
 31
0.0
  0
LINE
  5
67
330
1D
100
AcDbEntity
  8
2
100
AcDbLine
 10
105.0
 20
-17.999999743
 30
0.0
 11
105.0
 21
4.598270673
 31
0.0
  0
LINE
  5
68
330
1D
100
AcDbEntity
  8
2
100
AcDbLine
 10
105.0
 20
-15.999999743
 30
0.0
 11
101.500000001
 21
-16.449999752
 31
0.0
  0
LINE
  5
69
330
1D
100
AcDbEntity
  8
2
100
AcDbLine
 10
101.500000001
 20
-16.449999752
 30
0.0
 11
101.499999999
 21
-15.549999752
 31
0.0
  0
LINE
  5
6A
330
1D
100
AcDbEntity
  8
2
100
AcDbLine
 10
101.499999999
 20
-15.549999752
 30
0.0
 11
105.0
 21
-15.999999743
 31
0.0
  0
LINE
  5
6B
330
1D
100
AcDbEntity
  8
2
100
AcDbLine
 10
3.5
 20
-15.999999991
 30
0.0
 11
101.5
 21
-15.999999752
 31
0.0
  0
TEXT
  5
6C
330
1D
100
AcDbEntity
  8
2
100
AcDbText
 10
55.40333773530247
 20
-14.499999869
 30
0.0
 40
3.5
  1
105
 50
0.00000014
  7
BMG_Text
100
AcDbText
  0
TEXT
  5
6D
330
1D
100
AcDbEntity
  8
2
100
AcDbText
 10
46.889373823
 20
-14.499999885
 30
0.0
 40
3.5
  1
50-
 50
0.00000014
  7
BMG_Text
100
AcDbText
  0
LINE
  5
6E
330
1D
100
AcDbEntity
  8
2
100
AcDbLine
 10
-30.0
 20
-26.0
 30
0.0
 11
-30.0
 21
-4.0
 31
0.0
  0
LINE
  5
6F
330
1D
100
AcDbEntity
  8
2
100
AcDbLine
 10
-30.0
 20
-24.0
 30
0.0
 11
-26.500000001
 21
-23.549999993
 31
0.0
  0
LINE
  5
70
330
1D
100
AcDbEntity
  8
2
100
AcDbLine
 10
-26.500000001
 20
-23.549999993
 30
0.0
 11
-26.499999999
 21
-24.449999993
 31
0.0
  0
LINE
  5
71
330
1D
100
AcDbEntity
  8
2
100
AcDbLine
 10
-26.499999999
 20
-24.449999993
 30
0.0
 11
-30.0
 21
-24.0
 31
0.0
  0
LINE
  5
72
330
1D
100
AcDbEntity
  8
2
100
AcDbLine
 10
105.0
 20
-25.999999743
 30
0.0
 11
105.0
 21
4.598270673
 31
0.0
  0
LINE
  5
73
330
1D
100
AcDbEntity
  8
2
100
AcDbLine
 10
105.0
 20
-23.999999743
 30
0.0
 11
101.500000001
 21
-24.44999975
 31
0.0
  0
LINE
  5
74
330
1D
100
AcDbEntity
  8
2
100
AcDbLine
 10
101.500000001
 20
-24.44999975
 30
0.0
 11
101.499999999
 21
-23.54999975
 31
0.0
  0
LINE
  5
75
330
1D
100
AcDbEntity
  8
2
100
AcDbLine
 10
101.499999999
 20
-23.54999975
 30
0.0
 11
105.0
 21
-23.999999743
 31
0.0
  0
LINE
  5
76
330
1D
100
AcDbEntity
  8
2
100
AcDbLine
 10
-26.5
 20
-23.999999993
 30
0.0
 11
101.5
 21
-23.99999975
 31
0.0
  0
TEXT
  5
77
330
1D
100
AcDbEntity
  8
2
100
AcDbText
 10
35.397810988
 20
-22.499999876
 30
0.0
 40
3.5
  1
135
 50
0.000000109
  7
BMG_Text
100
AcDbText
  0
TEXT
  5
78
330
1D
100
AcDbEntity
  8
SK6
100
AcDbText
 10
87.974944567
 20
7.085902114
 30
0.0
 40
3.5
  1
615.206
  7
BMG_Text
100
AcDbText
  0
LINE
  5
79
330
1D
100
AcDbEntity
  8
2
100
AcDbLine
 10
118.000000596
 20
4.898274315
 30
0.0
 11
104.699996939
 21
4.898273734
 31
0.0
  0
LINE
  5
7A
330
1D
100
AcDbEntity
  8
2
100
AcDbLine
 10
116.000000596
 20
4.898274228
 30
0.0
 11
116.450000443
 21
8.398274248
 31
0.0
  0
LINE
  5
7B
330
1D
100
AcDbEntity
  8
2
100
AcDbLine
 10
116.450000443
 20
8.398274248
 30
0.0
 11
115.550000443
 21
8.398274208
 31
0.0
  0
LINE
  5
7C
330
1D
100
AcDbEntity
  8
2
100
AcDbLine
 10
115.550000443
 20
8.398274208
 30
0.0
 11
116.000000596
 21
4.898274228
 31
0.0
  0
LINE
  5
7D
330
1D
100
AcDbEntity
  8
2
100
AcDbLine
 10
116.000000443
 20
8.398274228
 30
0.0
 11
115.999999144
 21
38.12443422
 31
0.0
  0
LINE
  5
7E
330
1D
100
AcDbEntity
  8
2
100
AcDbLine
 10
116.000001025
 20
-4.89827325
 30
0.0
 11
116.000000596
 21
4.898274228
 31
0.0
  0
TEXT
  5
7F
330
1D
100
AcDbEntity
  8
2
100
AcDbText
 10
114.6368059
 20
12.903184161
 30
0.0
 40
3.5
  1
9.8
 50
90.00000250400001
  7
BMG_Text
100
AcDbText
  0
CIRCLE
  5
80
330
1D
100
AcDbEntity
  8
2
100
AcDbCircle
 10
113.386805998
 20
10.653184106
 30
0.0
 40
1.25
  0
LINE
  5
81
330
1D
100
AcDbEntity
  8
2
100
AcDbLine
 10
114.636806053
 20
9.403184161
 30
0.0
 11
112.136805944
 21
11.903184051
 31
0.0
  0
TEXT
  5
82
330
1D
100
AcDbEntity
  8
2
100
AcDbText
 10
114.636805651
 20
25.34516321207947
 30
0.0
 40
3.5
  1
-13.5(19.0)
 50
90.00000250400001
  7
BMG_Text
100
AcDbText
  0
LINE
  5
120
330
1D
100
AcDbEntity
  8
1
100
AcDbLine
 10
104.2102757253716
 20
-1.880186828541477
 30
0.0
 11
100.927617466
 21
0.291587319
 31
0.0
  0
LINE
  5
121
330
1D
100
AcDbEntity
  8
1
100
AcDbLine
 10
98.83444716651051
 20
1.694172293970939
 30
0.0
 11
98.82054458517314
 21
1.942468246588247
 31
0.0
  0
LINE
  5
122
330
1D
100
AcDbEntity
  8
1
100
AcDbLine
 10
98.82054458517314
 20
1.942468246588247
 30
0.0
 11
99.0080299203681
 21
2.034749273409866
 31
0.0
  0
LINE
  5
123
330
1D
100
AcDbEntity
  8
1
100
AcDbLine
 10
99.0080299203681
 20
2.034749273409866
 30
0.0
 11
103.294257261
 21
4.258692806
 31
0.0
  0
LINE
  5
124
330
1D
100
AcDbEntity
  8
3
100
AcDbLine
 10
103.294257261
 20
4.258692806
 30
0.0
 11
104.7090346085827
 21
4.333739683905518
 31
0.0
  0
LINE
  5
125
330
1D
100
AcDbEntity
  8
3
100
AcDbLine
 10
104.7090346085827
 20
4.333739683905518
 30
0.0
 11
104.3689214748854
 21
-1.556562813003827
 31
0.0
  0
LINE
  5
126
330
1D
100
AcDbEntity
  8
3
100
AcDbLine
 10
104.3689214748854
 20
-1.556562813003827
 30
0.0
 11
104.416417288
 21
-1.885519327
 31
0.0
  0
LINE
  5
12D
102
{ACAD_REACTORS
330
22E
102
}
330
1D
100
AcDbEntity
  8
1
100
AcDbLine
 10
98.98082061023355
 20
1.515847822159107
 30
0.0
 11
100.927617466
 21
0.291587319
 31
0.0
  0
LINE
  5
12E
102
{ACAD_REACTORS
330
22E
102
}
330
1D
100
AcDbEntity
  8
1
100
AcDbLine
 10
100.927617466
 20
0.291587319
 30
0.0
 11
104.2102757253716
 21
-1.880186828541477
 31
0.0
  0
LINE
  5
12F
330
1D
100
AcDbEntity
  8
1
100
AcDbLine
 10
98.91428725277062
 20
1.988608759999057
 30
0.0
 11
103.294257261
 21
4.258692806
 31
0.0
  0
LINE
  5
130
102
{ACAD_REACTORS
330
22E
102
}
330
1D
100
AcDbEntity
  8
1
100
AcDbLine
 10
103.294257261
 20
4.258692806
 30
0.0
 11
104.5637987312688
 21
4.865575526716073
 31
0.0
  0
CIRCLE
  5
131
330
1D
100
AcDbEntity
  8
1
100
AcDbCircle
 10
102.749285052
 20
1.578518041
 30
0.0
 40
1.5
  0
LINE
  5
136
330
1D
100
AcDbEntity
  8
NOCUT
100
AcDbLine
 10
0.0
 20
0.0
 30
0.0
 11
0.0
 21
4.5
 31
0.0
  0
LINE
  5
137
330
1D
100
AcDbEntity
  8
NOCUT
100
AcDbLine
 10
0.0
 20
4.5
 30
0.0
 11
103.229599193
 21
4.5
 31
0.0
  0
LINE
  5
138
330
1D
100
AcDbEntity
  8
NOCUT
100
AcDbLine
 10
103.229599193
 20
4.5
 30
0.0
 11
103.294257261
 21
4.258692806
 31
0.0
  0
LWPOLYLINE
  5
141
330
1D
100
AcDbEntity
  8
INFTOTAL
100
AcDbPolyline
 90
        4
 70
     1
 43
0.0
 10
175.6627409447033
 20
85.72345068497528
 10
175.6627409447033
 20
-50.36646806528135
 10
-95.88116235604241
 20
-50.36646806528135
 10
-95.88116235604241
 20
85.72345068497528
  0
LINE
  5
166
330
1D
100
AcDbEntity
  8
3
100
AcDbLine
 10
0.0
 20
1.0
 30
0.0
 11
94.727138994
 21
1.0
 31
0.0
  0
LINE
  5
168
330
1D
100
AcDbEntity
  8
3
100
AcDbLine
 10
0.0
 20
-1.0
 30
0.0
 11
94.727138994
 21
-1.0
 31
0.0
  0
LINE
  5
16A
330
1D
100
AcDbEntity
  8
SK3
100
AcDbLine
 10
0.0
 20
1.0
 30
0.0
 11
-30.0
 21
1.0
 31
0.0
  0
LINE
  5
16B
330
1D
100
AcDbEntity
  8
SK3
100
AcDbLine
 10
-30.0
 20
-1.0
 30
0.0
 11
0.0
 21
-1.0
 31
0.0
  0
LINE
  5
187
330
1D
100
AcDbEntity
  8
SK4
100
AcDbLine
 10
-31.56972268649078
 20
0.0
 30
0.0
 11
106.9774382145351
 21
0.0
 31
0.0
  0
LINE
  5
190
330
1D
100
AcDbEntity
  8
4
100
AcDbLine
 10
0.0
 20
0.0
 30
0.0
 11
106.9774382145351
 21
0.0
 31
0.0
  0
LINE
  5
1B6
330
1D
100
AcDbEntity
  8
NOCUT
100
AcDbLine
 10
103.294257261
 20
4.258692806
 30
0.0
 11
104.7090346085827
 21
4.333739683905518
 31
0.0
  0
LINE
  5
1B8
330
1D
100
AcDbEntity
  8
NOCUT
100
AcDbLine
 10
0.0
 20
0.0
 30
0.0
 11
104.4587992793624
 21
0.0000000000000128
 31
0.0
  0
LINE
  5
1BB
330
1D
100
AcDbEntity
  8
NOCUT
100
AcDbLine
 10
104.4587992793624
 20
0.0000000000000128
 30
0.0
 11
104.7090346085827
 21
4.333739683905518
 31
0.0
  0
LINE
  5
201
330
1D
100
AcDbEntity
  8
1
100
AcDbLine
 10
0.0
 20
-4.5
 30
0.0
 11
0.0
 21
4.5
 31
0.0
  0
LINE
  5
208
330
1D
100
AcDbEntity
  8
3
100
AcDbLine
 10
104.4148176636758
 20
-1.925745261608484
 30
0.0
 11
104.416417288
 21
-1.885519327
 31
0.0
  0
LINE
  5
20A
330
1D
100
AcDbEntity
  8
CUT
100
AcDbLine
 10
104.673253365
 20
-1.644282216999997
 30
0.0
 11
104.999588858
 21
4.582569753999998
 31
0.0
  0
ARC
  5
20B
330
1D
100
AcDbEntity
  8
CUT
100
AcDbCircle
 10
104.699996939
 20
4.598270673000002
 30
0.0
 40
0.300003061
100
AcDbArc
 50
357.0000053639997
 51
116.9999288679973
  0
ARC
  5
20C
102
{ACAD_REACTORS
330
22E
102
}
330
1D
100
AcDbEntity
  8
CUT
100
AcDbCircle
 10
99.144220709
 20
1.767443817999997
 30
0.0
 40
0.300000229
100
AcDbArc
 50
116.9986141920001
 51
236.9981181700013
  0
ARC
  5
20D
330
1D
100
AcDbEntity
  8
CUT
100
AcDbCircle
 10
104.373661445
 20
-1.628581509
 30
0.0
 40
0.300000217
100
AcDbArc
 50
237.0013911719994
 51
357.0000053639995
  0
CIRCLE
  5
20E
102
{ACAD_REACTORS
330
22E
102
}
330
1D
100
AcDbEntity
  8
1
100
AcDbCircle
 10
102.749285052
 20
1.578518041000002
 30
0.0
 40
1.5
  0
LINE
  5
20F
102
{ACAD_REACTORS
330
22E
102
}
330
1D
100
AcDbEntity
  8
CUT
100
AcDbLine
 10
99.0080299203681
 20
2.034749273409865
 30
0.0
 11
103.294257261
 21
4.258692805999999
 31
0.0
  0
LINE
  5
210
330
1D
100
AcDbEntity
  8
CUT
100
AcDbLine
 10
98.98082061023356
 20
1.51584782215911
 30
0.0
 11
100.927617466
 21
0.2915873190000013
 31
0.0
  0
LINE
  5
211
330
1D
100
AcDbEntity
  8
CUT
100
AcDbLine
 10
100.927617466
 20
0.2915873190000013
 30
0.0
 11
104.2102757253716
 21
-1.880186828541476
 31
0.0
  0
LINE
  5
212
330
1D
100
AcDbEntity
  8
CUT
100
AcDbLine
 10
103.294257261
 20
4.258692805999999
 30
0.0
 11
104.5637987312688
 21
4.865575526716071
 31
0.0
  0
CIRCLE
  5
213
330
1D
100
AcDbEntity
  8
1
100
AcDbCircle
 10
102.749285052
 20
1.578518041000002
 30
0.0
 40
1.5
  0
LINE
  5
222
330
1D
100
AcDbEntity
  8
SK4
100
AcDbLine
 10
105.0198592781624
 20
1.459527099618649
 30
0.0
 11
100.4787108258372
 21
1.69750898238137
 31
0.0
  0
LINE
  5
223
330
1D
100
AcDbEntity
  8
SK4
100
AcDbLine
 10
102.8682759933807
 20
3.849092267162473
 30
0.0
 11
102.630294110618
 21
-0.692056185162409
 31
0.0
  0
HATCH
  5
22E
330
1D
100
AcDbEntity
  8
7
100
AcDbHatch
 10
0.0
 20
0.0
 30
0.0
210
0.0
220
0.0
230
1.0
  2
ANSI31
 70
     0
 71
     1
 91
        2
 92
        7
 72
     1
 73
     1
 93
        8
 10
104.6732512339492
 20
-1.644282263636813
 42
0.0
 10
104.999588857776
 20
4.582569753980791
 42
0.5773498239996699
 10
104.5637987312688
 20
4.865575526716102
 42
0.0
 10
103.2942572610001
 20
4.258692806000048
 42
0.0
 10
99.00802992036785
 20
2.034749273409728
 42
0.5773473834540085
 10
98.98082061023368
 20
1.515847822159029
 42
0.0
 10
100.927617466
 20
0.291587319
 42
0.0
 10
104.2102757253719
 20
-1.880186828541633
 42
0.577340901833062
 97
        8
330
40
330
41
330
130
330
20F
330
20C
330
12D
330
12E
330
45
 92
       22
 72
     1
 73
     1
 93
        2
 10
101.249285052
 20
1.578518041000002
 42
1.0
 10
104.249285052
 20
1.578518041000002
 42
1.0
 97
        1
330
20E
 75
     0
 76
     1
 52
0.0
 41
5.0
 77
     0
 78
     1
 53
45.0
 43
0.0
 44
0.0
 45
-0.4419417382415922
 46
0.4419417382415922
 79
     0
 47
0.0
 98
        2
 10
104.4981798521152
 20
2.907689353497556
 10
104.4981798521152
 20
2.907689353497556
1001
ACAD
1010
0.0
1020
0.0
1030
0.0
  0
LINE
  5
234
330
1D
100
AcDbEntity
  8
4
100
AcDbLine
 10
105.0198592781624
 20
1.459527099618649
 30
0.0
 11
100.4787108258372
 21
1.69750898238137
 31
0.0
  0
LINE
  5
235
330
1D
100
AcDbEntity
  8
4
100
AcDbLine
 10
102.8682759933807
 20
3.849092267162473
 30
0.0
 11
102.630294110618
 21
-0.692056185162409
 31
0.0
  0
LINE
  5
23C
330
1D
100
AcDbEntity
  8
SK1
100
AcDbLine
 10
0.0
 20
-4.5
 30
0.0
 11
0.0
 21
4.5
 31
0.0
  0
ENDSEC
  0
SECTION
  2
OBJECTS
  0
DICTIONARY
  5
C
330
0
100
AcDbDictionary
281
     1
  3
ACAD_DETAILVIEWSTYLE
350
12A
  3
ACAD_GROUP
350
D
  3
ACAD_LAYOUT
350
1A
  3
ACAD_MLINESTYLE
350
17
  3
ACAD_PLOTSETTINGS
350
19
  3
ACAD_PLOTSTYLENAME
350
E
  3
ACAD_SCALELIST
350
88
  3
ACAD_SECTIONVIEWSTYLE
350
12B
  3
AcDbVariableDictionary
350
C9
  3
APPDATA
350
117
  3
DWGPROPS
350
243
  0
DICTIONARY
  5
118
330
2
100
AcDbDictionary
280
     1
281
     1
  3
ACAD_LAYERSTATES
360
119
  3
ACLYDICTIONARY
360
21D
  0
DICTIONARY
  5
215
330
1D
100
AcDbDictionary
280
     1
281
     1
  3
ACAD_SORTENTS
360
216
  0
DICTIONARY
  5
12A
102
{ACAD_REACTORS
330
C
102
}
330
C
100
AcDbDictionary
281
     1
  0
DICTIONARY
  5
D
102
{ACAD_REACTORS
330
C
102
}
330
C
100
AcDbDictionary
281
     1
  0
DICTIONARY
  5
1A
102
{ACAD_REACTORS
330
C
102
}
330
C
100
AcDbDictionary
281
     1
  3
Layout1
350
1C
  3
Model
350
1E
  0
DICTIONARY
  5
17
102
{ACAD_REACTORS
330
C
102
}
330
C
100
AcDbDictionary
281
     1
  3
Standard
350
18
  0
DICTIONARY
  5
19
102
{ACAD_REACTORS
330
C
102
}
330
C
100
AcDbDictionary
281
     1
  0
ACDBDICTIONARYWDFLT
  5
E
102
{ACAD_REACTORS
330
C
102
}
330
C
100
AcDbDictionary
281
     1
  3
Normal
350
F
100
AcDbDictionaryWithDefault
340
F
  0
DICTIONARY
  5
88
102
{ACAD_REACTORS
330
C
102
}
330
C
100
AcDbDictionary
281
     1
  3
A0
350
89
  3
A1
350
8A
  3
A2
350
8B
  3
A3
350
8C
  3
A4
350
8D
  3
A5
350
8E
  3
A6
350
8F
  3
A7
350
90
  3
A8
350
91
  3
A9
350
92
  3
B0
350
93
  3
B1
350
94
  3
B2
350
95
  3
B3
350
96
  3
B4
350
97
  3
B5
350
98
  3
B6
350
99
  3
B7
350
9A
  3
B8
350
9B
  3
B9
350
9C
  3
C0
350
9D
  3
C1
350
9E
  3
C2
350
9F
  3
C3
350
A0
  3
C4
350
A1
  3
C5
350
A2
  3
C6
350
A3
  3
C7
350
A4
  3
C8
350
A5
  3
C9
350
A6
  3
D0
350
A7
  3
D1
350
A8
  3
D2
350
A9
  0
DICTIONARY
  5
12B
102
{ACAD_REACTORS
330
C
102
}
330
C
100
AcDbDictionary
281
     1
  0
DICTIONARY
  5
C9
102
{ACAD_REACTORS
330
C
102
}
330
C
100
AcDbDictionary
281
     1
  3
DIMASSOC
350
CD
  3
HIDETEXT
350
CE
  0
DICTIONARY
  5
117
102
{ACAD_REACTORS
330
C
102
}
330
C
100
AcDbDictionary
281
     1
  0
XRECORD
  5
243
102
{ACAD_REACTORS
330
C
102
}
330
C
100
AcDbXrecord
280
     1
  1
DWGPROPS COOKIE
  2

  3

  4

  6

  7

  8
matthias.ochs
  9

300
=
301
=
302
=
303
=
304
=
305
=
306
=
307
=
308
=
309
=
 40
0.0
 41
2458327.46112529
 42
2458589.474916146
  1

 90
        0
  0
DICTIONARY
  5
119
102
{ACAD_REACTORS
330
118
102
}
330
118
100
AcDbDictionary
281
     1
  0
DICTIONARY
  5
21D
102
{ACAD_REACTORS
330
118
102
}
330
118
100
AcDbDictionary
281
     1
1001
ACAD
1000
<All
  0
SORTENTSTABLE
  5
216
102
{ACAD_REACTORS
330
215
102
}
330
215
100
AcDbSortentsTable
330
1D
331
0
  5
20F
331
29
  5
2A
331
2A
  5
2B
331
2B
  5
2C
331
2C
  5
2D
331
2D
  5
2E
331
2E
  5
2F
331
2F
  5
30
331
30
  5
31
331
31
  5
34
331
34
  5
35
331
35
  5
36
331
36
  5
37
331
37
  5
38
331
38
  5
39
331
39
  5
3A
331
3A
  5
3B
331
3B
  5
3D
331
3D
  5
3E
331
3E
  5
3F
331
3F
  5
40
331
40
  5
46
331
41
  5
49
331
43
  5
4A
331
45
  5
4B
331
46
  5
4C
331
49
  5
4D
331
4A
  5
4E
331
4B
  5
4F
331
4C
  5
50
331
4D
  5
51
331
4E
  5
52
331
4F
  5
53
331
50
  5
54
331
51
  5
55
331
52
  5
56
331
53
  5
57
331
54
  5
58
331
55
  5
59
331
56
  5
5A
331
57
  5
5B
331
58
  5
5C
331
59
  5
5D
331
5A
  5
5E
331
5B
  5
5F
331
5C
  5
60
331
5D
  5
61
331
5E
  5
62
331
5F
  5
63
331
60
  5
64
331
61
  5
65
331
62
  5
66
331
63
  5
67
331
64
  5
68
331
65
  5
69
331
66
  5
6A
331
67
  5
6B
331
68
  5
6C
331
69
  5
6D
331
6A
  5
6E
331
6B
  5
6F
331
6C
  5
70
331
6D
  5
71
331
6E
  5
72
331
6F
  5
73
331
70
  5
74
331
71
  5
75
331
72
  5
76
331
73
  5
77
331
74
  5
78
331
75
  5
79
331
76
  5
7A
331
77
  5
7B
331
78
  5
7C
331
79
  5
7D
331
7A
  5
7E
331
7B
  5
7F
331
7C
  5
80
331
7D
  5
81
331
7E
  5
82
331
7F
  5
120
331
80
  5
121
331
81
  5
122
331
82
  5
123
331
120
  5
124
331
121
  5
125
331
122
  5
126
331
123
  5
12D
331
124
  5
12E
331
125
  5
12F
331
126
  5
130
331
12D
  5
131
331
12E
  5
136
331
12F
  5
137
331
130
  5
138
331
131
  5
141
331
136
  5
166
331
137
  5
168
331
138
  5
16A
331
141
  5
16B
331
166
  5
187
331
168
  5
190
331
16A
  5
1B6
331
16B
  5
1B8
331
187
  5
1BB
331
190
  5
1FC
331
1B6
  5
201
331
1B8
  5
208
331
1BB
  5
20B
331
201
  5
20D
331
208
  5
20E
331
20A
  5
210
331
20B
  5
211
331
20C
  5
212
331
20D
  5
213
331
20E
  5
214
331
20F
  5
217
331
210
  5
222
331
211
  5
223
331
212
  5
22B
331
213
  5
22C
331
222
  5
22D
331
223
  5
22E
331
22E
  5
45
  0
LAYOUT
  5
1C
102
{ACAD_REACTORS
330
1A
102
}
330
1A
100
AcDbPlotSettings
  1

  2
none_device
  4

  6

 40
0.0
 41
0.0
 42
0.0
 43
0.0
 44
0.0
 45
0.0
 46
0.0
 47
0.0
 48
0.0
 49
0.0
140
0.0
141
0.0
142
1.0
143
1.0
 70
   688
 72
     0
 73
     0
 74
     5
  7

 75
    16
147
1.0
148
0.0
149
0.0
100
AcDbLayout
  1
Layout1
 70
     1
 71
     1
 10
0.0
 20
0.0
 11
12.0
 21
9.0
 12
0.0
 22
0.0
 32
0.0
 14
1.000000000000000E+20
 24
1.000000000000000E+20
 34
1.000000000000000E+20
 15
-1.000000000000000E+20
 25
-1.000000000000000E+20
 35
-1.000000000000000E+20
146
0.0
 13
0.0
 23
0.0
 33
0.0
 16
1.0
 26
0.0
 36
0.0
 17
0.0
 27
1.0
 37
0.0
 76
     0
330
1B
  0
LAYOUT
  5
1E
102
{ACAD_REACTORS
330
1A
102
}
330
1A
100
AcDbPlotSettings
  1

  2
none_device
  4

  6

 40
0.0
 41
0.0
 42
0.0
 43
0.0
 44
0.0
 45
0.0
 46
0.0
 47
0.0
 48
0.0
 49
0.0
140
0.0
141
0.0
142
1.0
143
1.0
 70
  1712
 72
     0
 73
     0
 74
     0
  7

 75
     0
147
1.0
148
0.0
149
0.0
100
AcDbLayout
  1
Model
 70
     1
 71
     0
 10
0.0
 20
0.0
 11
12.0
 21
9.0
 12
0.0
 22
0.0
 32
0.0
 14
-95.88116235604241
 24
-50.36646806528135
 34
0.0
 15
175.6627409447033
 25
85.72345068497528
 35
0.0
146
0.0
 13
0.0
 23
0.0
 33
0.0
 16
1.0
 26
0.0
 36
0.0
 17
0.0
 27
1.0
 37
0.0
 76
     0
330
1D
331
83
  0
MLINESTYLE
  5
18
102
{ACAD_REACTORS
330
17
102
}
330
17
100
AcDbMlineStyle
  2
Standard
 70
     0
  3

 62
   256
 51
90.0
 52
90.0
 71
     2
 49
0.5
 62
   256
  6
BYLAYER
 49
-0.5
 62
   256
  6
BYLAYER
  0
ACDBPLACEHOLDER
  5
F
102
{ACAD_REACTORS
330
E
102
}
330
E
  0
SCALE
  5
89
102
{ACAD_REACTORS
330
88
102
}
330
88
100
AcDbScale
 70
     0
300
1:1
140
1.0
141
1.0
290
     1
  0
SCALE
  5
8A
102
{ACAD_REACTORS
330
88
102
}
330
88
100
AcDbScale
 70
     0
300
1:2
140
1.0
141
2.0
290
     0
  0
SCALE
  5
8B
102
{ACAD_REACTORS
330
88
102
}
330
88
100
AcDbScale
 70
     0
300
1:4
140
1.0
141
4.0
290
     0
  0
SCALE
  5
8C
102
{ACAD_REACTORS
330
88
102
}
330
88
100
AcDbScale
 70
     0
300
1:5
140
1.0
141
5.0
290
     0
  0
SCALE
  5
8D
102
{ACAD_REACTORS
330
88
102
}
330
88
100
AcDbScale
 70
     0
300
1:8
140
1.0
141
8.0
290
     0
  0
SCALE
  5
8E
102
{ACAD_REACTORS
330
88
102
}
330
88
100
AcDbScale
 70
     0
300
1:10
140
1.0
141
10.0
290
     0
  0
SCALE
  5
8F
102
{ACAD_REACTORS
330
88
102
}
330
88
100
AcDbScale
 70
     0
300
1:16
140
1.0
141
16.0
290
     0
  0
SCALE
  5
90
102
{ACAD_REACTORS
330
88
102
}
330
88
100
AcDbScale
 70
     0
300
1:20
140
1.0
141
20.0
290
     0
  0
SCALE
  5
91
102
{ACAD_REACTORS
330
88
102
}
330
88
100
AcDbScale
 70
     0
300
1:30
140
1.0
141
30.0
290
     0
  0
SCALE
  5
92
102
{ACAD_REACTORS
330
88
102
}
330
88
100
AcDbScale
 70
     0
300
1:40
140
1.0
141
40.0
290
     0
  0
SCALE
  5
93
102
{ACAD_REACTORS
330
88
102
}
330
88
100
AcDbScale
 70
     0
300
1:50
140
1.0
141
50.0
290
     0
  0
SCALE
  5
94
102
{ACAD_REACTORS
330
88
102
}
330
88
100
AcDbScale
 70
     0
300
1:100
140
1.0
141
100.0
290
     0
  0
SCALE
  5
95
102
{ACAD_REACTORS
330
88
102
}
330
88
100
AcDbScale
 70
     0
300
2:1
140
2.0
141
1.0
290
     0
  0
SCALE
  5
96
102
{ACAD_REACTORS
330
88
102
}
330
88
100
AcDbScale
 70
     0
300
4:1
140
4.0
141
1.0
290
     0
  0
SCALE
  5
97
102
{ACAD_REACTORS
330
88
102
}
330
88
100
AcDbScale
 70
     0
300
8:1
140
8.0
141
1.0
290
     0
  0
SCALE
  5
98
102
{ACAD_REACTORS
330
88
102
}
330
88
100
AcDbScale
 70
     0
300
10:1
140
10.0
141
1.0
290
     0
  0
SCALE
  5
99
102
{ACAD_REACTORS
330
88
102
}
330
88
100
AcDbScale
 70
     0
300
100:1
140
100.0
141
1.0
290
     0
  0
SCALE
  5
9A
102
{ACAD_REACTORS
330
88
102
}
330
88
100
AcDbScale
 70
     0
300
1/128" = 1'-0"
140
0.0078125
141
12.0
290
     0
  0
SCALE
  5
9B
102
{ACAD_REACTORS
330
88
102
}
330
88
100
AcDbScale
 70
     0
300
1/64" = 1'-0"
140
0.015625
141
12.0
290
     0
  0
SCALE
  5
9C
102
{ACAD_REACTORS
330
88
102
}
330
88
100
AcDbScale
 70
     0
300
1/32" = 1'-0"
140
0.03125
141
12.0
290
     0
  0
SCALE
  5
9D
102
{ACAD_REACTORS
330
88
102
}
330
88
100
AcDbScale
 70
     0
300
1/16" = 1'-0"
140
0.0625
141
12.0
290
     0
  0
SCALE
  5
9E
102
{ACAD_REACTORS
330
88
102
}
330
88
100
AcDbScale
 70
     0
300
3/32" = 1'-0"
140
0.09375
141
12.0
290
     0
  0
SCALE
  5
9F
102
{ACAD_REACTORS
330
88
102
}
330
88
100
AcDbScale
 70
     0
300
1/8" = 1'-0"
140
0.125
141
12.0
290
     0
  0
SCALE
  5
A0
102
{ACAD_REACTORS
330
88
102
}
330
88
100
AcDbScale
 70
     0
300
3/16" = 1'-0"
140
0.1875
141
12.0
290
     0
  0
SCALE
  5
A1
102
{ACAD_REACTORS
330
88
102
}
330
88
100
AcDbScale
 70
     0
300
1/4" = 1'-0"
140
0.25
141
12.0
290
     0
  0
SCALE
  5
A2
102
{ACAD_REACTORS
330
88
102
}
330
88
100
AcDbScale
 70
     0
300
3/8" = 1'-0"
140
0.375
141
12.0
290
     0
  0
SCALE
  5
A3
102
{ACAD_REACTORS
330
88
102
}
330
88
100
AcDbScale
 70
     0
300
1/2" = 1'-0"
140
0.5
141
12.0
290
     0
  0
SCALE
  5
A4
102
{ACAD_REACTORS
330
88
102
}
330
88
100
AcDbScale
 70
     0
300
3/4" = 1'-0"
140
0.75
141
12.0
290
     0
  0
SCALE
  5
A5
102
{ACAD_REACTORS
330
88
102
}
330
88
100
AcDbScale
 70
     0
300
1" = 1'-0"
140
1.0
141
12.0
290
     0
  0
SCALE
  5
A6
102
{ACAD_REACTORS
330
88
102
}
330
88
100
AcDbScale
 70
     0
300
1-1/2" = 1'-0"
140
1.5
141
12.0
290
     0
  0
SCALE
  5
A7
102
{ACAD_REACTORS
330
88
102
}
330
88
100
AcDbScale
 70
     0
300
3" = 1'-0"
140
3.0
141
12.0
290
     0
  0
SCALE
  5
A8
102
{ACAD_REACTORS
330
88
102
}
330
88
100
AcDbScale
 70
     0
300
6" = 1'-0"
140
6.0
141
12.0
290
     0
  0
SCALE
  5
A9
102
{ACAD_REACTORS
330
88
102
}
330
88
100
AcDbScale
 70
     0
300
1'-0" = 1'-0"
140
12.0
141
12.0
290
     0
  0
DICTIONARYVAR
  5
CD
102
{ACAD_REACTORS
330
C9
102
}
330
C9
100
DictionaryVariables
280
     0
  1
2
  0
DICTIONARYVAR
  5
CE
102
{ACAD_REACTORS
330
C9
102
}
330
C9
100
DictionaryVariables
280
     0
  1
1
  0
ENDSEC
  0
EOF
