  0
SECTION
  2
HEADER
  9
$ACADVER
  1
AC1015
  9
$ACADMAINTVER
 70
     6
  9
$DWGCODEPAGE
  3
ANSI_1252
  9
$INSBASE
 10
0.0
 20
0.0
 30
0.0
  9
$EXTMIN
 10
-107.0564309021715
 20
-76.30348177098307
 30
0.0
  9
$EXTMAX
 10
137.9649635759715
 20
72.56294466136399
 30
0.0
  9
$LIMMIN
 10
-108.124944745
 20
-54.642465744
  9
$LIMMAX
 10
114.444089948
 20
45.986559067
  9
$ORTHOMODE
 70
     0
  9
$REGENMODE
 70
     1
  9
$FILLMODE
 70
     1
  9
$QTEXTMODE
 70
     0
  9
$MIRRTEXT
 70
     1
  9
$LTSCALE
 40
1.0
  9
$ATTMODE
 70
     1
  9
$TEXTSIZE
 40
0.2
  9
$TRACEWID
 40
0.05
  9
$TEXTSTYLE
  7
Standard
  9
$CLAYER
  8
SK3
  9
$CELTYPE
  6
ByLayer
  9
$CECOLOR
 62
   256
  9
$CELTSCALE
 40
1.0
  9
$DISPSILH
 70
     0
  9
$DIMSCALE
 40
1.0
  9
$DIMASZ
 40
0.18
  9
$DIMEXO
 40
0.0625
  9
$DIMDLI
 40
0.38
  9
$DIMRND
 40
0.0
  9
$DIMDLE
 40
0.0
  9
$DIMEXE
 40
0.18
  9
$DIMTP
 40
0.0
  9
$DIMTM
 40
0.0
  9
$DIMTXT
 40
0.18
  9
$DIMCEN
 40
0.09
  9
$DIMTSZ
 40
0.0
  9
$DIMTOL
 70
     0
  9
$DIMLIM
 70
     0
  9
$DIMTIH
 70
     1
  9
$DIMTOH
 70
     1
  9
$DIMSE1
 70
     0
  9
$DIMSE2
 70
     0
  9
$DIMTAD
 70
     0
  9
$DIMZIN
 70
     0
  9
$DIMBLK
  1

  9
$DIMASO
 70
     1
  9
$DIMSHO
 70
     1
  9
$DIMPOST
  1

  9
$DIMAPOST
  1

  9
$DIMALT
 70
     0
  9
$DIMALTD
 70
     2
  9
$DIMALTF
 40
25.4
  9
$DIMLFAC
 40
1.0
  9
$DIMTOFL
 70
     0
  9
$DIMTVP
 40
0.0
  9
$DIMTIX
 70
     0
  9
$DIMSOXD
 70
     0
  9
$DIMSAH
 70
     0
  9
$DIMBLK1
  1

  9
$DIMBLK2
  1

  9
$DIMSTYLE
  2
Standard
  9
$DIMCLRD
 70
     0
  9
$DIMCLRE
 70
     0
  9
$DIMCLRT
 70
     0
  9
$DIMTFAC
 40
1.0
  9
$DIMGAP
 40
0.09
  9
$DIMJUST
 70
     0
  9
$DIMSD1
 70
     0
  9
$DIMSD2
 70
     0
  9
$DIMTOLJ
 70
     1
  9
$DIMTZIN
 70
     0
  9
$DIMALTZ
 70
     0
  9
$DIMALTTZ
 70
     0
  9
$DIMUPT
 70
     0
  9
$DIMDEC
 70
     4
  9
$DIMTDEC
 70
     4
  9
$DIMALTU
 70
     2
  9
$DIMALTTD
 70
     2
  9
$DIMTXSTY
  7
Standard
  9
$DIMAUNIT
 70
     0
  9
$DIMADEC
 70
     0
  9
$DIMALTRND
 40
0.0
  9
$DIMAZIN
 70
     0
  9
$DIMDSEP
 70
    46
  9
$DIMATFIT
 70
     3
  9
$DIMFRAC
 70
     0
  9
$DIMLDRBLK
  1

  9
$DIMLUNIT
 70
     2
  9
$DIMLWD
 70
    -2
  9
$DIMLWE
 70
    -2
  9
$DIMTMOVE
 70
     2
  9
$LUNITS
 70
     2
  9
$LUPREC
 70
     4
  9
$SKETCHINC
 40
0.1
  9
$FILLETRAD
 40
0.5
  9
$AUNITS
 70
     2
  9
$AUPREC
 70
     0
  9
$MENU
  1
.
  9
$ELEVATION
 40
0.0
  9
$PELEVATION
 40
0.0
  9
$THICKNESS
 40
0.0
  9
$LIMCHECK
 70
     0
  9
$CHAMFERA
 40
0.5
  9
$CHAMFERB
 40
0.5
  9
$CHAMFERC
 40
1.0
  9
$CHAMFERD
 40
0.0
  9
$SKPOLY
 70
     0
  9
$TDCREATE
 40
2458327.549430914
  9
$TDUCREATE
 40
2458327.466097581
  9
$TDUPDATE
 40
2458589.671406088
  9
$TDUUPDATE
 40
2458589.588072754
  9
$TDINDWG
 40
0.0058101042
  9
$TDUSRTIMER
 40
0.00013625
  9
$USRTIMER
 70
     1
  9
$ANGBASE
 50
0.0
  9
$ANGDIR
 70
     0
  9
$PDMODE
 70
     0
  9
$PDSIZE
 40
0.0
  9
$PLINEWID
 40
0.0
  9
$SPLFRAME
 70
     0
  9
$SPLINETYPE
 70
     6
  9
$SPLINESEGS
 70
     8
  9
$HANDSEED
  5
28C
  9
$SURFTAB1
 70
     6
  9
$SURFTAB2
 70
     6
  9
$SURFTYPE
 70
     6
  9
$SURFU
 70
     6
  9
$SURFV
 70
     6
  9
$UCSBASE
  2

  9
$UCSNAME
  2

  9
$UCSORG
 10
0.0
 20
0.0
 30
0.0
  9
$UCSXDIR
 10
1.0
 20
0.0
 30
0.0
  9
$UCSYDIR
 10
0.0
 20
1.0
 30
0.0
  9
$UCSORTHOREF
  2

  9
$UCSORTHOVIEW
 70
     0
  9
$UCSORGTOP
 10
0.0
 20
0.0
 30
0.0
  9
$UCSORGBOTTOM
 10
0.0
 20
0.0
 30
0.0
  9
$UCSORGLEFT
 10
0.0
 20
0.0
 30
0.0
  9
$UCSORGRIGHT
 10
0.0
 20
0.0
 30
0.0
  9
$UCSORGFRONT
 10
0.0
 20
0.0
 30
0.0
  9
$UCSORGBACK
 10
0.0
 20
0.0
 30
0.0
  9
$PUCSBASE
  2

  9
$PUCSNAME
  2

  9
$PUCSORG
 10
0.0
 20
0.0
 30
0.0
  9
$PUCSXDIR
 10
1.0
 20
0.0
 30
0.0
  9
$PUCSYDIR
 10
0.0
 20
1.0
 30
0.0
  9
$PUCSORTHOREF
  2

  9
$PUCSORTHOVIEW
 70
     0
  9
$PUCSORGTOP
 10
0.0
 20
0.0
 30
0.0
  9
$PUCSORGBOTTOM
 10
0.0
 20
0.0
 30
0.0
  9
$PUCSORGLEFT
 10
0.0
 20
0.0
 30
0.0
  9
$PUCSORGRIGHT
 10
0.0
 20
0.0
 30
0.0
  9
$PUCSORGFRONT
 10
0.0
 20
0.0
 30
0.0
  9
$PUCSORGBACK
 10
0.0
 20
0.0
 30
0.0
  9
$USERI1
 70
     0
  9
$USERI2
 70
     0
  9
$USERI3
 70
     0
  9
$USERI4
 70
     0
  9
$USERI5
 70
     0
  9
$USERR1
 40
0.0
  9
$USERR2
 40
0.0
  9
$USERR3
 40
0.0
  9
$USERR4
 40
0.0
  9
$USERR5
 40
0.0
  9
$WORLDVIEW
 70
     1
  9
$SHADEDGE
 70
     3
  9
$SHADEDIF
 70
    70
  9
$TILEMODE
 70
     1
  9
$MAXACTVP
 70
    64
  9
$PINSBASE
 10
0.0
 20
0.0
 30
0.0
  9
$PLIMCHECK
 70
     0
  9
$PEXTMIN
 10
1.000000000000000E+20
 20
1.000000000000000E+20
 30
1.000000000000000E+20
  9
$PEXTMAX
 10
-1.000000000000000E+20
 20
-1.000000000000000E+20
 30
-1.000000000000000E+20
  9
$PLIMMIN
 10
0.0
 20
0.0
  9
$PLIMMAX
 10
0.0
 20
0.0
  9
$UNITMODE
 70
     0
  9
$VISRETAIN
 70
     1
  9
$PLINEGEN
 70
     0
  9
$PSLTSCALE
 70
     1
  9
$TREEDEPTH
 70
  3020
  9
$CMLSTYLE
  2
Standard
  9
$CMLJUST
 70
     0
  9
$CMLSCALE
 40
1.0
  9
$PROXYGRAPHICS
 70
     1
  9
$MEASUREMENT
 70
     0
  9
$CELWEIGHT
370
    -1
  9
$ENDCAPS
280
     0
  9
$JOINSTYLE
280
     0
  9
$LWDISPLAY
290
     0
  9
$INSUNITS
 70
     0
  9
$HYPERLINKBASE
  1

  9
$STYLESHEET
  1

  9
$XEDIT
290
     1
  9
$CEPSNTYPE
380
     0
  9
$PSTYLEMODE
290
     1
  9
$FINGERPRINTGUID
  2
{C121F643-1220-4991-AFB3-04901835A33F}
  9
$VERSIONGUID
  2
{FAEB1C32-E019-11D5-929B-00C0DF256EC4}
  9
$EXTNAMES
290
     1
  9
$PSVPSCALE
 40
0.0
  9
$OLESTARTUP
290
     0
  0
ENDSEC
  0
SECTION
  2
CLASSES
  0
CLASS
  1
ACDBDICTIONARYWDFLT
  2
AcDbDictionaryWithDefault
  3
ObjectDBX Classes
 90
        0
280
     0
281
     0
  0
CLASS
  1
SCALE
  2
AcDbScale
  3
ObjectDBX Classes
 90
     1153
280
     0
281
     0
  0
CLASS
  1
VISUALSTYLE
  2
AcDbVisualStyle
  3
ObjectDBX Classes
 90
     4095
280
     0
281
     0
  0
CLASS
  1
MATERIAL
  2
AcDbMaterial
  3
ObjectDBX Classes
 90
     1153
280
     0
281
     0
  0
CLASS
  1
DICTIONARYVAR
  2
AcDbDictionaryVar
  3
ObjectDBX Classes
 90
        0
280
     0
281
     0
  0
CLASS
  1
ACDBPLACEHOLDER
  2
AcDbPlaceHolder
  3
ObjectDBX Classes
 90
        0
280
     0
281
     0
  0
CLASS
  1
LAYOUT
  2
AcDbLayout
  3
ObjectDBX Classes
 90
        0
280
     0
281
     0
  0
CLASS
  1
TABLESTYLE
  2
AcDbTableStyle
  3
ObjectDBX Classes
 90
     4095
280
     0
281
     0
  0
CLASS
  1
MLEADERSTYLE
  2
AcDbMLeaderStyle
  3
ACDB_MLEADERSTYLE_CLASS
 90
     4095
280
     0
281
     0
  0
CLASS
  1
SUN
  2
AcDbSun
  3
SCENEOE
 90
     1153
280
     0
281
     0
  0
CLASS
  1
CELLSTYLEMAP
  2
AcDbCellStyleMap
  3
ObjectDBX Classes
 90
     1152
280
     0
281
     0
  0
ENDSEC
  0
SECTION
  2
TABLES
  0
TABLE
  2
VPORT
  5
8
330
0
100
AcDbSymbolTable
 70
     1
  0
VPORT
  5
130
330
8
100
AcDbSymbolTableRecord
100
AcDbViewportTableRecord
  2
*Active
 70
     0
 10
0.0
 20
0.0
 11
1.0
 21
1.0
 12
16.76774689550854
 22
-16.58382721518038
 13
0.0
 23
0.0
 14
0.5
 24
0.5
 15
0.5
 25
0.5
 16
0.0
 26
0.0
 36
1.0
 17
0.0
 27
0.0
 37
0.0
 40
185.8658505197918
 41
1.978589420654912
 42
50.0
 43
0.0
 44
0.0
 50
0.0
 51
0.0
 71
    16
 72
   100
 73
     1
 74
     3
 75
     0
 76
     0
 77
     0
 78
     0
281
     0
 65
     1
110
0.0
120
0.0
130
0.0
111
1.0
121
0.0
131
0.0
112
0.0
122
1.0
132
0.0
 79
     0
146
0.0
  0
ENDTAB
  0
TABLE
  2
LTYPE
  5
5
330
0
100
AcDbSymbolTable
 70
     8
  0
LTYPE
  5
14
330
5
100
AcDbSymbolTableRecord
100
AcDbLinetypeTableRecord
  2
ByBlock
 70
     0
  3

 72
    65
 73
     0
 40
0.0
  0
LTYPE
  5
15
330
5
100
AcDbSymbolTableRecord
100
AcDbLinetypeTableRecord
  2
ByLayer
 70
     0
  3

 72
    65
 73
     0
 40
0.0
  0
LTYPE
  5
16
330
5
100
AcDbSymbolTableRecord
100
AcDbLinetypeTableRecord
  2
Continuous
 70
     0
  3
Solid line
 72
    65
 73
     0
 40
0.0
  0
LTYPE
  5
20
330
5
100
AcDbSymbolTableRecord
100
AcDbLinetypeTableRecord
  2
PUNKT
 70
     0
  3
..............
 72
    65
 73
     2
 40
1.5
 49
0.7
 74
     0
 49
-0.8
 74
     0
  0
LTYPE
  5
21
330
5
100
AcDbSymbolTableRecord
100
AcDbLinetypeTableRecord
  2
GESTRICHELT
 70
     0
  3
-- -- -- -- --
 72
    65
 73
     7
 40
2.8
 49
0.9
 74
     0
 49
0.0
 74
     0
 49
0.9
 74
     0
 49
0.0
 74
     0
 49
0.2
 74
     0
 49
0.0
 74
     0
 49
-0.8
 74
     0
  0
LTYPE
  5
22
330
5
100
AcDbSymbolTableRecord
100
AcDbLinetypeTableRecord
  2
STRICHPUNKT
 70
     0
  3
--.--.--.--.--
 72
    65
 73
     4
 40
8.8
 49
5.5
 74
     0
 49
-1.3
 74
     0
 49
0.7
 74
     0
 49
-1.3
 74
     0
  0
LTYPE
  5
25
330
5
100
AcDbSymbolTableRecord
100
AcDbLinetypeTableRecord
  2
PHANTOM
 70
     0
  3
--..--..--..--
 72
    65
 73
     6
 40
14.2
 49
7.0
 74
     0
 49
-1.8
 74
     0
 49
0.9
 74
     0
 49
-1.8
 74
     0
 49
0.9
 74
     0
 49
-1.8
 74
     0
  0
LTYPE
  5
1A8
330
5
100
AcDbSymbolTableRecord
100
AcDbLinetypeTableRecord
  2
DASH
 70
     0
  3
DASH _ _ _ _ _
 72
    65
 73
     2
 40
0.75
 49
0.4
 74
     0
 49
-0.35
 74
     0
  0
LTYPE
  5
1A9
330
5
100
AcDbSymbolTableRecord
100
AcDbLinetypeTableRecord
  2
LONGDASH_DASH
 70
     0
  3
LONGDASH_DASH __ . __ . __
 72
    65
 73
     4
 40
0.85
 49
0.4
 74
     0
 49
-0.2
 74
     0
 49
0.05
 74
     0
 49
-0.2
 74
     0
  0
LTYPE
  5
1AA
330
5
100
AcDbSymbolTableRecord
100
AcDbLinetypeTableRecord
  2
LONGDASH_DASH_DASH
 70
     0
  3
LONGDASH_DASH_DASH __ . . __ . . __
 72
    65
 73
     6
 40
1.1
 49
0.4
 74
     0
 49
-0.2
 74
     0
 49
0.05
 74
     0
 49
-0.2
 74
     0
 49
0.05
 74
     0
 49
-0.2
 74
     0
  0
ENDTAB
  0
TABLE
  2
LAYER
  5
2
102
{ACAD_XDICTIONARY
360
1C7
102
}
330
0
100
AcDbSymbolTable
 70
    15
  0
LAYER
  5
172
330
2
100
AcDbSymbolTableRecord
100
AcDbLayerTableRecord
  2
200
 70
     0
 62
     2
  6
Continuous
370
    50
390
F
  0
LAYER
  5
1AB
330
2
100
AcDbSymbolTableRecord
100
AcDbLayerTableRecord
  2
0
 70
     0
 62
     1
  6
Continuous
370
    -3
390
F
  0
LAYER
  5
1AC
330
2
100
AcDbSymbolTableRecord
100
AcDbLayerTableRecord
  2
1
 70
     0
 62
     4
  6
Continuous
370
    50
390
F
  0
LAYER
  5
1AD
330
2
100
AcDbSymbolTableRecord
100
AcDbLayerTableRecord
  2
2
 70
     0
 62
     7
  6
Continuous
370
    25
390
F
  0
LAYER
  5
1AE
330
2
100
AcDbSymbolTableRecord
100
AcDbLayerTableRecord
  2
3
 70
     0
 62
     1
  6
DASH
370
    35
390
F
  0
LAYER
  5
1AF
330
2
100
AcDbSymbolTableRecord
100
AcDbLayerTableRecord
  2
4
 70
     0
 62
     2
  6
LONGDASH_DASH
370
    25
390
F
  0
LAYER
  5
1B0
330
2
100
AcDbSymbolTableRecord
100
AcDbLayerTableRecord
  2
6
 70
     0
 62
     5
  6
Continuous
370
    -3
390
F
  0
LAYER
  5
1B1
330
2
100
AcDbSymbolTableRecord
100
AcDbLayerTableRecord
  2
CUT
 70
     0
 62
     1
  6
Continuous
370
    25
390
F
  0
LAYER
  5
1B2
330
2
100
AcDbSymbolTableRecord
100
AcDbLayerTableRecord
  2
NOCUT
 70
     0
 62
     7
  6
Continuous
370
    25
390
F
  0
LAYER
  5
1B3
330
2
100
AcDbSymbolTableRecord
100
AcDbLayerTableRecord
  2
SK1
 70
     0
 62
     4
  6
Continuous
370
    50
390
F
  0
LAYER
  5
1B4
330
2
100
AcDbSymbolTableRecord
100
AcDbLayerTableRecord
  2
SK2
 70
     0
 62
     7
  6
Continuous
370
    25
390
F
  0
LAYER
  5
1B5
330
2
100
AcDbSymbolTableRecord
100
AcDbLayerTableRecord
  2
SK3
 70
     0
 62
     1
  6
DASH
370
    35
390
F
  0
LAYER
  5
1B6
330
2
100
AcDbSymbolTableRecord
100
AcDbLayerTableRecord
  2
SK4
 70
     0
 62
     2
  6
LONGDASH_DASH
370
    25
390
F
  0
LAYER
  5
1B7
330
2
100
AcDbSymbolTableRecord
100
AcDbLayerTableRecord
  2
SK6
 70
     0
 62
     5
  6
Continuous
370
    -3
390
F
  0
LAYER
  5
1B8
330
2
100
AcDbSymbolTableRecord
100
AcDbLayerTableRecord
  2
INFTOTAL
 70
     0
 62
     9
  6
Continuous
370
    18
390
F
  0
ENDTAB
  0
TABLE
  2
STYLE
  5
3
330
0
100
AcDbSymbolTable
 70
     2
  0
STYLE
  5
11
330
3
100
AcDbSymbolTableRecord
100
AcDbTextStyleTableRecord
  2
Standard
 70
     0
 40
0.0
 41
1.0
 50
0.0
 71
     0
 42
0.2
  3
txt
  4

  0
STYLE
  5
171
330
3
100
AcDbSymbolTableRecord
100
AcDbTextStyleTableRecord
  2
BMG_Text
 70
     0
 40
3.5
 41
1.0
 50
0.0
 71
     0
 42
0.2
  3
monos.ttf
  4

1001
ACAD
1000
Monospac821 BT
1071
       49
  0
ENDTAB
  0
TABLE
  2
VIEW
  5
6
330
0
100
AcDbSymbolTable
 70
     0
  0
ENDTAB
  0
TABLE
  2
UCS
  5
7
330
0
100
AcDbSymbolTable
 70
     0
  0
ENDTAB
  0
TABLE
  2
APPID
  5
9
330
0
100
AcDbSymbolTable
 70
     1
  0
APPID
  5
12
330
9
100
AcDbSymbolTableRecord
100
AcDbRegAppTableRecord
  2
ACAD
 70
     0
  0
ENDTAB
  0
TABLE
  2
DIMSTYLE
  5
A
330
0
100
AcDbSymbolTable
 70
     1
100
AcDbDimStyleTable
  0
DIMSTYLE
105
28
330
A
100
AcDbSymbolTableRecord
100
AcDbDimStyleTableRecord
  2
Standard
 70
     0
178
     0
340
11
  0
ENDTAB
  0
TABLE
  2
BLOCK_RECORD
  5
1
330
0
100
AcDbSymbolTable
 70
     0
  0
BLOCK_RECORD
  5
1D
330
1
100
AcDbSymbolTableRecord
100
AcDbBlockTableRecord
  2
*Model_Space
340
1E
  0
BLOCK_RECORD
  5
1B
330
1
100
AcDbSymbolTableRecord
100
AcDbBlockTableRecord
  2
*Paper_Space
340
1C
  0
ENDTAB
  0
ENDSEC
  0
SECTION
  2
BLOCKS
  0
BLOCK
  5
15A
330
1D
100
AcDbEntity
  8
0
100
AcDbBlockBegin
  2
*Model_Space
 70
     0
 10
0.0
 20
0.0
 30
0.0
  3
*Model_Space
  1

  0
ENDBLK
  5
15B
330
1D
100
AcDbEntity
  8
0
100
AcDbBlockEnd
  0
BLOCK
  5
158
330
1B
100
AcDbEntity
 67
     1
  8
0
100
AcDbBlockBegin
  2
*Paper_Space
 70
     0
 10
0.0
 20
0.0
 30
0.0
  3
*Paper_Space
  1

  0
ENDBLK
  5
159
330
1B
100
AcDbEntity
 67
     1
  8
0
100
AcDbBlockEnd
  0
ENDSEC
  0
SECTION
  2
ENTITIES
  0
LINE
  5
29
330
1D
100
AcDbEntity
  8
3
  6
DASH
370
    35
100
AcDbLine
 10
6.683885325
 20
-11.05
 30
0.0
 11
7.775796028
 21
-8.05
 31
0.0
  0
LINE
  5
2A
330
1D
100
AcDbEntity
  8
SK1
100
AcDbLine
 10
-43.700002343
 20
23.0
 30
0.0
 11
-2.555056733
 21
23.0
 31
0.0
  0
LINE
  5
2B
330
1D
100
AcDbEntity
  8
SK1
100
AcDbLine
 10
-2.555056733
 20
23.0
 30
0.0
 11
-2.555056733
 21
-23.0
 31
0.0
  0
ARC
  5
2C
330
1D
100
AcDbEntity
  8
SK1
100
AcDbCircle
 10
-0.25
 20
-22.9
 30
0.0
 40
0.5
100
AcDbArc
 50
60.0
 51
105.000000007
  0
LINE
  5
2D
330
1D
100
AcDbEntity
  8
SK1
100
AcDbLine
 10
-0.379409523
 20
-22.417037087
 30
0.0
 11
-2.555056733
 21
-23.0
 31
0.0
  0
LINE
  5
2E
330
1D
100
AcDbEntity
  8
SK1
100
AcDbLine
 10
-2.555056733
 20
-23.0
 30
0.0
 11
-43.700011134
 21
-23.0
 31
0.0
  0
LINE
  5
2F
330
1D
100
AcDbEntity
  8
SK1
100
AcDbLine
 10
-2.555056733
 20
23.0
 30
0.0
 11
-0.379409523
 21
22.417037087
 31
0.0
  0
ARC
  5
30
330
1D
100
AcDbEntity
  8
SK1
100
AcDbCircle
 10
-0.25
 20
22.9
 30
0.0
 40
0.5
100
AcDbArc
 50
255.0
 51
300.0
  0
LINE
  5
31
330
1D
100
AcDbEntity
  8
SK3
  6
DASH
370
    35
100
AcDbLine
 10
-49.7
 20
-11.05
 30
0.0
 11
0.0
 21
-11.05
 31
0.0
  0
LINE
  5
32
330
1D
100
AcDbEntity
  8
SK3
  6
DASH
370
    35
100
AcDbLine
 10
0.0000000000000009
 20
11.05
 30
0.0
 11
-49.7
 21
11.05
 31
0.0
  0
LINE
  5
33
330
1D
100
AcDbEntity
  8
SK4
  6
LONGDASH_DASH
370
    25
100
AcDbLine
 10
-52.290343113
 20
0.0
 30
0.0
 11
61.865870937
 21
0.0
 31
0.0
  0
LINE
  5
34
330
1D
100
AcDbEntity
  8
SK4
100
AcDbLine
 10
-17.631728
 20
-9.130054256
 30
0.0
 11
-17.631728
 21
9.258744544
 31
0.0
  0
TEXT
  5
35
330
1D
100
AcDbEntity
  8
SK6
  6
Continuous
370
    35
100
AcDbText
 10
9.190854608
 20
-40.796823769
 30
0.0
 40
3.5
  1
332.875N
 50
90.000208186
  7
BMG_Text
100
AcDbText
  0
ARC
  5
36
330
1D
100
AcDbEntity
  8
SK1
100
AcDbCircle
 10
-48.487565252
 20
-21.800001191
 30
0.0
 40
1.2
100
AcDbArc
 50
210.0
 51
280.0
  0
ARC
  5
37
330
1D
100
AcDbEntity
  8
SK1
100
AcDbCircle
 10
-48.487565252
 20
21.799998809
 30
0.0
 40
1.2
100
AcDbArc
 50
80.0
 51
150.0
  0
LINE
  5
38
330
1D
100
AcDbEntity
  8
SK1
100
AcDbLine
 10
-43.700002343
 20
22.999998854
 30
0.0
 11
-46.305708796
 21
22.633789779
 31
0.0
  0
LINE
  5
39
330
1D
100
AcDbEntity
  8
SK1
100
AcDbLine
 10
-46.305708796
 20
-22.633792161
 30
0.0
 11
-43.700002343
 21
-23.000001236
 31
0.0
  0
LINE
  5
3A
330
1D
100
AcDbEntity
  8
SK1
100
AcDbLine
 10
-48.279188782
 20
-22.981769665
 30
0.0
 11
-46.305708796
 21
-22.633792161
 31
0.0
  0
LINE
  5
3B
330
1D
100
AcDbEntity
  8
SK1
100
AcDbLine
 10
-46.305708796
 20
22.633789779
 30
0.0
 11
-48.279188782
 21
22.981767283
 31
0.0
  0
LINE
  5
3C
330
1D
100
AcDbEntity
  8
SK1
100
AcDbLine
 10
-49.526795954
 20
22.39999801
 30
0.0
 11
-49.699999601
 21
22.09999852
 31
0.0
  0
LINE
  5
3D
330
1D
100
AcDbEntity
  8
SK1
100
AcDbLine
 10
-49.699999601
 20
-22.100000902
 30
0.0
 11
-49.526795954
 21
-22.400000392
 31
0.0
  0
ARC
  5
3E
330
1D
100
AcDbEntity
  8
SK1
100
AcDbCircle
 10
-19.143219012
 20
2.414048048
 30
0.0
 40
11.94158224
100
AcDbArc
 50
193.13682134
 51
270.447258823
  0
LINE
  5
3F
330
1D
100
AcDbEntity
  8
SK1
100
AcDbLine
 10
-31.047724396
 20
-0.300001205
 30
0.0
 11
-31.032331497
 21
-0.753928003
 31
0.0
  0
LINE
  5
40
330
1D
100
AcDbEntity
  8
SK1
100
AcDbLine
 10
-31.032331497
 20
-0.753928003
 30
0.0
 11
-30.837841541
 21
-2.072479603
 31
0.0
  0
LINE
  5
41
330
1D
100
AcDbEntity
  8
SK1
100
AcDbLine
 10
-30.837841541
 20
-2.072479603
 30
0.0
 11
-30.430026561
 21
-3.335560932
 31
0.0
  0
LINE
  5
42
330
1D
100
AcDbEntity
  8
SK1
100
AcDbLine
 10
-30.430026561
 20
-3.335560932
 30
0.0
 11
-29.84765938
 21
-4.46893487
 31
0.0
  0
LINE
  5
43
330
1D
100
AcDbEntity
  8
SK1
100
AcDbLine
 10
-29.84765938
 20
-4.46893487
 30
0.0
 11
-29.106773645
 21
-5.499832126
 31
0.0
  0
LINE
  5
44
330
1D
100
AcDbEntity
  8
SK1
100
AcDbLine
 10
-29.106773645
 20
-5.499832126
 30
0.0
 11
-28.312444896
 21
-6.34103434
 31
0.0
  0
LINE
  5
45
330
1D
100
AcDbEntity
  8
SK1
100
AcDbLine
 10
-28.312444896
 20
-6.34103434
 30
0.0
 11
-27.4232032
 21
-7.086942698
 31
0.0
  0
LINE
  5
46
330
1D
100
AcDbEntity
  8
SK1
100
AcDbLine
 10
-27.4232032
 20
-7.086942698
 30
0.0
 11
-26.46088621
 21
-7.733139003
 31
0.0
  0
LINE
  5
47
330
1D
100
AcDbEntity
  8
SK1
100
AcDbLine
 10
-26.46088621
 20
-7.733139003
 30
0.0
 11
-25.177449197
 21
-8.402571342
 31
0.0
  0
LINE
  5
48
330
1D
100
AcDbEntity
  8
SK1
100
AcDbLine
 10
-25.177449197
 20
-8.402571342
 30
0.0
 11
-23.81709984
 21
-8.928681983
 31
0.0
  0
LINE
  5
49
330
1D
100
AcDbEntity
  8
SK1
100
AcDbLine
 10
-23.81709984
 20
-8.928681983
 30
0.0
 11
-22.407651156
 21
-9.312203414
 31
0.0
  0
LINE
  5
4A
330
1D
100
AcDbEntity
  8
SK1
100
AcDbLine
 10
-22.407651156
 20
-9.312203414
 30
0.0
 11
-20.74047944
 21
-9.582370779
 31
0.0
  0
LINE
  5
4B
330
1D
100
AcDbEntity
  8
SK1
100
AcDbLine
 10
-20.74047944
 20
-9.582370779
 30
0.0
 11
-19.050002307
 21
-9.672278798
 31
0.0
  0
LINE
  5
4C
330
1D
100
AcDbEntity
  8
SK1
100
AcDbLine
 10
-31.047724396
 20
-0.300001205
 30
0.0
 11
-30.772291333
 21
-0.300001205
 31
0.0
  0
ARC
  5
4D
330
1D
100
AcDbEntity
  8
SK1
100
AcDbCircle
 10
-19.143219012
 20
-2.41405043
 30
0.0
 40
11.94158224
100
AcDbArc
 50
89.552741177
 51
166.86317866
  0
LINE
  5
4E
330
1D
100
AcDbEntity
  8
SK1
100
AcDbLine
 10
-31.047724396
 20
0.299998823
 30
0.0
 11
-30.772291333
 21
0.299998823
 31
0.0
  0
LINE
  5
4F
330
1D
100
AcDbEntity
  8
SK1
100
AcDbLine
 10
-31.047724396
 20
0.299998823
 30
0.0
 11
-31.032331497
 21
0.753925621
 31
0.0
  0
LINE
  5
50
330
1D
100
AcDbEntity
  8
SK1
100
AcDbLine
 10
-31.032331497
 20
0.753925621
 30
0.0
 11
-30.837841541
 21
2.072477221
 31
0.0
  0
LINE
  5
51
330
1D
100
AcDbEntity
  8
SK1
100
AcDbLine
 10
-30.837841541
 20
2.072477221
 30
0.0
 11
-30.430026561
 21
3.33555855
 31
0.0
  0
LINE
  5
52
330
1D
100
AcDbEntity
  8
SK1
100
AcDbLine
 10
-30.430026561
 20
3.33555855
 30
0.0
 11
-29.84765938
 21
4.468932488
 31
0.0
  0
LINE
  5
53
330
1D
100
AcDbEntity
  8
SK1
100
AcDbLine
 10
-29.84765938
 20
4.468932488
 30
0.0
 11
-29.106773645
 21
5.499829744
 31
0.0
  0
LINE
  5
54
330
1D
100
AcDbEntity
  8
SK1
100
AcDbLine
 10
-29.106773645
 20
5.499829744
 30
0.0
 11
-28.312444896
 21
6.341031959
 31
0.0
  0
LINE
  5
55
330
1D
100
AcDbEntity
  8
SK1
100
AcDbLine
 10
-28.312444896
 20
6.341031959
 30
0.0
 11
-27.4232032
 21
7.086940316
 31
0.0
  0
LINE
  5
56
330
1D
100
AcDbEntity
  8
SK1
100
AcDbLine
 10
-27.4232032
 20
7.086940316
 30
0.0
 11
-26.46088621
 21
7.733136622
 31
0.0
  0
LINE
  5
57
330
1D
100
AcDbEntity
  8
SK1
100
AcDbLine
 10
-26.46088621
 20
7.733136622
 30
0.0
 11
-25.177449197
 21
8.40256896
 31
0.0
  0
LINE
  5
58
330
1D
100
AcDbEntity
  8
SK1
100
AcDbLine
 10
-25.177449197
 20
8.40256896
 30
0.0
 11
-23.81709984
 21
8.928679602
 31
0.0
  0
LINE
  5
59
330
1D
100
AcDbEntity
  8
SK1
100
AcDbLine
 10
-23.81709984
 20
8.928679602
 30
0.0
 11
-22.407651156
 21
9.312201032
 31
0.0
  0
LINE
  5
5A
330
1D
100
AcDbEntity
  8
SK1
100
AcDbLine
 10
-22.407651156
 20
9.312201032
 30
0.0
 11
-20.74047944
 21
9.582368397
 31
0.0
  0
LINE
  5
5B
330
1D
100
AcDbEntity
  8
SK1
100
AcDbLine
 10
-20.74047944
 20
9.582368397
 30
0.0
 11
-19.050002307
 21
9.672276416
 31
0.0
  0
ARC
  5
5C
330
1D
100
AcDbEntity
  8
SK1
100
AcDbCircle
 10
-17.043384586
 20
0.12586229
 30
0.0
 40
9.500742064
100
AcDbArc
 50
293.864115401
 51
357.430899711
  0
ARC
  5
5D
330
1D
100
AcDbEntity
  8
SK1
100
AcDbCircle
 10
-17.686008569
 20
1.928302025
 30
0.0
 40
11.409950201
100
AcDbArc
 50
278.553793964
 51
293.1534124470001
  0
ARC
  5
5E
330
1D
100
AcDbEntity
  8
SK1
100
AcDbCircle
 10
-17.625936274
 20
0.555370701
 30
0.0
 40
10.046901472
100
AcDbArc
 50
231.729875085
 51
239.976314875
  0
ARC
  5
5F
330
1D
100
AcDbEntity
  8
SK1
100
AcDbCircle
 10
-17.629275057
 20
0.549593277
 30
0.0
 40
10.040247852
100
AcDbArc
 50
239.976314875
 51
251.741880154
  0
ARC
  5
60
330
1D
100
AcDbEntity
  8
SK1
100
AcDbCircle
 10
-17.632000817
 20
0.541327081
 30
0.0
 40
10.031543843
100
AcDbArc
 50
251.741872984
 51
270.0
  0
ARC
  5
61
330
1D
100
AcDbEntity
  8
SK1
100
AcDbCircle
 10
-17.632000817
 20
0.541327081
 30
0.0
 40
10.031543843
100
AcDbArc
 50
270.0
 51
279.4270792730001
  0
LINE
  5
62
330
1D
100
AcDbEntity
  8
SK1
100
AcDbLine
 10
-23.848682851
 20
-7.332445848
 30
0.0
 11
-23.461654991
 21
-6.81398183
 31
0.0
  0
LINE
  5
63
330
1D
100
AcDbEntity
  8
SK1
100
AcDbLine
 10
-23.461654991
 20
-6.81398183
 30
0.0
 11
-22.582009644
 21
-5.634485538
 31
0.0
  0
ARC
  5
64
330
1D
100
AcDbEntity
  8
SK1
100
AcDbCircle
 10
-17.632000817
 20
-0.000001191
 30
0.0
 40
7.5
100
AcDbArc
 50
228.700041154
 51
357.707557224
  0
LINE
  5
65
330
1D
100
AcDbEntity
  8
SK1
100
AcDbLine
 10
-10.138001502
 20
-0.300001205
 30
0.0
 11
-7.552191824
 21
-0.300001205
 31
0.0
  0
LINE
  5
66
330
1D
100
AcDbEntity
  8
SK1
100
AcDbLine
 10
-43.700002343
 20
-0.300001205
 30
0.0
 11
-43.700002343
 21
-23.000001236
 31
0.0
  0
LINE
  5
67
330
1D
100
AcDbEntity
  8
SK1
100
AcDbLine
 10
-43.700002343
 20
-0.300001205
 30
0.0
 11
-31.047724396
 21
-0.300001205
 31
0.0
  0
LINE
  5
68
330
1D
100
AcDbEntity
  8
SK1
100
AcDbLine
 10
-19.050002307
 20
-9.672278798
 30
0.0
 11
-17.549999267
 21
-9.672278798
 31
0.0
  0
ARC
  5
69
330
1D
100
AcDbEntity
  8
SK1
100
AcDbCircle
 10
-17.489945823
 20
-0.82523777
 30
0.0
 40
8.847244846
100
AcDbArc
 50
269.611083976
 51
299.007676131
  0
LINE
  5
6A
330
1D
100
AcDbEntity
  8
SK1
100
AcDbLine
 10
-7.552191824
 20
-0.300001205
 30
0.0
 11
-4.300002218
 21
-0.300001205
 31
0.0
  0
LINE
  5
6B
330
1D
100
AcDbEntity
  8
SK1
100
AcDbLine
 10
-4.300002218
 20
0.299998823
 30
0.0
 11
-7.552191824
 21
0.299998823
 31
0.0
  0
ARC
  5
6C
330
1D
100
AcDbEntity
  8
SK1
100
AcDbCircle
 10
-17.084709488
 20
-0.154110121
 30
0.0
 40
9.543327928
100
AcDbArc
 50
2.727387641
 51
65.977597247
  0
ARC
  5
6D
330
1D
100
AcDbEntity
  8
SK1
100
AcDbCircle
 10
-17.489945823
 20
0.825235388
 30
0.0
 40
8.847244846
100
AcDbArc
 50
60.992323868
 51
90.38891602399998
  0
LINE
  5
6E
330
1D
100
AcDbEntity
  8
SK1
100
AcDbLine
 10
-19.050002307
 20
9.672276416
 30
0.0
 11
-17.549999267
 21
9.672276416
 31
0.0
  0
LINE
  5
6F
330
1D
100
AcDbEntity
  8
SK1
100
AcDbLine
 10
-31.047724396
 20
0.299998823
 30
0.0
 11
-43.700002343
 21
0.299998823
 31
0.0
  0
LINE
  5
70
330
1D
100
AcDbEntity
  8
SK1
100
AcDbLine
 10
-43.700002343
 20
22.999998854
 30
0.0
 11
-43.700002343
 21
0.299998823
 31
0.0
  0
ARC
  5
71
330
1D
100
AcDbEntity
  8
SK1
100
AcDbCircle
 10
-4.300000805
 20
-0.000001191
 30
0.0
 40
0.300000014
100
AcDbArc
 50
269.999730272
 51
90.00026972800002
  0
ARC
  5
72
330
1D
100
AcDbEntity
  8
SK1
100
AcDbCircle
 10
-17.632000817
 20
-0.000001191
 30
0.0
 40
7.5
100
AcDbArc
 50
2.292442776
 51
131.299958846
  0
LINE
  5
73
330
1D
100
AcDbEntity
  8
SK1
100
AcDbLine
 10
-23.848682851
 20
7.332443466
 30
0.0
 11
-23.461654991
 21
6.813979448
 31
0.0
  0
LINE
  5
74
330
1D
100
AcDbEntity
  8
SK1
100
AcDbLine
 10
-23.461654991
 20
6.813979448
 30
0.0
 11
-22.582009644
 21
5.634483156
 31
0.0
  0
ARC
  5
75
330
1D
100
AcDbEntity
  8
SK1
100
AcDbCircle
 10
-17.632000817
 20
-0.541329462
 30
0.0
 40
10.031535748
100
AcDbArc
 50
80.572920727
 51
90.0
  0
ARC
  5
76
330
1D
100
AcDbEntity
  8
SK1
100
AcDbCircle
 10
-17.632000817
 20
-0.541329462
 30
0.0
 40
10.031543843
100
AcDbArc
 50
90.0
 51
108.258127016
  0
ARC
  5
77
330
1D
100
AcDbEntity
  8
SK1
100
AcDbCircle
 10
-17.629275057
 20
-0.549595659
 30
0.0
 40
10.040247852
100
AcDbArc
 50
108.258119846
 51
120.023685125
  0
ARC
  5
78
330
1D
100
AcDbEntity
  8
SK1
100
AcDbCircle
 10
-17.625936274
 20
-0.555373083
 30
0.0
 40
10.04692064
100
AcDbArc
 50
120.023685125
 51
128.270124915
  0
ARC
  5
79
330
1D
100
AcDbEntity
  8
SK1
100
AcDbCircle
 10
-17.686008569
 20
-1.928304407
 30
0.0
 40
11.409950201
100
AcDbArc
 50
66.846587553
 51
81.446206036
  0
LINE
  5
7A
330
1D
100
AcDbEntity
  8
SK1
100
AcDbLine
 10
-7.552191824
 20
0.299998823
 30
0.0
 11
-10.138001502
 21
0.299998823
 31
0.0
  0
LINE
  5
7B
330
1D
100
AcDbEntity
  8
SK1
100
AcDbLine
 10
-45.699998945
 20
0.299998823
 30
0.0
 11
-43.700002343
 21
0.299998823
 31
0.0
  0
ARC
  5
7C
330
1D
100
AcDbEntity
  8
SK1
100
AcDbCircle
 10
-45.700000596
 20
-0.000001191
 30
0.0
 40
0.300000014
100
AcDbArc
 50
89.999684649
 51
270.000315351
  0
LINE
  5
7D
330
1D
100
AcDbEntity
  8
SK1
100
AcDbLine
 10
-46.305708796
 20
22.633789779
 30
0.0
 11
-46.305708796
 21
-22.633792161
 31
0.0
  0
LINE
  5
7E
330
1D
100
AcDbEntity
  8
SK1
100
AcDbLine
 10
-43.700002343
 20
-0.300001205
 30
0.0
 11
-45.699998945
 21
-0.300001205
 31
0.0
  0
ARC
  5
7F
330
1D
100
AcDbEntity
  8
SK1
100
AcDbCircle
 10
-21.369312877
 20
0.419305689
 30
0.0
 40
7.37289924
100
AcDbArc
 50
185.598734985
 51
206.196211846
  0
ARC
  5
80
330
1D
100
AcDbEntity
  8
SK1
100
AcDbCircle
 10
-21.380830005
 20
0.413573528
 30
0.0
 40
7.360029017
100
AcDbArc
 50
206.195750979
 51
224.9727332
  0
ARC
  5
81
330
1D
100
AcDbEntity
  8
SK1
100
AcDbCircle
 10
-21.386148497
 20
0.408260095
 30
0.0
 40
7.352511109
100
AcDbArc
 50
224.9727332
 51
225.927167129
  0
ARC
  5
82
330
1D
100
AcDbEntity
  8
SK1
100
AcDbCircle
 10
-19.036025304
 20
0.517411387
 30
0.0
 40
9.20791002
100
AcDbArc
 50
215.841217633
 51
224.9727332
  0
ARC
  5
83
330
1D
100
AcDbEntity
  8
SK1
100
AcDbCircle
 10
-19.042679132
 20
0.510763889
 30
0.0
 40
9.198535498
100
AcDbArc
 50
224.9727332
 51
238.501705538
  0
ARC
  5
84
330
1D
100
AcDbEntity
  8
SK1
100
AcDbCircle
 10
-17.549664497
 20
-2.377774393
 30
0.0
 40
7.149395974
100
AcDbArc
 50
269.997317124
 51
282.609490741
  0
LINE
  5
85
330
1D
100
AcDbEntity
  8
SK1
100
AcDbLine
 10
-19.050002307
 20
-9.527170359
 30
0.0
 11
-17.549999267
 21
-9.527170359
 31
0.0
  0
LINE
  5
86
330
1D
100
AcDbEntity
  8
SK1
100
AcDbLine
 10
-30.772291333
 20
-0.300001205
 30
0.0
 11
-28.707042545
 21
-0.300001205
 31
0.0
  0
ARC
  5
87
330
1D
100
AcDbEntity
  8
SK1
100
AcDbCircle
 10
-21.690499692
 20
0.019643838
 30
0.0
 40
3.893156647
100
AcDbArc
 50
184.709533356
 51
218.541075394
  0
LINE
  5
88
330
1D
100
AcDbEntity
  8
SK1
100
AcDbLine
 10
-24.4113805
 20
-3.207813509
 30
0.0
 11
-24.735577613
 21
-2.406086799
 31
0.0
  0
LINE
  5
89
330
1D
100
AcDbEntity
  8
SK1
100
AcDbLine
 10
-26.500351936
 20
-4.87419756
 30
0.0
 11
-25.882266671
 21
-4.383280667
 31
0.0
  0
LINE
  5
8A
330
1D
100
AcDbEntity
  8
SK1
100
AcDbLine
 10
-25.882266671
 20
-4.383280667
 30
0.0
 11
-24.4113805
 21
-3.207813509
 31
0.0
  0
LINE
  5
8B
330
1D
100
AcDbEntity
  8
SK1
100
AcDbLine
 10
-28.707042545
 20
-0.300001205
 30
0.0
 11
-25.570512027
 21
-0.300001205
 31
0.0
  0
ARC
  5
8C
330
1D
100
AcDbEntity
  8
SK1
100
AcDbCircle
 10
-21.386148497
 20
-0.408262476
 30
0.0
 40
7.352511591
100
AcDbArc
 50
134.072832871
 51
135.0272668
  0
ARC
  5
8D
330
1D
100
AcDbEntity
  8
SK1
100
AcDbCircle
 10
-21.380830005
 20
-0.413575909
 30
0.0
 40
7.360029017
100
AcDbArc
 50
135.0272668
 51
153.804249021
  0
ARC
  5
8E
330
1D
100
AcDbEntity
  8
SK1
100
AcDbCircle
 10
-21.369312877
 20
-0.419308071
 30
0.0
 40
7.372893635
100
AcDbArc
 50
153.803788154
 51
174.401265015
  0
LINE
  5
8F
330
1D
100
AcDbEntity
  8
SK1
100
AcDbLine
 10
-26.500351936
 20
4.874195178
 30
0.0
 11
-25.882266671
 21
4.383278285
 31
0.0
  0
LINE
  5
90
330
1D
100
AcDbEntity
  8
SK1
100
AcDbLine
 10
-25.882266671
 20
4.383278285
 30
0.0
 11
-24.4113805
 21
3.207811128
 31
0.0
  0
LINE
  5
91
330
1D
100
AcDbEntity
  8
SK1
100
AcDbLine
 10
-24.735577613
 20
2.406084418
 30
0.0
 11
-24.4113805
 21
3.207811128
 31
0.0
  0
ARC
  5
92
330
1D
100
AcDbEntity
  8
SK1
100
AcDbCircle
 10
-21.696154139
 20
-0.017404576
 30
0.0
 40
3.887337644
100
AcDbArc
 50
141.43283908
 51
175.31655217
  0
LINE
  5
93
330
1D
100
AcDbEntity
  8
SK1
100
AcDbLine
 10
-25.570512027
 20
0.299998823
 30
0.0
 11
-28.707042545
 21
0.299998823
 31
0.0
  0
LINE
  5
94
330
1D
100
AcDbEntity
  8
SK1
100
AcDbLine
 10
-19.050002307
 20
9.527167977
 30
0.0
 11
-17.549999267
 21
9.527167977
 31
0.0
  0
ARC
  5
95
330
1D
100
AcDbEntity
  8
SK1
100
AcDbCircle
 10
-17.549664497
 20
2.377772011
 30
0.0
 40
7.149395974
100
AcDbArc
 50
77.390509259
 51
90.002682876
  0
ARC
  5
96
330
1D
100
AcDbEntity
  8
SK1
100
AcDbCircle
 10
-19.042679132
 20
-0.510766271
 30
0.0
 40
9.19856588
100
AcDbArc
 50
121.498294462
 51
135.0272668
  0
ARC
  5
97
330
1D
100
AcDbEntity
  8
SK1
100
AcDbCircle
 10
-19.036025304
 20
-0.517413769
 30
0.0
 40
9.207940956
100
AcDbArc
 50
135.0272668
 51
144.158782367
  0
LINE
  5
98
330
1D
100
AcDbEntity
  8
SK1
100
AcDbLine
 10
-28.707042545
 20
0.299998823
 30
0.0
 11
-30.772291333
 21
0.299998823
 31
0.0
  0
LINE
  5
99
330
1D
100
AcDbEntity
  8
SK1
100
AcDbLine
 10
-49.699999601
 20
22.09999852
 30
0.0
 11
-49.699999601
 21
-22.100000902
 31
0.0
  0
ARC
  5
9A
330
1D
100
AcDbEntity
  8
SK1
100
AcDbCircle
 10
-17.631924079
 20
-0.000068831
 30
0.0
 40
7.500101545
100
AcDbArc
 50
131.300061364
 51
154.677584047
  0
ARC
  5
9B
330
1D
100
AcDbEntity
  8
SK1
100
AcDbCircle
 10
-17.631891328
 20
0.000091139
 30
0.0
 40
7.50014171
100
AcDbArc
 50
205.322479432
 51
228.699875157
  0
LINE
  5
9C
330
1D
100
AcDbEntity
  8
3
  6
DASH
370
    35
100
AcDbLine
 10
6.683885325
 20
11.05
 30
0.0
 11
7.775796028
 21
8.05
 31
0.0
  0
LINE
  5
9D
330
1D
100
AcDbEntity
  8
3
  6
DASH
370
    35
100
AcDbLine
 10
6.683885325
 20
11.05
 30
0.0
 11
6.683885325
 21
-11.05
 31
0.0
  0
LINE
  5
9E
330
1D
100
AcDbEntity
  8
3
  6
DASH
370
    35
100
AcDbLine
 10
7.775796028
 20
8.05
 30
0.0
 11
7.775796028
 21
-8.05
 31
0.0
  0
LINE
  5
9F
330
1D
100
AcDbEntity
  8
1
  6
Continuous
370
    50
100
AcDbLine
 10
0.5
 20
-45.0
 30
0.0
 11
15.900987172
 21
-45.0
 31
0.0
  0
LINE
  5
A0
330
1D
100
AcDbEntity
  8
1
  6
Continuous
370
    50
100
AcDbLine
 10
15.900987172
 20
45.0
 30
0.0
 11
0.5
 21
45.0
 31
0.0
  0
LINE
  5
A1
330
1D
100
AcDbEntity
  8
1
  6
Continuous
370
    50
100
AcDbLine
 10
15.900987172
 20
-45.0
 30
0.0
 11
16.375987172
 21
-44.525
 31
0.0
  0
LINE
  5
A2
330
1D
100
AcDbEntity
  8
1
  6
Continuous
370
    50
100
AcDbLine
 10
16.375987172
 20
44.525
 30
0.0
 11
15.900987172
 21
45.0
 31
0.0
  0
LINE
  5
A3
330
1D
100
AcDbEntity
  8
1
  6
Continuous
370
    50
100
AcDbLine
 10
0.5
 20
45.0
 30
0.0
 11
0.0
 21
44.5
 31
0.0
  0
LINE
  5
A4
330
1D
100
AcDbEntity
  8
1
  6
Continuous
370
    50
100
AcDbLine
 10
0.0
 20
-44.5
 30
0.0
 11
0.5
 21
-45.0
 31
0.0
  0
LINE
  5
A5
330
1D
100
AcDbEntity
  8
1
  6
Continuous
370
    50
100
AcDbLine
 10
16.375987172
 20
-44.525
 30
0.0
 11
20.0
 21
-31.0
 31
0.0
  0
LINE
  5
A6
330
1D
100
AcDbEntity
  8
1
  6
Continuous
370
    50
100
AcDbLine
 10
20.0
 20
31.0
 30
0.0
 11
16.375987172
 21
44.525
 31
0.0
  0
LINE
  5
A7
330
1D
100
AcDbEntity
  8
1
  6
Continuous
370
    50
100
AcDbLine
 10
16.375987172
 20
0.0
 30
0.0
 11
16.375987172
 21
-44.525
 31
0.0
  0
LINE
  5
A8
330
1D
100
AcDbEntity
  8
1
  6
Continuous
370
    50
100
AcDbLine
 10
16.375987172
 20
44.525
 30
0.0
 11
16.375987172
 21
0.0
 31
0.0
  0
LINE
  5
A9
330
1D
100
AcDbEntity
  8
1
  6
Continuous
370
    50
100
AcDbLine
 10
0.0
 20
0.0
 30
0.0
 11
0.0
 21
44.5
 31
0.0
  0
LINE
  5
AA
330
1D
100
AcDbEntity
  8
1
  6
Continuous
370
    50
100
AcDbLine
 10
0.0
 20
-44.5
 30
0.0
 11
0.0
 21
0.0
 31
0.0
  0
LINE
  5
AB
330
1D
100
AcDbEntity
  8
1
  6
Continuous
370
    50
100
AcDbLine
 10
20.0
 20
-31.0
 30
0.0
 11
20.0
 21
31.0
 31
0.0
  0
LINE
  5
AD
330
1D
100
AcDbEntity
  8
1
100
AcDbLine
 10
39.015014172
 20
2.284593182
 30
0.0
 11
39.28133145
 21
1.727485564
 31
0.0
  0
LINE
  5
AE
330
1D
100
AcDbEntity
  8
1
100
AcDbLine
 10
21.485441491
 20
18.0
 30
0.0
 11
21.485441491
 21
0.0
 31
0.0
  0
LINE
  5
AF
330
1D
100
AcDbEntity
  8
1
100
AcDbLine
 10
21.485441491
 20
0.0
 30
0.0
 11
21.485441491
 21
-18.0
 31
0.0
  0
LINE
  5
B0
330
1D
100
AcDbEntity
  8
1
100
AcDbLine
 10
57.187486792
 20
-17.69256878
 30
0.0
 11
57.187486792
 21
0.0
 31
0.0
  0
LINE
  5
B1
330
1D
100
AcDbEntity
  8
1
100
AcDbLine
 10
57.187486792
 20
0.0
 30
0.0
 11
57.187486792
 21
17.69256878
 31
0.0
  0
LINE
  5
B2
330
1D
100
AcDbEntity
  8
1
100
AcDbLine
 10
43.440965655
 20
-0.3
 30
0.0
 11
41.711299681
 21
-0.3
 31
0.0
  0
LINE
  5
B3
330
1D
100
AcDbEntity
  8
1
100
AcDbLine
 10
41.711299681
 20
0.3
 30
0.0
 11
43.440965655
 21
0.3
 31
0.0
  0
ARC
  5
B5
330
1D
100
AcDbEntity
  8
1
100
AcDbCircle
 10
20.3
 20
-18.2
 30
0.0
 40
0.5
100
AcDbArc
 50
75.000000007
 51
126.869897646
  0
LINE
  5
B6
330
1D
100
AcDbEntity
  8
1
100
AcDbLine
 10
20.429409523
 20
-17.717037087
 30
0.0
 11
21.485441491
 21
-18.0
 31
0.0
  0
LINE
  5
B7
330
1D
100
AcDbEntity
  8
1
100
AcDbLine
 10
21.485441491
 20
-18.0
 30
0.0
 11
55.0
 21
-18.0
 31
0.0
  0
LINE
  5
B8
330
1D
100
AcDbEntity
  8
1
100
AcDbLine
 10
55.0
 20
-18.0
 30
0.0
 11
55.0
 21
-0.3
 31
0.0
  0
LINE
  5
B9
330
1D
100
AcDbEntity
  8
1
100
AcDbLine
 10
55.0
 20
-0.3
 30
0.0
 11
43.521754999
 21
-0.3
 31
0.0
  0
ARC
  5
BA
330
1D
100
AcDbEntity
  8
1
100
AcDbCircle
 10
37.151652464
 20
0.57725313
 30
0.0
 40
6.430223897
100
AcDbArc
 50
265.078513719
 51
352.1588827360001
  0
LINE
  5
BB
330
1D
100
AcDbEntity
  8
1
100
AcDbLine
 10
36.6
 20
-5.829263781
 30
0.0
 11
35.1
 21
-5.829263781
 31
0.0
  0
ARC
  5
BC
330
1D
100
AcDbEntity
  8
1
100
AcDbCircle
 10
35.047336204
 20
-0.658307434
 30
0.0
 40
5.171224517
100
AcDbArc
 50
233.922700164
 51
270.583510813
  0
ARC
  5
BD
330
1D
100
AcDbEntity
  8
1
100
AcDbCircle
 10
34.88345284
 20
0.070555419
 30
0.0
 40
5.691582669
100
AcDbArc
 50
183.732931693
 51
239.586055938
  0
LINE
  5
BE
330
1D
100
AcDbEntity
  8
1
100
AcDbLine
 10
29.203945646
 20
-0.3
 30
0.0
 11
22.3
 21
-0.3
 31
0.0
  0
ARC
  5
BF
330
1D
100
AcDbEntity
  8
1
100
AcDbCircle
 10
22.3
 20
0.0
 30
0.0
 40
0.3
100
AcDbArc
 50
90.0
 51
270.0
  0
LINE
  5
C0
330
1D
100
AcDbEntity
  8
1
100
AcDbLine
 10
22.3
 20
0.3
 30
0.0
 11
29.203945646
 21
0.3
 31
0.0
  0
ARC
  5
C1
330
1D
100
AcDbEntity
  8
1
100
AcDbCircle
 10
34.860525508
 20
-0.056417592
 30
0.0
 40
5.667797565
100
AcDbArc
 50
120.286417602
 51
176.394594766
  0
ARC
  5
C2
330
1D
100
AcDbEntity
  8
1
100
AcDbCircle
 10
35.047336204
 20
0.658307434
 30
0.0
 40
5.171224518
100
AcDbArc
 50
89.416489187
 51
126.077299837
  0
LINE
  5
C3
330
1D
100
AcDbEntity
  8
1
100
AcDbLine
 10
35.1
 20
5.829263781
 30
0.0
 11
36.6
 21
5.829263781
 31
0.0
  0
ARC
  5
C4
330
1D
100
AcDbEntity
  8
1
100
AcDbCircle
 10
37.151557139
 20
-0.577372461
 30
0.0
 40
6.430334611
100
AcDbArc
 50
7.842054718
 51
94.920548827
  0
LINE
  5
C5
330
1D
100
AcDbEntity
  8
1
100
AcDbLine
 10
43.521754999
 20
0.3
 30
0.0
 11
55.0
 21
0.3
 31
0.0
  0
LINE
  5
C6
330
1D
100
AcDbEntity
  8
1
100
AcDbLine
 10
55.0
 20
0.3
 30
0.0
 11
55.0
 21
18.0
 31
0.0
  0
LINE
  5
C7
330
1D
100
AcDbEntity
  8
1
100
AcDbLine
 10
55.0
 20
18.0
 30
0.0
 11
21.485441491
 21
18.0
 31
0.0
  0
LINE
  5
C8
330
1D
100
AcDbEntity
  8
1
100
AcDbLine
 10
21.485441491
 20
18.0
 30
0.0
 11
20.429409523
 21
17.717037087
 31
0.0
  0
ARC
  5
C9
330
1D
100
AcDbEntity
  8
1
100
AcDbCircle
 10
20.3
 20
18.2
 30
0.0
 40
0.5
100
AcDbArc
 50
233.130102354
 51
285.0
  0
LINE
  5
CA
330
1D
100
AcDbEntity
  8
1
100
AcDbLine
 10
43.521754999
 20
-0.3
 30
0.0
 11
43.440965655
 21
-0.3
 31
0.0
  0
ARC
  5
CB
330
1D
100
AcDbEntity
  8
1
100
AcDbCircle
 10
36.641999821
 20
1.23809184
 30
0.0
 40
6.970772046
100
AcDbArc
 50
269.654783283
 51
347.252862467
  0
LINE
  5
CC
330
1D
100
AcDbEntity
  8
1
100
AcDbLine
 10
36.6
 20
-5.732553678
 30
0.0
 11
35.1
 21
-5.732553678
 31
0.0
  0
ARC
  5
CD
330
1D
100
AcDbEntity
  8
1
100
AcDbCircle
 10
35.099291231
 20
-1.171761728
 30
0.0
 40
4.560792005
100
AcDbArc
 50
248.647977804
 51
270.008904033
  0
ARC
  5
CE
330
1D
100
AcDbEntity
  8
1
100
AcDbCircle
 10
35.172084659
 20
0.926146828
 30
0.0
 40
6.578134752
100
AcDbArc
 50
241.190866519
 51
254.721926476
  0
LINE
  5
CF
330
1D
100
AcDbEntity
  8
1
100
AcDbLine
 10
29.203945646
 20
0.3
 30
0.0
 11
30.648921256
 21
0.3
 31
0.0
  0
ARC
  5
D0
330
1D
100
AcDbEntity
  8
1
100
AcDbCircle
 10
35.13891012
 20
0.0
 30
0.0
 40
4.5
100
AcDbArc
 50
48.08605360399999
 51
176.177446271
  0
LINE
  5
D1
330
1D
100
AcDbEntity
  8
1
100
AcDbLine
 10
38.14497181
 20
3.34867035
 30
0.0
 11
38.892400557
 21
4.329510743
 31
0.0
  0
ARC
  5
D2
330
1D
100
AcDbEntity
  8
1
100
AcDbCircle
 10
35.13891012
 20
-0.281083258
 30
0.0
 40
5.945272702
100
AcDbArc
 50
50.85092088599999
 51
106.607109945
  0
ARC
  5
D3
330
1D
100
AcDbEntity
  8
1
100
AcDbCircle
 10
35.172084659
 20
-0.926146828
 30
0.0
 40
6.578134752
100
AcDbArc
 50
105.278073524
 51
118.80913348
  0
ARC
  5
D4
330
1D
100
AcDbEntity
  8
1
100
AcDbCircle
 10
35.13891012
 20
0.281083258
 30
0.0
 40
5.943171302
100
AcDbArc
 50
253.357788598
 51
309.086403278
  0
LINE
  5
D5
330
1D
100
AcDbEntity
  8
1
100
AcDbLine
 10
38.888208856
 20
-4.334665369
 30
0.0
 11
38.14497181
 21
-3.34867035
 31
0.0
  0
ARC
  5
D6
330
1D
100
AcDbEntity
  8
1
100
AcDbCircle
 10
35.13891012
 20
0.0
 30
0.0
 40
4.5
100
AcDbArc
 50
183.822553729
 51
311.913946397
  0
LINE
  5
D7
330
1D
100
AcDbEntity
  8
1
100
AcDbLine
 10
30.648921256
 20
-0.3
 30
0.0
 11
29.203945646
 21
-0.3
 31
0.0
  0
LINE
  5
D8
330
1D
100
AcDbEntity
  8
1
100
AcDbLine
 10
55.0
 20
18.0
 30
0.0
 11
57.187486792
 21
17.69256878
 31
0.0
  0
LINE
  5
D9
330
1D
100
AcDbEntity
  8
1
100
AcDbLine
 10
57.187486792
 20
17.69256878
 30
0.0
 11
58.844856365
 21
17.984807753
 31
0.0
  0
ARC
  5
DA
330
1D
100
AcDbEntity
  8
1
100
AcDbCircle
 10
59.018504542
 20
17.0
 30
0.0
 40
1.0
100
AcDbArc
 50
47.03938581100002
 51
100.0
  0
LINE
  5
DB
330
1D
100
AcDbEntity
  8
1
100
AcDbLine
 10
59.7
 20
17.731822343
 30
0.0
 11
59.7
 21
-17.731822343
 31
0.0
  0
ARC
  5
DC
330
1D
100
AcDbEntity
  8
1
100
AcDbCircle
 10
59.018504542
 20
-17.0
 30
0.0
 40
1.0
100
AcDbArc
 50
259.999999998
 51
312.960614191
  0
LINE
  5
DD
330
1D
100
AcDbEntity
  8
1
100
AcDbLine
 10
58.844856365
 20
-17.984807753
 30
0.0
 11
57.187486792
 21
-17.69256878
 31
0.0
  0
LINE
  5
DE
330
1D
100
AcDbEntity
  8
1
100
AcDbLine
 10
57.187486792
 20
-17.69256878
 30
0.0
 11
55.0
 21
-18.0
 31
0.0
  0
ARC
  5
DF
330
1D
100
AcDbEntity
  8
1
100
AcDbCircle
 10
35.099291231
 20
1.171761728
 30
0.0
 40
4.560792005
100
AcDbArc
 50
89.991095967
 51
111.352022196
  0
LINE
  5
E0
330
1D
100
AcDbEntity
  8
1
100
AcDbLine
 10
35.1
 20
5.732553678
 30
0.0
 11
36.6
 21
5.732553678
 31
0.0
  0
ARC
  5
E1
330
1D
100
AcDbEntity
  8
1
100
AcDbCircle
 10
36.641999821
 20
-1.23809184
 30
0.0
 40
6.970772046
100
AcDbArc
 50
12.747137533
 51
90.34521671600001
  0
LINE
  5
E2
330
1D
100
AcDbEntity
  8
1
100
AcDbLine
 10
43.440965655
 20
0.3
 30
0.0
 11
43.521754999
 21
0.3
 31
0.0
  0
LINE
  5
E3
330
1D
100
AcDbEntity
  8
1
100
AcDbLine
 10
55.0
 20
0.3
 30
0.0
 11
55.7
 21
0.3
 31
0.0
  0
ARC
  5
E4
330
1D
100
AcDbEntity
  8
1
100
AcDbCircle
 10
55.7
 20
0.0
 30
0.0
 40
0.3
100
AcDbArc
 50
270.0
 51
90.0
  0
LINE
  5
E5
330
1D
100
AcDbEntity
  8
1
100
AcDbLine
 10
55.7
 20
-0.3
 30
0.0
 11
55.0
 21
-0.3
 31
0.0
  0
ARC
  5
E6
330
1D
100
AcDbEntity
  8
1
100
AcDbCircle
 10
35.153856592
 20
-0.003854529
 30
0.0
 40
4.484830716
100
AcDbArc
 50
334.8644315600001
 51
356.213850234
  0
LINE
  5
E7
330
1D
100
AcDbEntity
  8
1
100
AcDbLine
 10
39.213997552
 20
-1.908837977
 30
0.0
 11
40.435609064
 21
-2.886607276
 31
0.0
  0
ARC
  5
E8
330
1D
100
AcDbEntity
  8
1
100
AcDbCircle
 10
37.43781368
 20
0.203528891
 30
0.0
 40
4.305312845
100
AcDbArc
 50
314.131013314
 51
353.280035856
  0
LINE
  5
E9
330
1D
100
AcDbEntity
  8
1
100
AcDbLine
 10
41.711299681
 20
-0.3
 30
0.0
 11
39.628898984
 21
-0.3
 31
0.0
  0
ARC
  5
EA
330
1D
100
AcDbEntity
  8
1
100
AcDbCircle
 10
36.05
 20
0.255039452
 30
0.0
 40
5.395994918
100
AcDbArc
 50
301.789368174
 51
324.394036889
  0
ARC
  5
EB
330
1D
100
AcDbEntity
  8
1
100
AcDbCircle
 10
35.13891012
 20
0.0
 30
0.0
 40
4.5
100
AcDbArc
 50
25.099164477
 51
48.086053603
  0
LINE
  5
EC
330
1D
100
AcDbEntity
  8
1
100
AcDbLine
 10
39.213997552
 20
1.908837977
 30
0.0
 11
39.604464526
 21
2.224863887
 31
0.0
  0
LINE
  5
ED
330
1D
100
AcDbEntity
  8
1
100
AcDbLine
 10
39.604464526
 20
2.224863887
 30
0.0
 11
40.435609064
 21
2.886607276
 31
0.0
  0
ARC
  5
EE
330
1D
100
AcDbEntity
  8
1
100
AcDbCircle
 10
37.43781368
 20
-0.203528891
 30
0.0
 40
4.305312845
100
AcDbArc
 50
6.719964143000001
 51
45.86898668600001
  0
LINE
  5
EF
330
1D
100
AcDbEntity
  8
1
100
AcDbLine
 10
41.711299681
 20
0.3
 30
0.0
 11
39.628898984
 21
0.3
 31
0.0
  0
ARC
  5
F0
330
1D
100
AcDbEntity
  8
1
100
AcDbCircle
 10
35.13891012
 20
0.0
 30
0.0
 40
4.5
100
AcDbArc
 50
3.822553729
 51
25.099164476
  0
ARC
  5
F1
330
1D
100
AcDbEntity
  8
1
100
AcDbCircle
 10
36.05
 20
-0.255039452
 30
0.0
 40
5.393683215
100
AcDbArc
 50
35.605963111
 51
58.21063182599998
  0
ARC
  5
F2
330
1D
100
AcDbEntity
  8
1
100
AcDbCircle
 10
35.13891012
 20
0.0
 30
0.0
 40
4.5
100
AcDbArc
 50
311.913946397
 51
334.900835523
  0
LINE
  5
F3
330
1D
100
AcDbEntity
  8
3
  6
DASH
370
    35
100
AcDbLine
 10
7.775796028
 20
-8.05
 30
0.0
 11
59.7
 21
-8.05
 31
0.0
  0
LINE
  5
F4
330
1D
100
AcDbEntity
  8
3
  6
DASH
370
    35
100
AcDbLine
 10
59.7
 20
8.05
 30
0.0
 11
7.775796028
 21
8.05
 31
0.0
  0
LINE
  5
F5
330
1D
100
AcDbEntity
  8
2
  6
Continuous
370
    25
100
AcDbLine
 10
71.982470512
 20
-18.0
 30
0.0
 11
55.0
 21
-18.0
 31
0.0
  0
LINE
  5
F6
330
1D
100
AcDbEntity
  8
2
  6
Continuous
370
    25
100
AcDbLine
 10
69.982470512
 20
-18.0
 30
0.0
 11
69.532470512
 21
-14.5
 31
0.0
  0
LINE
  5
F7
330
1D
100
AcDbEntity
  8
2
  6
Continuous
370
    25
100
AcDbLine
 10
69.532470512
 20
-14.5
 30
0.0
 11
70.432470512
 21
-14.5
 31
0.0
  0
LINE
  5
F8
330
1D
100
AcDbEntity
  8
2
  6
Continuous
370
    25
100
AcDbLine
 10
70.432470512
 20
-14.5
 30
0.0
 11
69.982470512
 21
-18.0
 31
0.0
  0
LINE
  5
F9
330
1D
100
AcDbEntity
  8
2
  6
Continuous
370
    25
100
AcDbLine
 10
71.982470512
 20
18.0
 30
0.0
 11
55.0
 21
18.0
 31
0.0
  0
LINE
  5
FA
330
1D
100
AcDbEntity
  8
2
  6
Continuous
370
    25
100
AcDbLine
 10
69.982470512
 20
18.0
 30
0.0
 11
70.432470512
 21
14.5
 31
0.0
  0
LINE
  5
FB
330
1D
100
AcDbEntity
  8
2
  6
Continuous
370
    25
100
AcDbLine
 10
70.432470512
 20
14.5
 30
0.0
 11
69.532470512
 21
14.5
 31
0.0
  0
LINE
  5
FC
330
1D
100
AcDbEntity
  8
2
  6
Continuous
370
    25
100
AcDbLine
 10
69.532470512
 20
14.5
 30
0.0
 11
69.982470512
 21
18.0
 31
0.0
  0
LINE
  5
FD
330
1D
100
AcDbEntity
  8
2
  6
Continuous
370
    25
100
AcDbLine
 10
69.982470512
 20
-14.5
 30
0.0
 11
69.982470512
 21
14.5
 31
0.0
  0
TEXT
  5
FE
330
1D
100
AcDbEntity
  8
2
  6
Continuous
370
    25
100
AcDbText
 10
68.482470512
 20
0.331405848
 30
0.0
 40
3.5
  1
36
 50
90.0
  7
BMG_Text
100
AcDbText
  0
CIRCLE
  5
FF
330
1D
100
AcDbEntity
  8
2
  6
Continuous
370
    25
100
AcDbCircle
 10
67.232470512
 20
-1.918594152
 30
0.0
 40
1.25
  0
LINE
  5
100
330
1D
100
AcDbEntity
  8
2
  6
Continuous
370
    25
100
AcDbLine
 10
68.482470512
 20
-3.168594152
 30
0.0
 11
65.982470512
 21
-0.668594152
 31
0.0
  0
LINE
  5
101
330
1D
100
AcDbEntity
  8
2
  6
Continuous
370
    25
100
AcDbLine
 10
0.0
 20
-55.655906677
 30
0.0
 11
0.0
 21
-31.25
 31
0.0
  0
LINE
  5
102
330
1D
100
AcDbEntity
  8
2
  6
Continuous
370
    25
100
AcDbLine
 10
0.0
 20
-53.655906677
 30
0.0
 11
3.5
 21
-53.205906677
 31
0.0
  0
LINE
  5
103
330
1D
100
AcDbEntity
  8
2
  6
Continuous
370
    25
100
AcDbLine
 10
3.5
 20
-53.205906677
 30
0.0
 11
3.5
 21
-54.105906677
 31
0.0
  0
LINE
  5
104
330
1D
100
AcDbEntity
  8
2
  6
Continuous
370
    25
100
AcDbLine
 10
3.5
 20
-54.105906677
 30
0.0
 11
0.0
 21
-53.655906677
 31
0.0
  0
LINE
  5
105
330
1D
100
AcDbEntity
  8
2
  6
Continuous
370
    25
100
AcDbLine
 10
20.0
 20
-55.655906677
 30
0.0
 11
20.0
 21
-31.25
 31
0.0
  0
LINE
  5
106
330
1D
100
AcDbEntity
  8
2
  6
Continuous
370
    25
100
AcDbLine
 10
20.0
 20
-53.655906677
 30
0.0
 11
16.5
 21
-54.105906677
 31
0.0
  0
LINE
  5
107
330
1D
100
AcDbEntity
  8
2
  6
Continuous
370
    25
100
AcDbLine
 10
16.5
 20
-54.105906677
 30
0.0
 11
16.5
 21
-53.205906677
 31
0.0
  0
LINE
  5
108
330
1D
100
AcDbEntity
  8
2
  6
Continuous
370
    25
100
AcDbLine
 10
16.5
 20
-53.205906677
 30
0.0
 11
20.0
 21
-53.655906677
 31
0.0
  0
LINE
  5
109
330
1D
100
AcDbEntity
  8
2
  6
Continuous
370
    25
100
AcDbLine
 10
3.5
 20
-53.655906677
 30
0.0
 11
16.5
 21
-53.655906677
 31
0.0
  0
TEXT
  5
10A
330
1D
100
AcDbEntity
  8
2
  6
Continuous
370
    25
100
AcDbText
 10
8.335312276
 20
-52.155906677
 30
0.0
 40
3.5
  1
20
  7
BMG_Text
100
AcDbText
  0
LINE
  5
10B
330
1D
100
AcDbEntity
  8
SK4
100
AcDbLine
 10
35.13891012
 20
-6.969964469
 30
0.0
 11
35.13891012
 21
6.956769214
 31
0.0
  0
LINE
  5
10C
330
1D
100
AcDbEntity
  8
2
  6
Continuous
370
    25
100
AcDbLine
 10
81.744422913
 20
-31.0
 30
0.0
 11
20.0
 21
-31.0
 31
0.0
  0
LINE
  5
10D
330
1D
100
AcDbEntity
  8
2
  6
Continuous
370
    25
100
AcDbLine
 10
79.744422913
 20
-31.0
 30
0.0
 11
79.294422913
 21
-27.5
 31
0.0
  0
LINE
  5
10E
330
1D
100
AcDbEntity
  8
2
  6
Continuous
370
    25
100
AcDbLine
 10
79.294422913
 20
-27.5
 30
0.0
 11
80.194422913
 21
-27.5
 31
0.0
  0
LINE
  5
10F
330
1D
100
AcDbEntity
  8
2
  6
Continuous
370
    25
100
AcDbLine
 10
80.194422913
 20
-27.5
 30
0.0
 11
79.744422913
 21
-31.0
 31
0.0
  0
LINE
  5
110
330
1D
100
AcDbEntity
  8
2
  6
Continuous
370
    25
100
AcDbLine
 10
81.744422913
 20
31.0
 30
0.0
 11
20.0
 21
31.0
 31
0.0
  0
LINE
  5
111
330
1D
100
AcDbEntity
  8
2
  6
Continuous
370
    25
100
AcDbLine
 10
79.744422913
 20
31.0
 30
0.0
 11
80.194422913
 21
27.5
 31
0.0
  0
LINE
  5
112
330
1D
100
AcDbEntity
  8
2
  6
Continuous
370
    25
100
AcDbLine
 10
80.194422913
 20
27.5
 30
0.0
 11
79.294422913
 21
27.5
 31
0.0
  0
LINE
  5
113
330
1D
100
AcDbEntity
  8
2
  6
Continuous
370
    25
100
AcDbLine
 10
79.294422913
 20
27.5
 30
0.0
 11
79.744422913
 21
31.0
 31
0.0
  0
LINE
  5
114
330
1D
100
AcDbEntity
  8
2
  6
Continuous
370
    25
100
AcDbLine
 10
79.744422913
 20
-27.5
 30
0.0
 11
79.744422913
 21
27.5
 31
0.0
  0
TEXT
  5
115
330
1D
100
AcDbEntity
  8
2
  6
Continuous
370
    25
100
AcDbText
 10
78.244422913
 20
0.139999307
 30
0.0
 40
3.5
  1
62
 50
90.0
  7
BMG_Text
100
AcDbText
  0
CIRCLE
  5
116
330
1D
100
AcDbEntity
  8
2
  6
Continuous
370
    25
100
AcDbCircle
 10
76.994422913
 20
-2.110000693
 30
0.0
 40
1.25
  0
LINE
  5
117
330
1D
100
AcDbEntity
  8
2
  6
Continuous
370
    25
100
AcDbLine
 10
78.244422913
 20
-3.360000693
 30
0.0
 11
75.744422913
 21
-0.860000693
 31
0.0
  0
LINE
  5
118
330
1D
100
AcDbEntity
  8
SK2
100
AcDbLine
 10
-62.078938365
 20
-23.0
 30
0.0
 11
-43.700011134
 21
-23.0
 31
0.0
  0
LINE
  5
119
330
1D
100
AcDbEntity
  8
SK2
100
AcDbLine
 10
-60.078938365
 20
-23.0
 30
0.0
 11
-60.528938422
 21
-19.500000007
 31
0.0
  0
LINE
  5
11A
330
1D
100
AcDbEntity
  8
SK2
100
AcDbLine
 10
-60.528938422
 20
-19.500000007
 30
0.0
 11
-59.628938422
 21
-19.499999993
 31
0.0
  0
LINE
  5
11B
330
1D
100
AcDbEntity
  8
SK2
100
AcDbLine
 10
-59.628938422
 20
-19.499999993
 30
0.0
 11
-60.078938365
 21
-23.0
 31
0.0
  0
LINE
  5
11C
330
1D
100
AcDbEntity
  8
SK2
100
AcDbLine
 10
-62.07893911
 20
23.0
 30
0.0
 11
-43.700002343
 21
23.0
 31
0.0
  0
LINE
  5
11D
330
1D
100
AcDbEntity
  8
SK2
100
AcDbLine
 10
-60.07893911
 20
23.0
 30
0.0
 11
-59.628939054
 21
19.500000007
 31
0.0
  0
LINE
  5
11E
330
1D
100
AcDbEntity
  8
SK2
100
AcDbLine
 10
-59.628939054
 20
19.500000007
 30
0.0
 11
-60.528939054
 21
19.499999993
 31
0.0
  0
LINE
  5
11F
330
1D
100
AcDbEntity
  8
SK2
100
AcDbLine
 10
-60.528939054
 20
19.499999993
 30
0.0
 11
-60.07893911
 21
23.0
 31
0.0
  0
LINE
  5
120
330
1D
100
AcDbEntity
  8
SK2
100
AcDbLine
 10
-60.078938422
 20
-19.5
 30
0.0
 11
-60.078939054
 21
19.5
 31
0.0
  0
TEXT
  5
121
330
1D
100
AcDbEntity
  8
SK2
100
AcDbText
 10
-61.57893874
 20
0.139999462
 30
0.0
 40
3.5
  1
46
 50
90.00000092799999
  7
BMG_Text
100
AcDbText
  0
CIRCLE
  5
122
330
1D
100
AcDbEntity
  8
SK2
100
AcDbCircle
 10
-62.828938704
 20
-2.110000559
 30
0.0
 40
1.25
  0
LINE
  5
123
330
1D
100
AcDbEntity
  8
SK2
100
AcDbLine
 10
-61.578938683
 20
-3.360000538
 30
0.0
 11
-64.078938724
 21
-0.860000579
 31
0.0
  0
LINE
  5
124
330
1D
100
AcDbEntity
  8
2
  6
Continuous
370
    25
100
AcDbLine
 10
-70.42527771
 20
-45.0
 30
0.0
 11
0.5
 21
-45.0
 31
0.0
  0
LINE
  5
125
330
1D
100
AcDbEntity
  8
2
  6
Continuous
370
    25
100
AcDbLine
 10
-68.42527771
 20
-45.0
 30
0.0
 11
-68.87527771
 21
-41.5
 31
0.0
  0
LINE
  5
126
330
1D
100
AcDbEntity
  8
2
  6
Continuous
370
    25
100
AcDbLine
 10
-68.87527771
 20
-41.5
 30
0.0
 11
-67.97527771
 21
-41.5
 31
0.0
  0
LINE
  5
127
330
1D
100
AcDbEntity
  8
2
  6
Continuous
370
    25
100
AcDbLine
 10
-67.97527771
 20
-41.5
 30
0.0
 11
-68.42527771
 21
-45.0
 31
0.0
  0
LINE
  5
128
330
1D
100
AcDbEntity
  8
2
  6
Continuous
370
    25
100
AcDbLine
 10
-70.42527771
 20
45.0
 30
0.0
 11
0.5
 21
45.0
 31
0.0
  0
LINE
  5
129
330
1D
100
AcDbEntity
  8
2
  6
Continuous
370
    25
100
AcDbLine
 10
-68.42527771
 20
45.0
 30
0.0
 11
-67.97527771
 21
41.5
 31
0.0
  0
LINE
  5
12A
330
1D
100
AcDbEntity
  8
2
  6
Continuous
370
    25
100
AcDbLine
 10
-67.97527771
 20
41.5
 30
0.0
 11
-68.87527771
 21
41.5
 31
0.0
  0
LINE
  5
12B
330
1D
100
AcDbEntity
  8
2
  6
Continuous
370
    25
100
AcDbLine
 10
-68.87527771
 20
41.5
 30
0.0
 11
-68.42527771
 21
45.0
 31
0.0
  0
LINE
  5
12C
330
1D
100
AcDbEntity
  8
2
  6
Continuous
370
    25
100
AcDbLine
 10
-68.42527771
 20
-41.5
 30
0.0
 11
-68.42527771
 21
41.5
 31
0.0
  0
TEXT
  5
12D
330
1D
100
AcDbEntity
  8
2
  6
Continuous
370
    25
100
AcDbText
 10
-69.92527771
 20
0.139998994
 30
0.0
 40
3.5
  1
90
 50
90.0
  7
BMG_Text
100
AcDbText
  0
CIRCLE
  5
12E
330
1D
100
AcDbEntity
  8
2
  6
Continuous
370
    25
100
AcDbCircle
 10
-71.17527771
 20
-2.110001006
 30
0.0
 40
1.25
  0
LINE
  5
12F
330
1D
100
AcDbEntity
  8
2
  6
Continuous
370
    25
100
AcDbLine
 10
-69.92527771
 20
-3.360001006
 30
0.0
 11
-72.42527771
 21
-0.860001006
 31
0.0
  0
LWPOLYLINE
  5
1DD
330
1D
100
AcDbEntity
  8
INFTOTAL
  6
ByBlock
100
AcDbPolyline
 90
        4
 70
     1
 43
0.0
 10
-107.0564309021715
 20
72.56294466136399
 10
-107.0564309021715
 20
-76.30348177098307
 10
137.9649635759715
 20
-76.30348177098307
 10
137.9649635759715
 20
72.56294466136399
  0
LINE
  5
1E6
330
1D
100
AcDbEntity
  8
SK1
100
AcDbLine
 10
0.0000000000000001
 20
22.46698729810778
 30
0.0
 11
0.0000000000000001
 21
-22.46698729810778
 31
0.0
  0
LINE
  5
1EC
330
1D
100
AcDbEntity
  8
3
100
AcDbLine
 10
6.683885325
 20
-11.05
 30
0.0
 11
0.0
 21
-11.05
 31
0.0
  0
LINE
  5
1ED
330
1D
100
AcDbEntity
  8
3
100
AcDbLine
 10
6.683885325
 20
11.05
 30
0.0
 11
0.0000000000000009
 21
11.05
 31
0.0
  0
LINE
  5
1FA
330
1D
100
AcDbEntity
  8
4
100
AcDbLine
 10
61.865870937
 20
0.0
 30
0.0
 11
0.0
 21
0.0
 31
0.0
  0
LINE
  5
1FB
330
1D
100
AcDbEntity
  8
4
100
AcDbLine
 10
35.13891012
 20
6.956769214
 30
0.0
 11
35.13891012
 21
-6.969964469
 31
0.0
  0
LINE
  5
260
330
1D
100
AcDbEntity
  8
NOCUT
100
AcDbLine
 10
59.7
 20
0.0
 30
0.0
 11
0.0
 21
0.0
 31
0.0
  0
LINE
  5
261
330
1D
100
AcDbEntity
  8
NOCUT
100
AcDbLine
 10
0.0
 20
0.0
 30
0.0
 11
0.0
 21
44.5
 31
0.0
  0
LINE
  5
262
330
1D
100
AcDbEntity
  8
NOCUT
100
AcDbLine
 10
0.0
 20
44.5
 30
0.0
 11
0.5
 21
45.0
 31
0.0
  0
LINE
  5
263
330
1D
100
AcDbEntity
  8
NOCUT
100
AcDbLine
 10
0.5
 20
45.0
 30
0.0
 11
15.900987172
 21
45.0
 31
0.0
  0
LINE
  5
264
330
1D
100
AcDbEntity
  8
NOCUT
100
AcDbLine
 10
15.900987172
 20
45.0
 30
0.0
 11
16.375987172
 21
44.525
 31
0.0
  0
LINE
  5
265
330
1D
100
AcDbEntity
  8
NOCUT
100
AcDbLine
 10
16.375987172
 20
44.525
 30
0.0
 11
20.0
 21
31.0
 31
0.0
  0
LINE
  5
266
330
1D
100
AcDbEntity
  8
NOCUT
100
AcDbLine
 10
20.0
 20
31.0
 30
0.0
 11
19.99999999999891
 21
17.80000000000081
 31
0.0
  0
LINE
  5
267
330
1D
100
AcDbEntity
  8
NOCUT
100
AcDbLine
 10
21.485441491
 20
18.0
 30
0.0
 11
20.429409523
 21
17.717037087
 31
0.0
  0
ARC
  5
268
330
1D
100
AcDbEntity
  8
NOCUT
100
AcDbCircle
 10
20.3
 20
18.2
 30
0.0
 40
0.5
100
AcDbArc
 50
233.1301023540002
 51
285.0
  0
LINE
  5
26A
330
1D
100
AcDbEntity
  8
NOCUT
100
AcDbLine
 10
21.485441491
 20
18.0
 30
0.0
 11
55.0
 21
18.0
 31
0.0
  0
LINE
  5
26B
330
1D
100
AcDbEntity
  8
NOCUT
100
AcDbLine
 10
55.0
 20
18.0
 30
0.0
 11
57.187486792
 21
17.69256878
 31
0.0
  0
LINE
  5
26C
330
1D
100
AcDbEntity
  8
NOCUT
100
AcDbLine
 10
57.187486792
 20
17.69256878
 30
0.0
 11
58.844856365
 21
17.984807753
 31
0.0
  0
ARC
  5
26D
330
1D
100
AcDbEntity
  8
NOCUT
100
AcDbCircle
 10
59.018504542
 20
17.0
 30
0.0
 40
1.0
100
AcDbArc
 50
47.03938581099992
 51
100.0000000000002
  0
LINE
  5
26F
330
1D
100
AcDbEntity
  8
NOCUT
100
AcDbLine
 10
59.7
 20
17.731822343
 30
0.0
 11
59.7
 21
0.0
 31
0.0
  0
ENDSEC
  0
SECTION
  2
OBJECTS
  0
DICTIONARY
  5
C
330
0
100
AcDbDictionary
281
     1
  3
ACAD_DETAILVIEWSTYLE
350
1E1
  3
ACAD_GROUP
350
D
  3
ACAD_LAYOUT
350
1A
  3
ACAD_MLINESTYLE
350
17
  3
ACAD_PLOTSETTINGS
350
19
  3
ACAD_PLOTSTYLENAME
350
E
  3
ACAD_SCALELIST
350
136
  3
ACAD_SECTIONVIEWSTYLE
350
1E2
  3
AcDbVariableDictionary
350
178
  3
APPDATA
350
1C6
  3
DWGPROPS
350
28B
  0
DICTIONARY
  5
1C7
330
2
100
AcDbDictionary
280
     1
281
     1
  3
ACAD_LAYERSTATES
360
1C8
  0
DICTIONARY
  5
1E1
102
{ACAD_REACTORS
330
C
102
}
330
C
100
AcDbDictionary
281
     1
  0
DICTIONARY
  5
D
102
{ACAD_REACTORS
330
C
102
}
330
C
100
AcDbDictionary
281
     1
  0
DICTIONARY
  5
1A
102
{ACAD_REACTORS
330
C
102
}
330
C
100
AcDbDictionary
281
     1
  3
Layout1
350
1C
  3
Model
350
1E
  0
DICTIONARY
  5
17
102
{ACAD_REACTORS
330
C
102
}
330
C
100
AcDbDictionary
281
     1
  3
Standard
350
18
  0
DICTIONARY
  5
19
102
{ACAD_REACTORS
330
C
102
}
330
C
100
AcDbDictionary
281
     1
  0
ACDBDICTIONARYWDFLT
  5
E
102
{ACAD_REACTORS
330
C
102
}
330
C
100
AcDbDictionary
281
     1
  3
Normal
350
F
100
AcDbDictionaryWithDefault
340
F
  0
DICTIONARY
  5
136
102
{ACAD_REACTORS
330
C
102
}
330
C
100
AcDbDictionary
281
     1
  3
A0
350
137
  3
A1
350
138
  3
A2
350
139
  3
A3
350
13A
  3
A4
350
13B
  3
A5
350
13C
  3
A6
350
13D
  3
A7
350
13E
  3
A8
350
13F
  3
A9
350
140
  3
B0
350
141
  3
B1
350
142
  3
B2
350
143
  3
B3
350
144
  3
B4
350
145
  3
B5
350
146
  3
B6
350
147
  3
B7
350
148
  3
B8
350
149
  3
B9
350
14A
  3
C0
350
14B
  3
C1
350
14C
  3
C2
350
14D
  3
C3
350
14E
  3
C4
350
14F
  3
C5
350
150
  3
C6
350
151
  3
C7
350
152
  3
C8
350
153
  3
C9
350
154
  3
D0
350
155
  3
D1
350
156
  3
D2
350
157
  0
DICTIONARY
  5
1E2
102
{ACAD_REACTORS
330
C
102
}
330
C
100
AcDbDictionary
281
     1
  0
DICTIONARY
  5
178
102
{ACAD_REACTORS
330
C
102
}
330
C
100
AcDbDictionary
281
     1
  3
DIMASSOC
350
17C
  3
HIDETEXT
350
17D
  0
DICTIONARY
  5
1C6
102
{ACAD_REACTORS
330
C
102
}
330
C
100
AcDbDictionary
281
     1
  0
XRECORD
  5
28B
102
{ACAD_REACTORS
330
C
102
}
330
C
100
AcDbXrecord
280
     1
  1
DWGPROPS COOKIE
  2

  3

  4

  6

  7

  8
matthias.ochs
  9

300
=
301
=
302
=
303
=
304
=
305
=
306
=
307
=
308
=
309
=
 40
0.0
 41
2458327.466097581
 42
2458589.588072754
  1

 90
        0
  0
DICTIONARY
  5
1C8
102
{ACAD_REACTORS
330
1C7
102
}
330
1C7
100
AcDbDictionary
281
     1
  0
LAYOUT
  5
1C
102
{ACAD_REACTORS
330
1A
102
}
330
1A
100
AcDbPlotSettings
  1

  2
none_device
  4

  6

 40
0.0
 41
0.0
 42
0.0
 43
0.0
 44
0.0
 45
0.0
 46
0.0
 47
0.0
 48
0.0
 49
0.0
140
0.0
141
0.0
142
1.0
143
1.0
 70
   688
 72
     0
 73
     0
 74
     5
  7

 75
    16
147
1.0
148
0.0
149
0.0
100
AcDbLayout
  1
Layout1
 70
     1
 71
     1
 10
0.0
 20
0.0
 11
12.0
 21
9.0
 12
0.0
 22
0.0
 32
0.0
 14
1.000000000000000E+20
 24
1.000000000000000E+20
 34
1.000000000000000E+20
 15
-1.000000000000000E+20
 25
-1.000000000000000E+20
 35
-1.000000000000000E+20
146
0.0
 13
0.0
 23
0.0
 33
0.0
 16
1.0
 26
0.0
 36
0.0
 17
0.0
 27
1.0
 37
0.0
 76
     0
330
1B
  0
LAYOUT
  5
1E
102
{ACAD_REACTORS
330
1A
102
}
330
1A
100
AcDbPlotSettings
  1

  2
none_device
  4

  6

 40
0.0
 41
0.0
 42
0.0
 43
0.0
 44
0.0
 45
0.0
 46
0.0
 47
0.0
 48
0.0
 49
0.0
140
0.0
141
0.0
142
1.0
143
1.0
 70
  1712
 72
     0
 73
     0
 74
     0
  7

 75
     0
147
1.0
148
0.0
149
0.0
100
AcDbLayout
  1
Model
 70
     1
 71
     0
 10
0.0
 20
0.0
 11
12.0
 21
9.0
 12
0.0
 22
0.0
 32
0.0
 14
-107.0564309021715
 24
-76.30348177098307
 34
0.0
 15
137.9649635759715
 25
72.56294466136399
 35
0.0
146
0.0
 13
0.0
 23
0.0
 33
0.0
 16
1.0
 26
0.0
 36
0.0
 17
0.0
 27
1.0
 37
0.0
 76
     0
330
1D
331
130
  0
MLINESTYLE
  5
18
102
{ACAD_REACTORS
330
17
102
}
330
17
100
AcDbMlineStyle
  2
Standard
 70
     0
  3

 62
   256
 51
90.0
 52
90.0
 71
     2
 49
0.5
 62
   256
  6
BYLAYER
 49
-0.5
 62
   256
  6
BYLAYER
  0
ACDBPLACEHOLDER
  5
F
102
{ACAD_REACTORS
330
E
102
}
330
E
  0
SCALE
  5
137
102
{ACAD_REACTORS
330
136
102
}
330
136
100
AcDbScale
 70
     0
300
1:1
140
1.0
141
1.0
290
     1
  0
SCALE
  5
138
102
{ACAD_REACTORS
330
136
102
}
330
136
100
AcDbScale
 70
     0
300
1:2
140
1.0
141
2.0
290
     0
  0
SCALE
  5
139
102
{ACAD_REACTORS
330
136
102
}
330
136
100
AcDbScale
 70
     0
300
1:4
140
1.0
141
4.0
290
     0
  0
SCALE
  5
13A
102
{ACAD_REACTORS
330
136
102
}
330
136
100
AcDbScale
 70
     0
300
1:5
140
1.0
141
5.0
290
     0
  0
SCALE
  5
13B
102
{ACAD_REACTORS
330
136
102
}
330
136
100
AcDbScale
 70
     0
300
1:8
140
1.0
141
8.0
290
     0
  0
SCALE
  5
13C
102
{ACAD_REACTORS
330
136
102
}
330
136
100
AcDbScale
 70
     0
300
1:10
140
1.0
141
10.0
290
     0
  0
SCALE
  5
13D
102
{ACAD_REACTORS
330
136
102
}
330
136
100
AcDbScale
 70
     0
300
1:16
140
1.0
141
16.0
290
     0
  0
SCALE
  5
13E
102
{ACAD_REACTORS
330
136
102
}
330
136
100
AcDbScale
 70
     0
300
1:20
140
1.0
141
20.0
290
     0
  0
SCALE
  5
13F
102
{ACAD_REACTORS
330
136
102
}
330
136
100
AcDbScale
 70
     0
300
1:30
140
1.0
141
30.0
290
     0
  0
SCALE
  5
140
102
{ACAD_REACTORS
330
136
102
}
330
136
100
AcDbScale
 70
     0
300
1:40
140
1.0
141
40.0
290
     0
  0
SCALE
  5
141
102
{ACAD_REACTORS
330
136
102
}
330
136
100
AcDbScale
 70
     0
300
1:50
140
1.0
141
50.0
290
     0
  0
SCALE
  5
142
102
{ACAD_REACTORS
330
136
102
}
330
136
100
AcDbScale
 70
     0
300
1:100
140
1.0
141
100.0
290
     0
  0
SCALE
  5
143
102
{ACAD_REACTORS
330
136
102
}
330
136
100
AcDbScale
 70
     0
300
2:1
140
2.0
141
1.0
290
     0
  0
SCALE
  5
144
102
{ACAD_REACTORS
330
136
102
}
330
136
100
AcDbScale
 70
     0
300
4:1
140
4.0
141
1.0
290
     0
  0
SCALE
  5
145
102
{ACAD_REACTORS
330
136
102
}
330
136
100
AcDbScale
 70
     0
300
8:1
140
8.0
141
1.0
290
     0
  0
SCALE
  5
146
102
{ACAD_REACTORS
330
136
102
}
330
136
100
AcDbScale
 70
     0
300
10:1
140
10.0
141
1.0
290
     0
  0
SCALE
  5
147
102
{ACAD_REACTORS
330
136
102
}
330
136
100
AcDbScale
 70
     0
300
100:1
140
100.0
141
1.0
290
     0
  0
SCALE
  5
148
102
{ACAD_REACTORS
330
136
102
}
330
136
100
AcDbScale
 70
     0
300
1/128" = 1'-0"
140
0.0078125
141
12.0
290
     0
  0
SCALE
  5
149
102
{ACAD_REACTORS
330
136
102
}
330
136
100
AcDbScale
 70
     0
300
1/64" = 1'-0"
140
0.015625
141
12.0
290
     0
  0
SCALE
  5
14A
102
{ACAD_REACTORS
330
136
102
}
330
136
100
AcDbScale
 70
     0
300
1/32" = 1'-0"
140
0.03125
141
12.0
290
     0
  0
SCALE
  5
14B
102
{ACAD_REACTORS
330
136
102
}
330
136
100
AcDbScale
 70
     0
300
1/16" = 1'-0"
140
0.0625
141
12.0
290
     0
  0
SCALE
  5
14C
102
{ACAD_REACTORS
330
136
102
}
330
136
100
AcDbScale
 70
     0
300
3/32" = 1'-0"
140
0.09375
141
12.0
290
     0
  0
SCALE
  5
14D
102
{ACAD_REACTORS
330
136
102
}
330
136
100
AcDbScale
 70
     0
300
1/8" = 1'-0"
140
0.125
141
12.0
290
     0
  0
SCALE
  5
14E
102
{ACAD_REACTORS
330
136
102
}
330
136
100
AcDbScale
 70
     0
300
3/16" = 1'-0"
140
0.1875
141
12.0
290
     0
  0
SCALE
  5
14F
102
{ACAD_REACTORS
330
136
102
}
330
136
100
AcDbScale
 70
     0
300
1/4" = 1'-0"
140
0.25
141
12.0
290
     0
  0
SCALE
  5
150
102
{ACAD_REACTORS
330
136
102
}
330
136
100
AcDbScale
 70
     0
300
3/8" = 1'-0"
140
0.375
141
12.0
290
     0
  0
SCALE
  5
151
102
{ACAD_REACTORS
330
136
102
}
330
136
100
AcDbScale
 70
     0
300
1/2" = 1'-0"
140
0.5
141
12.0
290
     0
  0
SCALE
  5
152
102
{ACAD_REACTORS
330
136
102
}
330
136
100
AcDbScale
 70
     0
300
3/4" = 1'-0"
140
0.75
141
12.0
290
     0
  0
SCALE
  5
153
102
{ACAD_REACTORS
330
136
102
}
330
136
100
AcDbScale
 70
     0
300
1" = 1'-0"
140
1.0
141
12.0
290
     0
  0
SCALE
  5
154
102
{ACAD_REACTORS
330
136
102
}
330
136
100
AcDbScale
 70
     0
300
1-1/2" = 1'-0"
140
1.5
141
12.0
290
     0
  0
SCALE
  5
155
102
{ACAD_REACTORS
330
136
102
}
330
136
100
AcDbScale
 70
     0
300
3" = 1'-0"
140
3.0
141
12.0
290
     0
  0
SCALE
  5
156
102
{ACAD_REACTORS
330
136
102
}
330
136
100
AcDbScale
 70
     0
300
6" = 1'-0"
140
6.0
141
12.0
290
     0
  0
SCALE
  5
157
102
{ACAD_REACTORS
330
136
102
}
330
136
100
AcDbScale
 70
     0
300
1'-0" = 1'-0"
140
12.0
141
12.0
290
     0
  0
DICTIONARYVAR
  5
17C
102
{ACAD_REACTORS
330
178
102
}
330
178
100
DictionaryVariables
280
     0
  1
2
  0
DICTIONARYVAR
  5
17D
102
{ACAD_REACTORS
330
178
102
}
330
178
100
DictionaryVariables
280
     0
  1
1
  0
ENDSEC
  0
EOF
