  0
SECTION
  2
HEADER
  9
$ACADVER
  1
AC1015
  9
$ACADMAINTVER
 70
     6
  9
$DWGCODEPAGE
  3
ANSI_1252
  9
$INSBASE
 10
0.0
 20
0.0
 30
0.0
  9
$EXTMIN
 10
-103.9288169261757
 20
-73.01745417709986
 30
0.0
  9
$EXTMAX
 10
121.7642704811714
 20
76.75259725615945
 30
0.0
  9
$LIMMIN
 10
-89.206388084
 20
-61.21
  9
$LIMMAX
 10
108.206388083
 20
62.21
  9
$ORTHOMODE
 70
     0
  9
$REGENMODE
 70
     1
  9
$FILLMODE
 70
     1
  9
$QTEXTMODE
 70
     0
  9
$MIRRTEXT
 70
     1
  9
$LTSCALE
 40
1.0
  9
$ATTMODE
 70
     1
  9
$TEXTSIZE
 40
0.2
  9
$TRACEWID
 40
0.05
  9
$TEXTSTYLE
  7
Standard
  9
$CLAYER
  8
1
  9
$CELTYPE
  6
ByLayer
  9
$CECOLOR
 62
   256
  9
$CELTSCALE
 40
1.0
  9
$DISPSILH
 70
     0
  9
$DIMSCALE
 40
1.0
  9
$DIMASZ
 40
0.18
  9
$DIMEXO
 40
0.0625
  9
$DIMDLI
 40
0.38
  9
$DIMRND
 40
0.0
  9
$DIMDLE
 40
0.0
  9
$DIMEXE
 40
0.18
  9
$DIMTP
 40
0.0
  9
$DIMTM
 40
0.0
  9
$DIMTXT
 40
0.18
  9
$DIMCEN
 40
0.09
  9
$DIMTSZ
 40
0.0
  9
$DIMTOL
 70
     0
  9
$DIMLIM
 70
     0
  9
$DIMTIH
 70
     1
  9
$DIMTOH
 70
     1
  9
$DIMSE1
 70
     0
  9
$DIMSE2
 70
     0
  9
$DIMTAD
 70
     0
  9
$DIMZIN
 70
     0
  9
$DIMBLK
  1

  9
$DIMASO
 70
     1
  9
$DIMSHO
 70
     1
  9
$DIMPOST
  1

  9
$DIMAPOST
  1

  9
$DIMALT
 70
     0
  9
$DIMALTD
 70
     2
  9
$DIMALTF
 40
25.4
  9
$DIMLFAC
 40
1.0
  9
$DIMTOFL
 70
     0
  9
$DIMTVP
 40
0.0
  9
$DIMTIX
 70
     0
  9
$DIMSOXD
 70
     0
  9
$DIMSAH
 70
     0
  9
$DIMBLK1
  1

  9
$DIMBLK2
  1

  9
$DIMSTYLE
  2
Standard
  9
$DIMCLRD
 70
     0
  9
$DIMCLRE
 70
     0
  9
$DIMCLRT
 70
     0
  9
$DIMTFAC
 40
1.0
  9
$DIMGAP
 40
0.09
  9
$DIMJUST
 70
     0
  9
$DIMSD1
 70
     0
  9
$DIMSD2
 70
     0
  9
$DIMTOLJ
 70
     1
  9
$DIMTZIN
 70
     0
  9
$DIMALTZ
 70
     0
  9
$DIMALTTZ
 70
     0
  9
$DIMUPT
 70
     0
  9
$DIMDEC
 70
     4
  9
$DIMTDEC
 70
     4
  9
$DIMALTU
 70
     2
  9
$DIMALTTD
 70
     2
  9
$DIMTXSTY
  7
Standard
  9
$DIMAUNIT
 70
     0
  9
$DIMADEC
 70
     0
  9
$DIMALTRND
 40
0.0
  9
$DIMAZIN
 70
     0
  9
$DIMDSEP
 70
    46
  9
$DIMATFIT
 70
     3
  9
$DIMFRAC
 70
     0
  9
$DIMLDRBLK
  1

  9
$DIMLUNIT
 70
     2
  9
$DIMLWD
 70
    -2
  9
$DIMLWE
 70
    -2
  9
$DIMTMOVE
 70
     2
  9
$LUNITS
 70
     2
  9
$LUPREC
 70
     4
  9
$SKETCHINC
 40
0.1
  9
$FILLETRAD
 40
0.5
  9
$AUNITS
 70
     2
  9
$AUPREC
 70
     0
  9
$MENU
  1
.
  9
$ELEVATION
 40
0.0
  9
$PELEVATION
 40
0.0
  9
$THICKNESS
 40
0.0
  9
$LIMCHECK
 70
     0
  9
$CHAMFERA
 40
0.5
  9
$CHAMFERB
 40
0.5
  9
$CHAMFERC
 40
1.0
  9
$CHAMFERD
 40
0.0
  9
$SKPOLY
 70
     0
  9
$TDCREATE
 40
2458327.549427558
  9
$TDUCREATE
 40
2458327.466094225
  9
$TDUPDATE
 40
2458589.671136898
  9
$TDUUPDATE
 40
2458589.587803565
  9
$TDINDWG
 40
0.0061049653
  9
$TDUSRTIMER
 40
0.0007944676
  9
$USRTIMER
 70
     1
  9
$ANGBASE
 50
0.0
  9
$ANGDIR
 70
     0
  9
$PDMODE
 70
     0
  9
$PDSIZE
 40
0.0
  9
$PLINEWID
 40
0.0
  9
$SPLFRAME
 70
     0
  9
$SPLINETYPE
 70
     6
  9
$SPLINESEGS
 70
     8
  9
$HANDSEED
  5
1DB
  9
$SURFTAB1
 70
     6
  9
$SURFTAB2
 70
     6
  9
$SURFTYPE
 70
     6
  9
$SURFU
 70
     6
  9
$SURFV
 70
     6
  9
$UCSBASE
  2

  9
$UCSNAME
  2

  9
$UCSORG
 10
0.0
 20
0.0
 30
0.0
  9
$UCSXDIR
 10
1.0
 20
0.0
 30
0.0
  9
$UCSYDIR
 10
0.0
 20
1.0
 30
0.0
  9
$UCSORTHOREF
  2

  9
$UCSORTHOVIEW
 70
     0
  9
$UCSORGTOP
 10
0.0
 20
0.0
 30
0.0
  9
$UCSORGBOTTOM
 10
0.0
 20
0.0
 30
0.0
  9
$UCSORGLEFT
 10
0.0
 20
0.0
 30
0.0
  9
$UCSORGRIGHT
 10
0.0
 20
0.0
 30
0.0
  9
$UCSORGFRONT
 10
0.0
 20
0.0
 30
0.0
  9
$UCSORGBACK
 10
0.0
 20
0.0
 30
0.0
  9
$PUCSBASE
  2

  9
$PUCSNAME
  2

  9
$PUCSORG
 10
0.0
 20
0.0
 30
0.0
  9
$PUCSXDIR
 10
1.0
 20
0.0
 30
0.0
  9
$PUCSYDIR
 10
0.0
 20
1.0
 30
0.0
  9
$PUCSORTHOREF
  2

  9
$PUCSORTHOVIEW
 70
     0
  9
$PUCSORGTOP
 10
0.0
 20
0.0
 30
0.0
  9
$PUCSORGBOTTOM
 10
0.0
 20
0.0
 30
0.0
  9
$PUCSORGLEFT
 10
0.0
 20
0.0
 30
0.0
  9
$PUCSORGRIGHT
 10
0.0
 20
0.0
 30
0.0
  9
$PUCSORGFRONT
 10
0.0
 20
0.0
 30
0.0
  9
$PUCSORGBACK
 10
0.0
 20
0.0
 30
0.0
  9
$USERI1
 70
     0
  9
$USERI2
 70
     0
  9
$USERI3
 70
     0
  9
$USERI4
 70
     0
  9
$USERI5
 70
     0
  9
$USERR1
 40
0.0
  9
$USERR2
 40
0.0
  9
$USERR3
 40
0.0
  9
$USERR4
 40
0.0
  9
$USERR5
 40
0.0
  9
$WORLDVIEW
 70
     1
  9
$SHADEDGE
 70
     3
  9
$SHADEDIF
 70
    70
  9
$TILEMODE
 70
     1
  9
$MAXACTVP
 70
    64
  9
$PINSBASE
 10
0.0
 20
0.0
 30
0.0
  9
$PLIMCHECK
 70
     0
  9
$PEXTMIN
 10
1.000000000000000E+20
 20
1.000000000000000E+20
 30
1.000000000000000E+20
  9
$PEXTMAX
 10
-1.000000000000000E+20
 20
-1.000000000000000E+20
 30
-1.000000000000000E+20
  9
$PLIMMIN
 10
0.0
 20
0.0
  9
$PLIMMAX
 10
0.0
 20
0.0
  9
$UNITMODE
 70
     0
  9
$VISRETAIN
 70
     1
  9
$PLINEGEN
 70
     0
  9
$PSLTSCALE
 70
     1
  9
$TREEDEPTH
 70
  3020
  9
$CMLSTYLE
  2
Standard
  9
$CMLJUST
 70
     0
  9
$CMLSCALE
 40
1.0
  9
$PROXYGRAPHICS
 70
     1
  9
$MEASUREMENT
 70
     0
  9
$CELWEIGHT
370
    -1
  9
$ENDCAPS
280
     0
  9
$JOINSTYLE
280
     0
  9
$LWDISPLAY
290
     0
  9
$INSUNITS
 70
     0
  9
$HYPERLINKBASE
  1

  9
$STYLESHEET
  1

  9
$XEDIT
290
     1
  9
$CEPSNTYPE
380
     0
  9
$PSTYLEMODE
290
     1
  9
$FINGERPRINTGUID
  2
{BB159B23-BA20-4D28-82BD-7D131FD401E4}
  9
$VERSIONGUID
  2
{FAEB1C32-E019-11D5-929B-00C0DF256EC4}
  9
$EXTNAMES
290
     1
  9
$PSVPSCALE
 40
0.0
  9
$OLESTARTUP
290
     0
  0
ENDSEC
  0
SECTION
  2
CLASSES
  0
CLASS
  1
ACDBDICTIONARYWDFLT
  2
AcDbDictionaryWithDefault
  3
ObjectDBX Classes
 90
        0
280
     0
281
     0
  0
CLASS
  1
SCALE
  2
AcDbScale
  3
ObjectDBX Classes
 90
     1153
280
     0
281
     0
  0
CLASS
  1
VISUALSTYLE
  2
AcDbVisualStyle
  3
ObjectDBX Classes
 90
     4095
280
     0
281
     0
  0
CLASS
  1
MATERIAL
  2
AcDbMaterial
  3
ObjectDBX Classes
 90
     1153
280
     0
281
     0
  0
CLASS
  1
DICTIONARYVAR
  2
AcDbDictionaryVar
  3
ObjectDBX Classes
 90
        0
280
     0
281
     0
  0
CLASS
  1
ACDBPLACEHOLDER
  2
AcDbPlaceHolder
  3
ObjectDBX Classes
 90
        0
280
     0
281
     0
  0
CLASS
  1
LAYOUT
  2
AcDbLayout
  3
ObjectDBX Classes
 90
        0
280
     0
281
     0
  0
CLASS
  1
TABLESTYLE
  2
AcDbTableStyle
  3
ObjectDBX Classes
 90
     4095
280
     0
281
     0
  0
CLASS
  1
MLEADERSTYLE
  2
AcDbMLeaderStyle
  3
ACDB_MLEADERSTYLE_CLASS
 90
     4095
280
     0
281
     0
  0
CLASS
  1
SUN
  2
AcDbSun
  3
SCENEOE
 90
     1153
280
     0
281
     0
  0
CLASS
  1
CELLSTYLEMAP
  2
AcDbCellStyleMap
  3
ObjectDBX Classes
 90
     1152
280
     0
281
     0
  0
ENDSEC
  0
SECTION
  2
TABLES
  0
TABLE
  2
VPORT
  5
8
330
0
100
AcDbSymbolTable
 70
     1
  0
VPORT
  5
B4
330
8
100
AcDbSymbolTableRecord
100
AcDbViewportTableRecord
  2
*Active
 70
     0
 10
0.0
 20
0.0
 11
1.0
 21
1.0
 12
33.70099786577063
 22
-12.65512470964846
 13
0.0
 23
0.0
 14
0.5
 24
0.5
 15
0.5
 25
0.5
 16
0.0
 26
0.0
 36
1.0
 17
0.0
 27
0.0
 37
0.0
 40
290.4153914371692
 41
1.978589420654912
 42
50.0
 43
0.0
 44
0.0
 50
0.0
 51
0.0
 71
    16
 72
   100
 73
     1
 74
     3
 75
     0
 76
     0
 77
     0
 78
     0
281
     0
 65
     1
110
0.0
120
0.0
130
0.0
111
1.0
121
0.0
131
0.0
112
0.0
122
1.0
132
0.0
 79
     0
146
0.0
  0
ENDTAB
  0
TABLE
  2
LTYPE
  5
5
330
0
100
AcDbSymbolTable
 70
     8
  0
LTYPE
  5
14
330
5
100
AcDbSymbolTableRecord
100
AcDbLinetypeTableRecord
  2
ByBlock
 70
     0
  3

 72
    65
 73
     0
 40
0.0
  0
LTYPE
  5
15
330
5
100
AcDbSymbolTableRecord
100
AcDbLinetypeTableRecord
  2
ByLayer
 70
     0
  3

 72
    65
 73
     0
 40
0.0
  0
LTYPE
  5
16
330
5
100
AcDbSymbolTableRecord
100
AcDbLinetypeTableRecord
  2
Continuous
 70
     0
  3
Solid line
 72
    65
 73
     0
 40
0.0
  0
LTYPE
  5
20
330
5
100
AcDbSymbolTableRecord
100
AcDbLinetypeTableRecord
  2
PUNKT
 70
     0
  3
..............
 72
    65
 73
     2
 40
1.5
 49
0.7
 74
     0
 49
-0.8
 74
     0
  0
LTYPE
  5
21
330
5
100
AcDbSymbolTableRecord
100
AcDbLinetypeTableRecord
  2
GESTRICHELT
 70
     0
  3
-- -- -- -- --
 72
    65
 73
     7
 40
2.8
 49
0.9
 74
     0
 49
0.0
 74
     0
 49
0.9
 74
     0
 49
0.0
 74
     0
 49
0.2
 74
     0
 49
0.0
 74
     0
 49
-0.8
 74
     0
  0
LTYPE
  5
22
330
5
100
AcDbSymbolTableRecord
100
AcDbLinetypeTableRecord
  2
STRICHPUNKT
 70
     0
  3
--.--.--.--.--
 72
    65
 73
     4
 40
8.8
 49
5.5
 74
     0
 49
-1.3
 74
     0
 49
0.7
 74
     0
 49
-1.3
 74
     0
  0
LTYPE
  5
25
330
5
100
AcDbSymbolTableRecord
100
AcDbLinetypeTableRecord
  2
PHANTOM
 70
     0
  3
--..--..--..--
 72
    65
 73
     6
 40
14.2
 49
7.0
 74
     0
 49
-1.8
 74
     0
 49
0.9
 74
     0
 49
-1.8
 74
     0
 49
0.9
 74
     0
 49
-1.8
 74
     0
  0
LTYPE
  5
12C
330
5
100
AcDbSymbolTableRecord
100
AcDbLinetypeTableRecord
  2
DASH
 70
     0
  3
DASH _ _ _ _ _
 72
    65
 73
     2
 40
0.75
 49
0.4
 74
     0
 49
-0.35
 74
     0
  0
LTYPE
  5
12D
330
5
100
AcDbSymbolTableRecord
100
AcDbLinetypeTableRecord
  2
LONGDASH_DASH
 70
     0
  3
LONGDASH_DASH __ . __ . __
 72
    65
 73
     4
 40
0.85
 49
0.4
 74
     0
 49
-0.2
 74
     0
 49
0.05
 74
     0
 49
-0.2
 74
     0
  0
LTYPE
  5
12E
330
5
100
AcDbSymbolTableRecord
100
AcDbLinetypeTableRecord
  2
LONGDASH_DASH_DASH
 70
     0
  3
LONGDASH_DASH_DASH __ . . __ . . __
 72
    65
 73
     6
 40
1.1
 49
0.4
 74
     0
 49
-0.2
 74
     0
 49
0.05
 74
     0
 49
-0.2
 74
     0
 49
0.05
 74
     0
 49
-0.2
 74
     0
  0
ENDTAB
  0
TABLE
  2
LAYER
  5
2
102
{ACAD_XDICTIONARY
360
14B
102
}
330
0
100
AcDbSymbolTable
 70
    15
  0
LAYER
  5
F6
330
2
100
AcDbSymbolTableRecord
100
AcDbLayerTableRecord
  2
200
 70
     0
 62
     2
  6
Continuous
370
    50
390
F
  0
LAYER
  5
12F
330
2
100
AcDbSymbolTableRecord
100
AcDbLayerTableRecord
  2
0
 70
     0
 62
     1
  6
Continuous
370
    -3
390
F
  0
LAYER
  5
130
330
2
100
AcDbSymbolTableRecord
100
AcDbLayerTableRecord
  2
1
 70
     0
 62
     4
  6
Continuous
370
    50
390
F
  0
LAYER
  5
131
330
2
100
AcDbSymbolTableRecord
100
AcDbLayerTableRecord
  2
2
 70
     0
 62
     7
  6
Continuous
370
    25
390
F
  0
LAYER
  5
132
330
2
100
AcDbSymbolTableRecord
100
AcDbLayerTableRecord
  2
3
 70
     0
 62
     1
  6
DASH
370
    35
390
F
  0
LAYER
  5
133
330
2
100
AcDbSymbolTableRecord
100
AcDbLayerTableRecord
  2
4
 70
     0
 62
     2
  6
LONGDASH_DASH
370
    25
390
F
  0
LAYER
  5
134
330
2
100
AcDbSymbolTableRecord
100
AcDbLayerTableRecord
  2
6
 70
     0
 62
     5
  6
Continuous
370
    -3
390
F
  0
LAYER
  5
135
330
2
100
AcDbSymbolTableRecord
100
AcDbLayerTableRecord
  2
CUT
 70
     0
 62
     1
  6
Continuous
370
    25
390
F
  0
LAYER
  5
136
330
2
100
AcDbSymbolTableRecord
100
AcDbLayerTableRecord
  2
NOCUT
 70
     0
 62
     7
  6
Continuous
370
    25
390
F
  0
LAYER
  5
137
330
2
100
AcDbSymbolTableRecord
100
AcDbLayerTableRecord
  2
SK1
 70
     0
 62
     4
  6
Continuous
370
    50
390
F
  0
LAYER
  5
138
330
2
100
AcDbSymbolTableRecord
100
AcDbLayerTableRecord
  2
SK2
 70
     0
 62
     7
  6
Continuous
370
    25
390
F
  0
LAYER
  5
139
330
2
100
AcDbSymbolTableRecord
100
AcDbLayerTableRecord
  2
SK3
 70
     0
 62
     1
  6
DASH
370
    35
390
F
  0
LAYER
  5
13A
330
2
100
AcDbSymbolTableRecord
100
AcDbLayerTableRecord
  2
SK4
 70
     0
 62
     2
  6
LONGDASH_DASH
370
    25
390
F
  0
LAYER
  5
13B
330
2
100
AcDbSymbolTableRecord
100
AcDbLayerTableRecord
  2
SK6
 70
     0
 62
     5
  6
Continuous
370
    -3
390
F
  0
LAYER
  5
13C
330
2
100
AcDbSymbolTableRecord
100
AcDbLayerTableRecord
  2
INFTOTAL
 70
     0
 62
     9
  6
Continuous
370
    18
390
F
  0
ENDTAB
  0
TABLE
  2
STYLE
  5
3
330
0
100
AcDbSymbolTable
 70
     2
  0
STYLE
  5
11
330
3
100
AcDbSymbolTableRecord
100
AcDbTextStyleTableRecord
  2
Standard
 70
     0
 40
0.0
 41
1.0
 50
0.0
 71
     0
 42
0.2
  3
txt
  4

  0
STYLE
  5
F5
330
3
100
AcDbSymbolTableRecord
100
AcDbTextStyleTableRecord
  2
BMG_Text
 70
     0
 40
3.5
 41
1.0
 50
0.0
 71
     0
 42
0.2
  3
monos.ttf
  4

1001
ACAD
1000
Monospac821 BT
1071
       49
  0
ENDTAB
  0
TABLE
  2
VIEW
  5
6
330
0
100
AcDbSymbolTable
 70
     0
  0
ENDTAB
  0
TABLE
  2
UCS
  5
7
330
0
100
AcDbSymbolTable
 70
     0
  0
ENDTAB
  0
TABLE
  2
APPID
  5
9
330
0
100
AcDbSymbolTable
 70
     1
  0
APPID
  5
12
330
9
100
AcDbSymbolTableRecord
100
AcDbRegAppTableRecord
  2
ACAD
 70
     0
  0
ENDTAB
  0
TABLE
  2
DIMSTYLE
  5
A
330
0
100
AcDbSymbolTable
 70
     1
100
AcDbDimStyleTable
  0
DIMSTYLE
105
28
330
A
100
AcDbSymbolTableRecord
100
AcDbDimStyleTableRecord
  2
Standard
 70
     0
178
     0
340
11
  0
ENDTAB
  0
TABLE
  2
BLOCK_RECORD
  5
1
330
0
100
AcDbSymbolTable
 70
     0
  0
BLOCK_RECORD
  5
1D
330
1
100
AcDbSymbolTableRecord
100
AcDbBlockTableRecord
  2
*Model_Space
340
1E
  0
BLOCK_RECORD
  5
1B
330
1
100
AcDbSymbolTableRecord
100
AcDbBlockTableRecord
  2
*Paper_Space
340
1C
  0
ENDTAB
  0
ENDSEC
  0
SECTION
  2
BLOCKS
  0
BLOCK
  5
DE
330
1D
100
AcDbEntity
  8
0
100
AcDbBlockBegin
  2
*Model_Space
 70
     0
 10
0.0
 20
0.0
 30
0.0
  3
*Model_Space
  1

  0
ENDBLK
  5
DF
330
1D
100
AcDbEntity
  8
0
100
AcDbBlockEnd
  0
BLOCK
  5
DC
330
1B
100
AcDbEntity
 67
     1
  8
0
100
AcDbBlockBegin
  2
*Paper_Space
 70
     0
 10
0.0
 20
0.0
 30
0.0
  3
*Paper_Space
  1

  0
ENDBLK
  5
DD
330
1B
100
AcDbEntity
 67
     1
  8
0
100
AcDbBlockEnd
  0
ENDSEC
  0
SECTION
  2
ENTITIES
  0
LINE
  5
29
330
1D
100
AcDbEntity
  8
1
100
AcDbLine
 10
0.0
 20
44.0
 30
0.0
 11
1.0
 21
45.0
 31
0.0
  0
LINE
  5
2A
330
1D
100
AcDbEntity
  8
1
100
AcDbLine
 10
1.0
 20
45.0
 30
0.0
 11
11.00000763
 21
45.0
 31
0.0
  0
LINE
  5
2B
330
1D
100
AcDbEntity
  8
1
100
AcDbLine
 10
12.0
 20
44.0
 30
0.0
 11
12.0
 21
-44.0
 31
0.0
  0
LINE
  5
2C
330
1D
100
AcDbEntity
  8
1
100
AcDbLine
 10
12.0
 20
44.0
 30
0.0
 11
11.00000763
 21
45.0
 31
0.0
  0
ARC
  5
2D
330
1D
100
AcDbEntity
  8
1
100
AcDbCircle
 10
17.0
 20
24.5
 30
0.0
 40
5.0
100
AcDbArc
 50
180.0
 51
270.0
  0
LINE
  5
2E
330
1D
100
AcDbEntity
  8
1
100
AcDbLine
 10
17.0
 20
19.5
 30
0.0
 11
69.24999237
 21
19.5
 31
0.0
  0
LINE
  5
2F
330
1D
100
AcDbEntity
  8
1
100
AcDbLine
 10
69.99999237
 20
18.75
 30
0.0
 11
69.99999237
 21
-18.75
 31
0.0
  0
LINE
  5
30
330
1D
100
AcDbEntity
  8
1
100
AcDbLine
 10
69.99999237
 20
18.75
 30
0.0
 11
69.24999237
 21
19.5
 31
0.0
  0
CIRCLE
  5
31
330
1D
100
AcDbEntity
  8
1
100
AcDbCircle
 10
59.94997406
 20
0.0
 30
0.0
 40
4.0
  0
LINE
  5
32
330
1D
100
AcDbEntity
  8
SK4
100
AcDbLine
 10
59.94997406
 20
-5.0
 30
0.0
 11
59.94997406
 21
5.0
 31
0.0
  0
LINE
  5
33
330
1D
100
AcDbEntity
  8
1
100
AcDbLine
 10
57.94997406
 20
-1.1546936
 30
0.0
 11
57.94997406
 21
1.1546936
 31
0.0
  0
LINE
  5
34
330
1D
100
AcDbEntity
  8
1
100
AcDbLine
 10
57.94997406
 20
1.1546936
 30
0.0
 11
59.94997406
 21
2.30940247
 31
0.0
  0
LINE
  5
35
330
1D
100
AcDbEntity
  8
1
100
AcDbLine
 10
61.94997406
 20
1.1546936
 30
0.0
 11
59.94997406
 21
2.30940247
 31
0.0
  0
LINE
  5
36
330
1D
100
AcDbEntity
  8
1
100
AcDbLine
 10
61.94997406
 20
-1.1546936
 30
0.0
 11
61.94997406
 21
1.1546936
 31
0.0
  0
LINE
  5
37
330
1D
100
AcDbEntity
  8
1
100
AcDbLine
 10
0.0
 20
-44.0
 30
0.0
 11
0.99999237
 21
-45.0
 31
0.0
  0
LINE
  5
38
330
1D
100
AcDbEntity
  8
1
100
AcDbLine
 10
0.99999237
 20
-45.0
 30
0.0
 11
11.0
 21
-45.0
 31
0.0
  0
ARC
  5
39
330
1D
100
AcDbEntity
  8
1
100
AcDbCircle
 10
17.0
 20
-24.50002289
 30
0.0
 40
5.0
100
AcDbArc
 50
90.0
 51
180.0
  0
LINE
  5
3A
330
1D
100
AcDbEntity
  8
1
100
AcDbLine
 10
11.0
 20
-45.0
 30
0.0
 11
12.0
 21
-44.0
 31
0.0
  0
LINE
  5
3B
330
1D
100
AcDbEntity
  8
1
100
AcDbLine
 10
17.0
 20
-19.50002289
 30
0.0
 11
69.24999237
 21
-19.5
 31
0.0
  0
LINE
  5
3C
330
1D
100
AcDbEntity
  8
1
100
AcDbLine
 10
69.24999237
 20
-19.5
 30
0.0
 11
69.99999237
 21
-18.75
 31
0.0
  0
LINE
  5
3D
330
1D
100
AcDbEntity
  8
1
100
AcDbLine
 10
61.94997406
 20
-1.1546936
 30
0.0
 11
59.94997406
 21
-2.30940247
 31
0.0
  0
LINE
  5
3E
330
1D
100
AcDbEntity
  8
1
100
AcDbLine
 10
59.94997406
 20
-2.30940247
 30
0.0
 11
57.94997406
 21
-1.1546936
 31
0.0
  0
LINE
  5
3F
330
1D
100
AcDbEntity
  8
SK4
100
AcDbLine
 10
-52.0
 20
0.0
 30
0.0
 11
71.99999237
 21
0.0
 31
0.0
  0
LINE
  5
40
330
1D
100
AcDbEntity
  8
SK1
100
AcDbLine
 10
-44.0
 20
23.0
 30
0.0
 11
0.0
 21
23.0
 31
0.0
  0
LINE
  5
41
330
1D
100
AcDbEntity
  8
SK1
100
AcDbLine
 10
-50.0
 20
21.80000305
 30
0.0
 11
-50.0
 21
-21.80000305
 31
0.0
  0
ARC
  5
42
330
1D
100
AcDbEntity
  8
SK1
100
AcDbCircle
 10
-48.79999924
 20
21.80000305
 30
0.0
 40
1.20000076
100
AcDbArc
 50
79.99957275
 51
180.0
  0
LINE
  5
43
330
1D
100
AcDbEntity
  8
1
100
AcDbLine
 10
0.0
 20
44.0
 30
0.0
 11
0.0
 21
-44.0
 31
0.0
  0
LINE
  5
44
330
1D
100
AcDbEntity
  8
SK1
100
AcDbLine
 10
-44.0
 20
23.0
 30
0.0
 11
-44.0
 21
-23.0
 31
0.0
  0
LINE
  5
45
330
1D
100
AcDbEntity
  8
SK1
100
AcDbLine
 10
-48.5916214
 20
22.98178101
 30
0.0
 11
-46.61262512
 21
22.6328125
 31
0.0
  0
LINE
  5
46
330
1D
100
AcDbEntity
  8
SK1
100
AcDbLine
 10
-44.0
 20
23.0
 30
0.0
 11
-46.61261749
 21
22.6328125
 31
0.0
  0
CIRCLE
  5
47
330
1D
100
AcDbEntity
  8
SK1
100
AcDbCircle
 10
-18.20000458
 20
0.0
 30
0.0
 40
7.5
  0
LINE
  5
48
330
1D
100
AcDbEntity
  8
SK4
100
AcDbLine
 10
-18.20000458
 20
-8.5
 30
0.0
 11
-18.20000458
 21
8.5
 31
0.0
  0
LINE
  5
49
330
1D
100
AcDbEntity
  8
SK1
100
AcDbLine
 10
-44.0
 20
-23.0
 30
0.0
 11
0.0
 21
-23.0
 31
0.0
  0
ARC
  5
4A
330
1D
100
AcDbEntity
  8
SK1
100
AcDbCircle
 10
-48.79999924
 20
-21.80000305
 30
0.0
 40
1.20000076
100
AcDbArc
 50
180.0
 51
280.0
  0
LINE
  5
4B
330
1D
100
AcDbEntity
  8
SK1
100
AcDbLine
 10
-44.0
 20
-23.0
 30
0.0
 11
-46.61261749
 21
-22.63282013
 31
0.0
  0
LINE
  5
4C
330
1D
100
AcDbEntity
  8
SK1
100
AcDbLine
 10
-48.5916214
 20
-22.98177338
 30
0.0
 11
-46.61262512
 21
-22.63282013
 31
0.0
  0
LINE
  5
4D
330
1D
100
AcDbEntity
  8
SK3
100
AcDbLine
 10
-50.0
 20
11.5
 30
0.0
 11
-2.0
 21
11.5
 31
0.0
  0
LINE
  5
4E
330
1D
100
AcDbEntity
  8
3
100
AcDbLine
 10
0.02072906
 20
8.0
 30
0.0
 11
42.26793671
 21
8.0
 31
0.0
  0
LINE
  5
4F
330
1D
100
AcDbEntity
  8
SK3
100
AcDbLine
 10
-2.0
 20
11.5
 30
0.0
 11
-2.0
 21
-11.5
 31
0.0
  0
LINE
  5
50
330
1D
100
AcDbEntity
  8
SK3
100
AcDbLine
 10
-2.0
 20
11.5
 30
0.0
 11
-0.0000000000000002
 21
8.035903729716244
 31
0.0
  0
LINE
  5
51
330
1D
100
AcDbEntity
  8
3
100
AcDbLine
 10
42.26793671
 20
8.0
 30
0.0
 11
42.26793671
 21
-8.0
 31
0.0
  0
LINE
  5
52
330
1D
100
AcDbEntity
  8
3
100
AcDbLine
 10
0.02072906
 20
8.0
 30
0.0
 11
0.02072906
 21
-8.0
 31
0.0
  0
LINE
  5
53
330
1D
100
AcDbEntity
  8
3
100
AcDbLine
 10
43.99999237
 20
11.0
 30
0.0
 11
69.99999237
 21
11.0
 31
0.0
  0
LINE
  5
54
330
1D
100
AcDbEntity
  8
3
100
AcDbLine
 10
43.99999237
 20
11.0
 30
0.0
 11
43.99999237
 21
-11.0
 31
0.0
  0
LINE
  5
55
330
1D
100
AcDbEntity
  8
3
100
AcDbLine
 10
43.99999237
 20
11.0
 30
0.0
 11
42.26793671
 21
8.0
 31
0.0
  0
LINE
  5
56
330
1D
100
AcDbEntity
  8
SK3
100
AcDbLine
 10
-50.0
 20
-11.5
 30
0.0
 11
-2.0
 21
-11.5
 31
0.0
  0
LINE
  5
57
330
1D
100
AcDbEntity
  8
3
100
AcDbLine
 10
0.02072906
 20
-8.0
 30
0.0
 11
42.26793671
 21
-8.0
 31
0.0
  0
LINE
  5
58
330
1D
100
AcDbEntity
  8
SK3
100
AcDbLine
 10
-2.0
 20
-11.5
 30
0.0
 11
-0.0000000000000002
 21
-8.035903729716244
 31
0.0
  0
LINE
  5
59
330
1D
100
AcDbEntity
  8
3
100
AcDbLine
 10
43.99999237
 20
-11.0
 30
0.0
 11
69.99999237
 21
-11.0
 31
0.0
  0
LINE
  5
5A
330
1D
100
AcDbEntity
  8
3
100
AcDbLine
 10
43.99999237
 20
-11.0
 30
0.0
 11
42.26793671
 21
-8.0
 31
0.0
  0
LINE
  5
5B
330
1D
100
AcDbEntity
  8
2
100
AcDbLine
 10
69.24999237
 20
19.5
 30
0.0
 11
91.99999237
 21
19.5
 31
0.0
  0
LINE
  5
5C
330
1D
100
AcDbEntity
  8
2
100
AcDbLine
 10
69.99999237
 20
11.0
 30
0.0
 11
83.99999237
 21
11.0
 31
0.0
  0
LINE
  5
5D
330
1D
100
AcDbEntity
  8
2
100
AcDbLine
 10
17.0
 20
-44.0
 30
0.0
 11
17.0
 21
-59.0
 31
0.0
  0
LINE
  5
5E
330
1D
100
AcDbEntity
  8
2
100
AcDbLine
 10
69.99999237
 20
-11.0
 30
0.0
 11
83.99999237
 21
-11.0
 31
0.0
  0
LINE
  5
5F
330
1D
100
AcDbEntity
  8
2
100
AcDbLine
 10
69.24999237
 20
-19.5
 30
0.0
 11
91.99999237
 21
-19.5
 31
0.0
  0
LINE
  5
60
330
1D
100
AcDbEntity
  8
2
100
AcDbLine
 10
0.0
 20
58.0
 30
0.0
 11
0.0
 21
44.0
 31
0.0
  0
LINE
  5
61
330
1D
100
AcDbEntity
  8
2
100
AcDbLine
 10
0.0
 20
56.0
 30
0.0
 11
3.5
 21
56.45
 31
0.0
  0
LINE
  5
62
330
1D
100
AcDbEntity
  8
2
100
AcDbLine
 10
3.5
 20
56.45
 30
0.0
 11
3.5
 21
55.55
 31
0.0
  0
LINE
  5
63
330
1D
100
AcDbEntity
  8
2
100
AcDbLine
 10
3.5
 20
55.55
 30
0.0
 11
0.0
 21
56.0
 31
0.0
  0
LINE
  5
64
330
1D
100
AcDbEntity
  8
2
100
AcDbLine
 10
69.99999237
 20
58.0
 30
0.0
 11
69.99999237
 21
44.0
 31
0.0
  0
LINE
  5
65
330
1D
100
AcDbEntity
  8
2
100
AcDbLine
 10
69.99999237
 20
56.0
 30
0.0
 11
66.49999237
 21
55.55
 31
0.0
  0
LINE
  5
66
330
1D
100
AcDbEntity
  8
2
100
AcDbLine
 10
66.49999237
 20
55.55
 30
0.0
 11
66.49999237
 21
56.45
 31
0.0
  0
LINE
  5
67
330
1D
100
AcDbEntity
  8
2
100
AcDbLine
 10
66.49999237
 20
56.45
 30
0.0
 11
69.99999237
 21
56.0
 31
0.0
  0
LINE
  5
68
330
1D
100
AcDbEntity
  8
2
100
AcDbLine
 10
3.5
 20
56.0
 30
0.0
 11
66.49999237
 21
56.0
 31
0.0
  0
TEXT
  5
69
330
1D
100
AcDbEntity
  8
2
100
AcDbText
 10
33.335307903
 20
57.5
 30
0.0
 40
3.5
  1
70
  7
BMG_Text
100
AcDbText
  0
LINE
  5
6A
330
1D
100
AcDbEntity
  8
2
100
AcDbLine
 10
-70.000000001
 20
-45.0
 30
0.0
 11
0.99999237
 21
-45.0
 31
0.0
  0
LINE
  5
6B
330
1D
100
AcDbEntity
  8
2
100
AcDbLine
 10
-68.000000001
 20
-45.0
 30
0.0
 11
-68.450000001
 21
-41.5
 31
0.0
  0
LINE
  5
6C
330
1D
100
AcDbEntity
  8
2
100
AcDbLine
 10
-68.450000001
 20
-41.5
 30
0.0
 11
-67.550000001
 21
-41.5
 31
0.0
  0
LINE
  5
6D
330
1D
100
AcDbEntity
  8
2
100
AcDbLine
 10
-67.550000001
 20
-41.5
 30
0.0
 11
-68.000000001
 21
-45.0
 31
0.0
  0
LINE
  5
6E
330
1D
100
AcDbEntity
  8
2
100
AcDbLine
 10
-70.0
 20
45.0
 30
0.0
 11
1.0
 21
45.0
 31
0.0
  0
LINE
  5
6F
330
1D
100
AcDbEntity
  8
2
100
AcDbLine
 10
-68.0
 20
45.0
 30
0.0
 11
-67.55
 21
41.5
 31
0.0
  0
LINE
  5
70
330
1D
100
AcDbEntity
  8
2
100
AcDbLine
 10
-67.55
 20
41.5
 30
0.0
 11
-68.45
 21
41.5
 31
0.0
  0
LINE
  5
71
330
1D
100
AcDbEntity
  8
2
100
AcDbLine
 10
-68.45
 20
41.5
 30
0.0
 11
-68.0
 21
45.0
 31
0.0
  0
LINE
  5
72
330
1D
100
AcDbEntity
  8
2
100
AcDbLine
 10
-68.000000001
 20
-41.5
 30
0.0
 11
-68.0
 21
41.5
 31
0.0
  0
TEXT
  5
73
330
1D
100
AcDbEntity
  8
2
100
AcDbText
 10
-69.5
 20
0.139998994
 30
0.0
 40
3.5
  1
90
 50
90.0
  7
BMG_Text
100
AcDbText
  0
CIRCLE
  5
74
330
1D
100
AcDbEntity
  8
2
100
AcDbCircle
 10
-70.75
 20
-2.110001006
 30
0.0
 40
1.25
  0
LINE
  5
75
330
1D
100
AcDbEntity
  8
2
100
AcDbLine
 10
-69.5
 20
-3.360001006
 30
0.0
 11
-72.0
 21
-0.860001006
 31
0.0
  0
LINE
  5
76
330
1D
100
AcDbEntity
  8
SK2
100
AcDbLine
 10
-62.0
 20
-23.0
 30
0.0
 11
-44.0
 21
-23.0
 31
0.0
  0
LINE
  5
77
330
1D
100
AcDbEntity
  8
SK2
100
AcDbLine
 10
-60.0
 20
-23.0
 30
0.0
 11
-60.45
 21
-19.5
 31
0.0
  0
LINE
  5
78
330
1D
100
AcDbEntity
  8
SK2
100
AcDbLine
 10
-60.45
 20
-19.5
 30
0.0
 11
-59.55
 21
-19.5
 31
0.0
  0
LINE
  5
79
330
1D
100
AcDbEntity
  8
SK2
100
AcDbLine
 10
-59.55
 20
-19.5
 30
0.0
 11
-60.0
 21
-23.0
 31
0.0
  0
LINE
  5
7A
330
1D
100
AcDbEntity
  8
SK2
100
AcDbLine
 10
-62.0
 20
23.0
 30
0.0
 11
-44.0
 21
23.0
 31
0.0
  0
LINE
  5
7B
330
1D
100
AcDbEntity
  8
SK2
100
AcDbLine
 10
-60.0
 20
23.0
 30
0.0
 11
-59.55
 21
19.5
 31
0.0
  0
LINE
  5
7C
330
1D
100
AcDbEntity
  8
SK2
100
AcDbLine
 10
-59.55
 20
19.5
 30
0.0
 11
-60.45
 21
19.5
 31
0.0
  0
LINE
  5
7D
330
1D
100
AcDbEntity
  8
SK2
100
AcDbLine
 10
-60.45
 20
19.5
 30
0.0
 11
-60.0
 21
23.0
 31
0.0
  0
LINE
  5
7E
330
1D
100
AcDbEntity
  8
SK2
100
AcDbLine
 10
-60.0
 20
-19.5
 30
0.0
 11
-60.0
 21
19.5
 31
0.0
  0
TEXT
  5
7F
330
1D
100
AcDbEntity
  8
SK2
100
AcDbText
 10
-61.5
 20
0.139999486
 30
0.0
 40
3.5
  1
46
 50
90.0
  7
BMG_Text
100
AcDbText
  0
CIRCLE
  5
80
330
1D
100
AcDbEntity
  8
SK2
100
AcDbCircle
 10
-62.75
 20
-2.110000514
 30
0.0
 40
1.25
  0
LINE
  5
81
330
1D
100
AcDbEntity
  8
SK2
100
AcDbLine
 10
-61.5
 20
-3.360000514
 30
0.0
 11
-64.0
 21
-0.860000514
 31
0.0
  0
LINE
  5
82
330
1D
100
AcDbEntity
  8
2
100
AcDbLine
 10
93.999999999
 20
-19.5
 30
0.0
 11
69.24999237
 21
-19.5
 31
0.0
  0
LINE
  5
83
330
1D
100
AcDbEntity
  8
2
100
AcDbLine
 10
91.999999999
 20
-19.5
 30
0.0
 11
91.549999999
 21
-16.0
 31
0.0
  0
LINE
  5
84
330
1D
100
AcDbEntity
  8
2
100
AcDbLine
 10
91.549999999
 20
-16.0
 30
0.0
 11
92.449999999
 21
-16.0
 31
0.0
  0
LINE
  5
85
330
1D
100
AcDbEntity
  8
2
100
AcDbLine
 10
92.449999999
 20
-16.0
 30
0.0
 11
91.999999999
 21
-19.5
 31
0.0
  0
LINE
  5
86
330
1D
100
AcDbEntity
  8
2
100
AcDbLine
 10
93.999999999
 20
19.5
 30
0.0
 11
69.24999237
 21
19.5
 31
0.0
  0
LINE
  5
87
330
1D
100
AcDbEntity
  8
2
100
AcDbLine
 10
91.999999999
 20
19.5
 30
0.0
 11
92.449999999
 21
16.0
 31
0.0
  0
LINE
  5
88
330
1D
100
AcDbEntity
  8
2
100
AcDbLine
 10
92.449999999
 20
16.0
 30
0.0
 11
91.549999999
 21
16.0
 31
0.0
  0
LINE
  5
89
330
1D
100
AcDbEntity
  8
2
100
AcDbLine
 10
91.549999999
 20
16.0
 30
0.0
 11
91.999999999
 21
19.5
 31
0.0
  0
LINE
  5
8A
330
1D
100
AcDbEntity
  8
2
100
AcDbLine
 10
91.999999999
 20
-16.0
 30
0.0
 11
91.999999999
 21
16.0
 31
0.0
  0
TEXT
  5
8B
330
1D
100
AcDbEntity
  8
2
100
AcDbText
 10
90.499999999
 20
0.331405814
 30
0.0
 40
3.5
  1
39
 50
90.0
  7
BMG_Text
100
AcDbText
  0
CIRCLE
  5
8C
330
1D
100
AcDbEntity
  8
2
100
AcDbCircle
 10
89.249999999
 20
-1.918594186
 30
0.0
 40
1.25
  0
LINE
  5
8D
330
1D
100
AcDbEntity
  8
2
100
AcDbLine
 10
90.499999999
 20
-3.168594186
 30
0.0
 11
87.999999999
 21
-0.668594186
 31
0.0
  0
LINE
  5
8E
330
1D
100
AcDbEntity
  8
2
100
AcDbLine
 10
85.999999999
 20
-11.0
 30
0.0
 11
69.99999237
 21
-11.0
 31
0.0
  0
LINE
  5
8F
330
1D
100
AcDbEntity
  8
2
100
AcDbLine
 10
83.999999999
 20
-11.0
 30
0.0
 11
83.549999999
 21
-7.5
 31
0.0
  0
LINE
  5
90
330
1D
100
AcDbEntity
  8
2
100
AcDbLine
 10
83.549999999
 20
-7.5
 30
0.0
 11
84.449999999
 21
-7.5
 31
0.0
  0
LINE
  5
91
330
1D
100
AcDbEntity
  8
2
100
AcDbLine
 10
84.449999999
 20
-7.5
 30
0.0
 11
83.999999999
 21
-11.0
 31
0.0
  0
LINE
  5
92
330
1D
100
AcDbEntity
  8
2
100
AcDbLine
 10
85.999999999
 20
11.0
 30
0.0
 11
69.99999237
 21
11.0
 31
0.0
  0
LINE
  5
93
330
1D
100
AcDbEntity
  8
2
100
AcDbLine
 10
83.999999999
 20
11.0
 30
0.0
 11
84.449999999
 21
7.5
 31
0.0
  0
LINE
  5
94
330
1D
100
AcDbEntity
  8
2
100
AcDbLine
 10
84.449999999
 20
7.5
 30
0.0
 11
83.549999999
 21
7.5
 31
0.0
  0
LINE
  5
95
330
1D
100
AcDbEntity
  8
2
100
AcDbLine
 10
83.549999999
 20
7.5
 30
0.0
 11
83.999999999
 21
11.0
 31
0.0
  0
LINE
  5
96
330
1D
100
AcDbEntity
  8
2
100
AcDbLine
 10
83.999999999
 20
-7.5
 30
0.0
 11
83.999999999
 21
7.5
 31
0.0
  0
TEXT
  5
97
330
1D
100
AcDbEntity
  8
2
100
AcDbText
 10
82.499999999
 20
0.085312254
 30
0.0
 40
3.5
  1
22
 50
90.0
  7
BMG_Text
100
AcDbText
  0
CIRCLE
  5
98
330
1D
100
AcDbEntity
  8
2
100
AcDbCircle
 10
81.249999999
 20
-2.164687746
 30
0.0
 40
1.25
  0
LINE
  5
99
330
1D
100
AcDbEntity
  8
2
100
AcDbLine
 10
82.499999999
 20
-3.414687746
 30
0.0
 11
79.999999999
 21
-0.914687746
 31
0.0
  0
LINE
  5
9A
330
1D
100
AcDbEntity
  8
2
100
AcDbLine
 10
0.0
 20
-62.0
 30
0.0
 11
0.0
 21
-44.0
 31
0.0
  0
LINE
  5
9B
330
1D
100
AcDbEntity
  8
2
100
AcDbLine
 10
0.0
 20
-60.0
 30
0.0
 11
3.5
 21
-59.55
 31
0.0
  0
LINE
  5
9C
330
1D
100
AcDbEntity
  8
2
100
AcDbLine
 10
3.5
 20
-59.55
 30
0.0
 11
3.5
 21
-60.45
 31
0.0
  0
LINE
  5
9D
330
1D
100
AcDbEntity
  8
2
100
AcDbLine
 10
3.5
 20
-60.45
 30
0.0
 11
0.0
 21
-60.0
 31
0.0
  0
LINE
  5
9E
330
1D
100
AcDbEntity
  8
2
100
AcDbLine
 10
17.0
 20
-62.0
 30
0.0
 11
17.0
 21
-44.0
 31
0.0
  0
LINE
  5
9F
330
1D
100
AcDbEntity
  8
2
100
AcDbLine
 10
17.0
 20
-60.0
 30
0.0
 11
13.5
 21
-60.45
 31
0.0
  0
LINE
  5
A0
330
1D
100
AcDbEntity
  8
2
100
AcDbLine
 10
13.5
 20
-60.45
 30
0.0
 11
13.5
 21
-59.55
 31
0.0
  0
LINE
  5
A1
330
1D
100
AcDbEntity
  8
2
100
AcDbLine
 10
13.5
 20
-59.55
 30
0.0
 11
17.0
 21
-60.0
 31
0.0
  0
LINE
  5
A2
330
1D
100
AcDbEntity
  8
2
100
AcDbLine
 10
3.5
 20
-60.0
 30
0.0
 11
13.5
 21
-60.0
 31
0.0
  0
TEXT
  5
A3
330
1D
100
AcDbEntity
  8
2
100
AcDbText
 10
7.21812481
 20
-58.5
 30
0.0
 40
3.5
  1
17
  7
BMG_Text
100
AcDbText
  0
LINE
  5
A4
330
1D
100
AcDbEntity
  8
2
100
AcDbLine
 10
17.0
 20
-62.0
 30
0.0
 11
17.0
 21
-44.0
 31
0.0
  0
LINE
  5
A5
330
1D
100
AcDbEntity
  8
2
100
AcDbLine
 10
17.0
 20
-60.0
 30
0.0
 11
20.5
 21
-59.55
 31
0.0
  0
LINE
  5
A6
330
1D
100
AcDbEntity
  8
2
100
AcDbLine
 10
20.5
 20
-59.55
 30
0.0
 11
20.5
 21
-60.45
 31
0.0
  0
LINE
  5
A7
330
1D
100
AcDbEntity
  8
2
100
AcDbLine
 10
20.5
 20
-60.45
 30
0.0
 11
17.0
 21
-60.0
 31
0.0
  0
LINE
  5
A8
330
1D
100
AcDbEntity
  8
2
100
AcDbLine
 10
20.5
 20
-60.0
 30
0.0
 11
75.299991607
 21
-60.0
 31
0.0
  0
TEXT
  5
A9
330
1D
100
AcDbEntity
  8
2
100
AcDbText
 10
73.6514969788406
 20
-58.5
 30
0.0
 40
3.5
  1
100
  7
BMG_Text
100
AcDbText
  0
TEXT
  5
AA
330
1D
100
AcDbEntity
  8
2
100
AcDbText
 10
31.887026402
 20
-58.5
 30
0.0
 40
3.5
  1
Ausdrehtiefe
  7
BMG_Text
100
AcDbText
  0
TEXT
  5
AB
330
1D
100
AcDbEntity
  8
SK6
100
AcDbText
 10
37.70400360265051
 20
-17.368940818
 30
0.0
 40
3.5
  1
332.741
  7
BMG_Text
100
AcDbText
  0
LINE
  5
AC
330
1D
100
AcDbEntity
  8
SK2
100
AcDbLine
 10
-44.0
 20
23.0
 30
0.0
 11
-60.0
 21
23.0
 31
0.0
  0
LINE
  5
AD
330
1D
100
AcDbEntity
  8
SK2
100
AcDbLine
 10
-44.0
 20
-23.0
 30
0.0
 11
-60.0
 21
-23.0
 31
0.0
  0
LINE
  5
AE
330
1D
100
AcDbEntity
  8
2
100
AcDbLine
 10
1.0
 20
45.0
 30
0.0
 11
-68.0
 21
45.0
 31
0.0
  0
LINE
  5
AF
330
1D
100
AcDbEntity
  8
2
100
AcDbLine
 10
0.99999237
 20
-45.0
 30
0.0
 11
-68.0
 21
-45.0
 31
0.0
  0
LINE
  5
B0
330
1D
100
AcDbEntity
  8
2
100
AcDbLine
 10
0.0
 20
44.0
 30
0.0
 11
0.0
 21
55.0
 31
0.0
  0
LINE
  5
B1
330
1D
100
AcDbEntity
  8
2
100
AcDbLine
 10
69.99999237
 20
18.75
 30
0.0
 11
69.99999237
 21
55.0
 31
0.0
  0
LINE
  5
B2
330
1D
100
AcDbEntity
  8
2
100
AcDbLine
 10
0.0
 20
-44.0
 30
0.0
 11
0.0
 21
-59.0
 31
0.0
  0
LINE
  5
B3
330
1D
100
AcDbEntity
  8
2
100
AcDbLine
 10
17.0
 20
-44.0
 30
0.0
 11
17.0
 21
-59.0
 31
0.0
  0
LINE
  5
152
330
1D
100
AcDbEntity
  8
NOCUT
100
AcDbLine
 10
12.0
 20
24.5
 30
0.0
 11
12.0
 21
44.0
 31
0.0
  0
LINE
  5
153
330
1D
100
AcDbEntity
  8
NOCUT
100
AcDbLine
 10
12.0
 20
44.0
 30
0.0
 11
11.00000763
 21
45.0
 31
0.0
  0
LINE
  5
154
330
1D
100
AcDbEntity
  8
NOCUT
100
AcDbLine
 10
11.00000763
 20
45.0
 30
0.0
 11
1.0
 21
45.0
 31
0.0
  0
LINE
  5
155
330
1D
100
AcDbEntity
  8
NOCUT
100
AcDbLine
 10
1.0
 20
45.0
 30
0.0
 11
0.0
 21
44.0
 31
0.0
  0
LINE
  5
157
330
1D
100
AcDbEntity
  8
NOCUT
100
AcDbLine
 10
0.0
 20
0.0
 30
0.0
 11
69.99999237
 21
0.0
 31
0.0
  0
LINE
  5
158
330
1D
100
AcDbEntity
  8
NOCUT
100
AcDbLine
 10
69.99999237
 20
0.0
 30
0.0
 11
69.99999237
 21
18.75
 31
0.0
  0
LINE
  5
159
330
1D
100
AcDbEntity
  8
NOCUT
100
AcDbLine
 10
69.99999237
 20
18.75
 30
0.0
 11
69.24999237
 21
19.5
 31
0.0
  0
LINE
  5
15A
330
1D
100
AcDbEntity
  8
NOCUT
100
AcDbLine
 10
69.24999237
 20
19.5
 30
0.0
 11
17.0
 21
19.5
 31
0.0
  0
ARC
  5
15B
330
1D
100
AcDbEntity
  8
NOCUT
100
AcDbCircle
 10
17.0
 20
24.5
 30
0.0
 40
5.0
100
AcDbArc
 50
180.0
 51
270.0
  0
LWPOLYLINE
  5
15D
330
1D
100
AcDbEntity
  8
INFTOTAL
100
AcDbPolyline
 90
        4
 70
     1
 43
0.0
 10
-103.9288169261757
 20
76.75259725615945
 10
-103.9288169261757
 20
-73.01745417709986
 10
121.7642704811714
 20
-73.01745417709986
 10
121.7642704811714
 20
76.75259725615945
  0
LINE
  5
19C
330
1D
100
AcDbEntity
  8
3
100
AcDbLine
 10
-0.0000000000000002
 20
8.035903729716244
 30
0.0
 11
0.02072906
 21
8.0
 31
0.0
  0
LINE
  5
19D
330
1D
100
AcDbEntity
  8
3
100
AcDbLine
 10
-0.0000000000000002
 20
-8.035903729716244
 30
0.0
 11
0.02072906
 21
-8.0
 31
0.0
  0
LINE
  5
1A3
330
1D
100
AcDbEntity
  8
4
100
AcDbLine
 10
0.0
 20
0.0
 30
0.0
 11
71.99999237
 21
0.0
 31
0.0
  0
LINE
  5
1A6
330
1D
100
AcDbEntity
  8
4
100
AcDbLine
 10
59.94997406
 20
5.0
 30
0.0
 11
59.94997406
 21
-5.0
 31
0.0
  0
LINE
  5
1C1
330
1D
100
AcDbEntity
  8
SK1
100
AcDbLine
 10
0.0
 20
-23.0
 30
0.0
 11
0.0
 21
23.0
 31
0.0
  0
LINE
  5
1CA
330
1D
100
AcDbEntity
  8
NOCUT
100
AcDbLine
 10
0.0
 20
44.0
 30
0.0
 11
0.0
 21
0.0
 31
0.0
  0
ENDSEC
  0
SECTION
  2
OBJECTS
  0
DICTIONARY
  5
C
330
0
100
AcDbDictionary
281
     1
  3
ACAD_DETAILVIEWSTYLE
350
169
  3
ACAD_GROUP
350
D
  3
ACAD_LAYOUT
350
1A
  3
ACAD_MLINESTYLE
350
17
  3
ACAD_PLOTSETTINGS
350
19
  3
ACAD_PLOTSTYLENAME
350
E
  3
ACAD_SCALELIST
350
BA
  3
ACAD_SECTIONVIEWSTYLE
350
16A
  3
AcDbVariableDictionary
350
FC
  3
APPDATA
350
14A
  3
DWGPROPS
350
1DA
  0
DICTIONARY
  5
14B
330
2
100
AcDbDictionary
280
     1
281
     1
  3
ACAD_LAYERSTATES
360
14C
  0
DICTIONARY
  5
169
102
{ACAD_REACTORS
330
C
102
}
330
C
100
AcDbDictionary
281
     1
  0
DICTIONARY
  5
D
102
{ACAD_REACTORS
330
C
102
}
330
C
100
AcDbDictionary
281
     1
  0
DICTIONARY
  5
1A
102
{ACAD_REACTORS
330
C
102
}
330
C
100
AcDbDictionary
281
     1
  3
Layout1
350
1C
  3
Model
350
1E
  0
DICTIONARY
  5
17
102
{ACAD_REACTORS
330
C
102
}
330
C
100
AcDbDictionary
281
     1
  3
Standard
350
18
  0
DICTIONARY
  5
19
102
{ACAD_REACTORS
330
C
102
}
330
C
100
AcDbDictionary
281
     1
  0
ACDBDICTIONARYWDFLT
  5
E
102
{ACAD_REACTORS
330
C
102
}
330
C
100
AcDbDictionary
281
     1
  3
Normal
350
F
100
AcDbDictionaryWithDefault
340
F
  0
DICTIONARY
  5
BA
102
{ACAD_REACTORS
330
C
102
}
330
C
100
AcDbDictionary
281
     1
  3
A0
350
BB
  3
A1
350
BC
  3
A2
350
BD
  3
A3
350
BE
  3
A4
350
BF
  3
A5
350
C0
  3
A6
350
C1
  3
A7
350
C2
  3
A8
350
C3
  3
A9
350
C4
  3
B0
350
C5
  3
B1
350
C6
  3
B2
350
C7
  3
B3
350
C8
  3
B4
350
C9
  3
B5
350
CA
  3
B6
350
CB
  3
B7
350
CC
  3
B8
350
CD
  3
B9
350
CE
  3
C0
350
CF
  3
C1
350
D0
  3
C2
350
D1
  3
C3
350
D2
  3
C4
350
D3
  3
C5
350
D4
  3
C6
350
D5
  3
C7
350
D6
  3
C8
350
D7
  3
C9
350
D8
  3
D0
350
D9
  3
D1
350
DA
  3
D2
350
DB
  0
DICTIONARY
  5
16A
102
{ACAD_REACTORS
330
C
102
}
330
C
100
AcDbDictionary
281
     1
  0
DICTIONARY
  5
FC
102
{ACAD_REACTORS
330
C
102
}
330
C
100
AcDbDictionary
281
     1
  3
DIMASSOC
350
100
  3
HIDETEXT
350
101
  0
DICTIONARY
  5
14A
102
{ACAD_REACTORS
330
C
102
}
330
C
100
AcDbDictionary
281
     1
  0
XRECORD
  5
1DA
102
{ACAD_REACTORS
330
C
102
}
330
C
100
AcDbXrecord
280
     1
  1
DWGPROPS COOKIE
  2

  3

  4

  6

  7

  8
matthias.ochs
  9

300
=
301
=
302
=
303
=
304
=
305
=
306
=
307
=
308
=
309
=
 40
0.0
 41
2458327.466094225
 42
2458589.587803565
  1

 90
        0
  0
DICTIONARY
  5
14C
102
{ACAD_REACTORS
330
14B
102
}
330
14B
100
AcDbDictionary
281
     1
  0
LAYOUT
  5
1C
102
{ACAD_REACTORS
330
1A
102
}
330
1A
100
AcDbPlotSettings
  1

  2
none_device
  4

  6

 40
0.0
 41
0.0
 42
0.0
 43
0.0
 44
0.0
 45
0.0
 46
0.0
 47
0.0
 48
0.0
 49
0.0
140
0.0
141
0.0
142
1.0
143
1.0
 70
   688
 72
     0
 73
     0
 74
     5
  7

 75
    16
147
1.0
148
0.0
149
0.0
100
AcDbLayout
  1
Layout1
 70
     1
 71
     1
 10
0.0
 20
0.0
 11
12.0
 21
9.0
 12
0.0
 22
0.0
 32
0.0
 14
1.000000000000000E+20
 24
1.000000000000000E+20
 34
1.000000000000000E+20
 15
-1.000000000000000E+20
 25
-1.000000000000000E+20
 35
-1.000000000000000E+20
146
0.0
 13
0.0
 23
0.0
 33
0.0
 16
1.0
 26
0.0
 36
0.0
 17
0.0
 27
1.0
 37
0.0
 76
     0
330
1B
  0
LAYOUT
  5
1E
102
{ACAD_REACTORS
330
1A
102
}
330
1A
100
AcDbPlotSettings
  1

  2
none_device
  4

  6

 40
0.0
 41
0.0
 42
0.0
 43
0.0
 44
0.0
 45
0.0
 46
0.0
 47
0.0
 48
0.0
 49
0.0
140
0.0
141
0.0
142
1.0
143
1.0
 70
  1712
 72
     0
 73
     0
 74
     0
  7

 75
     0
147
1.0
148
0.0
149
0.0
100
AcDbLayout
  1
Model
 70
     1
 71
     0
 10
0.0
 20
0.0
 11
12.0
 21
9.0
 12
0.0
 22
0.0
 32
0.0
 14
-103.9288169261757
 24
-73.01745417709986
 34
0.0
 15
121.7642704811714
 25
76.75259725615945
 35
0.0
146
0.0
 13
0.0
 23
0.0
 33
0.0
 16
1.0
 26
0.0
 36
0.0
 17
0.0
 27
1.0
 37
0.0
 76
     0
330
1D
331
B4
  0
MLINESTYLE
  5
18
102
{ACAD_REACTORS
330
17
102
}
330
17
100
AcDbMlineStyle
  2
Standard
 70
     0
  3

 62
   256
 51
90.0
 52
90.0
 71
     2
 49
0.5
 62
   256
  6
BYLAYER
 49
-0.5
 62
   256
  6
BYLAYER
  0
ACDBPLACEHOLDER
  5
F
102
{ACAD_REACTORS
330
E
102
}
330
E
  0
SCALE
  5
BB
102
{ACAD_REACTORS
330
BA
102
}
330
BA
100
AcDbScale
 70
     0
300
1:1
140
1.0
141
1.0
290
     1
  0
SCALE
  5
BC
102
{ACAD_REACTORS
330
BA
102
}
330
BA
100
AcDbScale
 70
     0
300
1:2
140
1.0
141
2.0
290
     0
  0
SCALE
  5
BD
102
{ACAD_REACTORS
330
BA
102
}
330
BA
100
AcDbScale
 70
     0
300
1:4
140
1.0
141
4.0
290
     0
  0
SCALE
  5
BE
102
{ACAD_REACTORS
330
BA
102
}
330
BA
100
AcDbScale
 70
     0
300
1:5
140
1.0
141
5.0
290
     0
  0
SCALE
  5
BF
102
{ACAD_REACTORS
330
BA
102
}
330
BA
100
AcDbScale
 70
     0
300
1:8
140
1.0
141
8.0
290
     0
  0
SCALE
  5
C0
102
{ACAD_REACTORS
330
BA
102
}
330
BA
100
AcDbScale
 70
     0
300
1:10
140
1.0
141
10.0
290
     0
  0
SCALE
  5
C1
102
{ACAD_REACTORS
330
BA
102
}
330
BA
100
AcDbScale
 70
     0
300
1:16
140
1.0
141
16.0
290
     0
  0
SCALE
  5
C2
102
{ACAD_REACTORS
330
BA
102
}
330
BA
100
AcDbScale
 70
     0
300
1:20
140
1.0
141
20.0
290
     0
  0
SCALE
  5
C3
102
{ACAD_REACTORS
330
BA
102
}
330
BA
100
AcDbScale
 70
     0
300
1:30
140
1.0
141
30.0
290
     0
  0
SCALE
  5
C4
102
{ACAD_REACTORS
330
BA
102
}
330
BA
100
AcDbScale
 70
     0
300
1:40
140
1.0
141
40.0
290
     0
  0
SCALE
  5
C5
102
{ACAD_REACTORS
330
BA
102
}
330
BA
100
AcDbScale
 70
     0
300
1:50
140
1.0
141
50.0
290
     0
  0
SCALE
  5
C6
102
{ACAD_REACTORS
330
BA
102
}
330
BA
100
AcDbScale
 70
     0
300
1:100
140
1.0
141
100.0
290
     0
  0
SCALE
  5
C7
102
{ACAD_REACTORS
330
BA
102
}
330
BA
100
AcDbScale
 70
     0
300
2:1
140
2.0
141
1.0
290
     0
  0
SCALE
  5
C8
102
{ACAD_REACTORS
330
BA
102
}
330
BA
100
AcDbScale
 70
     0
300
4:1
140
4.0
141
1.0
290
     0
  0
SCALE
  5
C9
102
{ACAD_REACTORS
330
BA
102
}
330
BA
100
AcDbScale
 70
     0
300
8:1
140
8.0
141
1.0
290
     0
  0
SCALE
  5
CA
102
{ACAD_REACTORS
330
BA
102
}
330
BA
100
AcDbScale
 70
     0
300
10:1
140
10.0
141
1.0
290
     0
  0
SCALE
  5
CB
102
{ACAD_REACTORS
330
BA
102
}
330
BA
100
AcDbScale
 70
     0
300
100:1
140
100.0
141
1.0
290
     0
  0
SCALE
  5
CC
102
{ACAD_REACTORS
330
BA
102
}
330
BA
100
AcDbScale
 70
     0
300
1/128" = 1'-0"
140
0.0078125
141
12.0
290
     0
  0
SCALE
  5
CD
102
{ACAD_REACTORS
330
BA
102
}
330
BA
100
AcDbScale
 70
     0
300
1/64" = 1'-0"
140
0.015625
141
12.0
290
     0
  0
SCALE
  5
CE
102
{ACAD_REACTORS
330
BA
102
}
330
BA
100
AcDbScale
 70
     0
300
1/32" = 1'-0"
140
0.03125
141
12.0
290
     0
  0
SCALE
  5
CF
102
{ACAD_REACTORS
330
BA
102
}
330
BA
100
AcDbScale
 70
     0
300
1/16" = 1'-0"
140
0.0625
141
12.0
290
     0
  0
SCALE
  5
D0
102
{ACAD_REACTORS
330
BA
102
}
330
BA
100
AcDbScale
 70
     0
300
3/32" = 1'-0"
140
0.09375
141
12.0
290
     0
  0
SCALE
  5
D1
102
{ACAD_REACTORS
330
BA
102
}
330
BA
100
AcDbScale
 70
     0
300
1/8" = 1'-0"
140
0.125
141
12.0
290
     0
  0
SCALE
  5
D2
102
{ACAD_REACTORS
330
BA
102
}
330
BA
100
AcDbScale
 70
     0
300
3/16" = 1'-0"
140
0.1875
141
12.0
290
     0
  0
SCALE
  5
D3
102
{ACAD_REACTORS
330
BA
102
}
330
BA
100
AcDbScale
 70
     0
300
1/4" = 1'-0"
140
0.25
141
12.0
290
     0
  0
SCALE
  5
D4
102
{ACAD_REACTORS
330
BA
102
}
330
BA
100
AcDbScale
 70
     0
300
3/8" = 1'-0"
140
0.375
141
12.0
290
     0
  0
SCALE
  5
D5
102
{ACAD_REACTORS
330
BA
102
}
330
BA
100
AcDbScale
 70
     0
300
1/2" = 1'-0"
140
0.5
141
12.0
290
     0
  0
SCALE
  5
D6
102
{ACAD_REACTORS
330
BA
102
}
330
BA
100
AcDbScale
 70
     0
300
3/4" = 1'-0"
140
0.75
141
12.0
290
     0
  0
SCALE
  5
D7
102
{ACAD_REACTORS
330
BA
102
}
330
BA
100
AcDbScale
 70
     0
300
1" = 1'-0"
140
1.0
141
12.0
290
     0
  0
SCALE
  5
D8
102
{ACAD_REACTORS
330
BA
102
}
330
BA
100
AcDbScale
 70
     0
300
1-1/2" = 1'-0"
140
1.5
141
12.0
290
     0
  0
SCALE
  5
D9
102
{ACAD_REACTORS
330
BA
102
}
330
BA
100
AcDbScale
 70
     0
300
3" = 1'-0"
140
3.0
141
12.0
290
     0
  0
SCALE
  5
DA
102
{ACAD_REACTORS
330
BA
102
}
330
BA
100
AcDbScale
 70
     0
300
6" = 1'-0"
140
6.0
141
12.0
290
     0
  0
SCALE
  5
DB
102
{ACAD_REACTORS
330
BA
102
}
330
BA
100
AcDbScale
 70
     0
300
1'-0" = 1'-0"
140
12.0
141
12.0
290
     0
  0
DICTIONARYVAR
  5
100
102
{ACAD_REACTORS
330
FC
102
}
330
FC
100
DictionaryVariables
280
     0
  1
2
  0
DICTIONARYVAR
  5
101
102
{ACAD_REACTORS
330
FC
102
}
330
FC
100
DictionaryVariables
280
     0
  1
1
  0
ENDSEC
  0
EOF
