  0
SECTION
  2
HEADER
  9
$ACADVER
  1
AC1015
  9
$ACADMAINTVER
 70
     6
  9
$DWGCODEPAGE
  3
ANSI_1252
  9
$INSBASE
 10
0.0
 20
0.0
 30
0.0
  9
$EXTMIN
 10
-91.17004396109067
 20
-59.68137907374764
 30
0.0
  9
$EXTMAX
 10
106.7933408541579
 20
46.71467231572129
 30
0.0
  9
$LIMMIN
 10
-53.911902926
 20
-33.277424616
  9
$LIMMAX
 10
62.38790461
 20
24.81069488
  9
$ORTHOMODE
 70
     0
  9
$REGENMODE
 70
     1
  9
$FILLMODE
 70
     1
  9
$QTEXTMODE
 70
     0
  9
$MIRRTEXT
 70
     1
  9
$LTSCALE
 40
1.0
  9
$ATTMODE
 70
     1
  9
$TEXTSIZE
 40
0.2
  9
$TRACEWID
 40
0.05
  9
$TEXTSTYLE
  7
Standard
  9
$CLAYER
  8
SK3
  9
$CELTYPE
  6
ByLayer
  9
$CECOLOR
 62
   256
  9
$CELTSCALE
 40
1.0
  9
$DISPSILH
 70
     0
  9
$DIMSCALE
 40
1.0
  9
$DIMASZ
 40
0.18
  9
$DIMEXO
 40
0.0625
  9
$DIMDLI
 40
0.38
  9
$DIMRND
 40
0.0
  9
$DIMDLE
 40
0.0
  9
$DIMEXE
 40
0.18
  9
$DIMTP
 40
0.0
  9
$DIMTM
 40
0.0
  9
$DIMTXT
 40
0.18
  9
$DIMCEN
 40
0.09
  9
$DIMTSZ
 40
0.0
  9
$DIMTOL
 70
     0
  9
$DIMLIM
 70
     0
  9
$DIMTIH
 70
     1
  9
$DIMTOH
 70
     1
  9
$DIMSE1
 70
     0
  9
$DIMSE2
 70
     0
  9
$DIMTAD
 70
     0
  9
$DIMZIN
 70
     0
  9
$DIMBLK
  1

  9
$DIMASO
 70
     1
  9
$DIMSHO
 70
     1
  9
$DIMPOST
  1

  9
$DIMAPOST
  1

  9
$DIMALT
 70
     0
  9
$DIMALTD
 70
     2
  9
$DIMALTF
 40
25.4
  9
$DIMLFAC
 40
1.0
  9
$DIMTOFL
 70
     0
  9
$DIMTVP
 40
0.0
  9
$DIMTIX
 70
     0
  9
$DIMSOXD
 70
     0
  9
$DIMSAH
 70
     0
  9
$DIMBLK1
  1

  9
$DIMBLK2
  1

  9
$DIMSTYLE
  2
Standard
  9
$DIMCLRD
 70
     0
  9
$DIMCLRE
 70
     0
  9
$DIMCLRT
 70
     0
  9
$DIMTFAC
 40
1.0
  9
$DIMGAP
 40
0.09
  9
$DIMJUST
 70
     0
  9
$DIMSD1
 70
     0
  9
$DIMSD2
 70
     0
  9
$DIMTOLJ
 70
     1
  9
$DIMTZIN
 70
     0
  9
$DIMALTZ
 70
     0
  9
$DIMALTTZ
 70
     0
  9
$DIMUPT
 70
     0
  9
$DIMDEC
 70
     4
  9
$DIMTDEC
 70
     4
  9
$DIMALTU
 70
     2
  9
$DIMALTTD
 70
     2
  9
$DIMTXSTY
  7
Standard
  9
$DIMAUNIT
 70
     0
  9
$DIMADEC
 70
     0
  9
$DIMALTRND
 40
0.0
  9
$DIMAZIN
 70
     0
  9
$DIMDSEP
 70
    46
  9
$DIMATFIT
 70
     3
  9
$DIMFRAC
 70
     0
  9
$DIMLDRBLK
  1

  9
$DIMLUNIT
 70
     2
  9
$DIMLWD
 70
    -2
  9
$DIMLWE
 70
    -2
  9
$DIMTMOVE
 70
     2
  9
$LUNITS
 70
     2
  9
$LUPREC
 70
     4
  9
$SKETCHINC
 40
0.1
  9
$FILLETRAD
 40
0.5
  9
$AUNITS
 70
     2
  9
$AUPREC
 70
     0
  9
$MENU
  1
.
  9
$ELEVATION
 40
0.0
  9
$PELEVATION
 40
0.0
  9
$THICKNESS
 40
0.0
  9
$LIMCHECK
 70
     0
  9
$CHAMFERA
 40
0.5
  9
$CHAMFERB
 40
0.5
  9
$CHAMFERC
 40
1.0
  9
$CHAMFERD
 40
0.0
  9
$SKPOLY
 70
     0
  9
$TDCREATE
 40
2458327.549414699
  9
$TDUCREATE
 40
2458327.466081366
  9
$TDUPDATE
 40
2458589.650077882
  9
$TDUUPDATE
 40
2458589.566744549
  9
$TDINDWG
 40
0.0048485764
  9
$TDUSRTIMER
 40
0.0001129398
  9
$USRTIMER
 70
     1
  9
$ANGBASE
 50
0.0
  9
$ANGDIR
 70
     0
  9
$PDMODE
 70
     0
  9
$PDSIZE
 40
0.0
  9
$PLINEWID
 40
0.0
  9
$SPLFRAME
 70
     0
  9
$SPLINETYPE
 70
     6
  9
$SPLINESEGS
 70
     8
  9
$HANDSEED
  5
237
  9
$SURFTAB1
 70
     6
  9
$SURFTAB2
 70
     6
  9
$SURFTYPE
 70
     6
  9
$SURFU
 70
     6
  9
$SURFV
 70
     6
  9
$UCSBASE
  2

  9
$UCSNAME
  2

  9
$UCSORG
 10
0.0
 20
0.0
 30
0.0
  9
$UCSXDIR
 10
1.0
 20
0.0
 30
0.0
  9
$UCSYDIR
 10
0.0
 20
1.0
 30
0.0
  9
$UCSORTHOREF
  2

  9
$UCSORTHOVIEW
 70
     0
  9
$UCSORGTOP
 10
0.0
 20
0.0
 30
0.0
  9
$UCSORGBOTTOM
 10
0.0
 20
0.0
 30
0.0
  9
$UCSORGLEFT
 10
0.0
 20
0.0
 30
0.0
  9
$UCSORGRIGHT
 10
0.0
 20
0.0
 30
0.0
  9
$UCSORGFRONT
 10
0.0
 20
0.0
 30
0.0
  9
$UCSORGBACK
 10
0.0
 20
0.0
 30
0.0
  9
$PUCSBASE
  2

  9
$PUCSNAME
  2

  9
$PUCSORG
 10
0.0
 20
0.0
 30
0.0
  9
$PUCSXDIR
 10
1.0
 20
0.0
 30
0.0
  9
$PUCSYDIR
 10
0.0
 20
1.0
 30
0.0
  9
$PUCSORTHOREF
  2

  9
$PUCSORTHOVIEW
 70
     0
  9
$PUCSORGTOP
 10
0.0
 20
0.0
 30
0.0
  9
$PUCSORGBOTTOM
 10
0.0
 20
0.0
 30
0.0
  9
$PUCSORGLEFT
 10
0.0
 20
0.0
 30
0.0
  9
$PUCSORGRIGHT
 10
0.0
 20
0.0
 30
0.0
  9
$PUCSORGFRONT
 10
0.0
 20
0.0
 30
0.0
  9
$PUCSORGBACK
 10
0.0
 20
0.0
 30
0.0
  9
$USERI1
 70
     0
  9
$USERI2
 70
     0
  9
$USERI3
 70
     0
  9
$USERI4
 70
     0
  9
$USERI5
 70
     0
  9
$USERR1
 40
0.0
  9
$USERR2
 40
0.0
  9
$USERR3
 40
0.0
  9
$USERR4
 40
0.0
  9
$USERR5
 40
0.0
  9
$WORLDVIEW
 70
     1
  9
$SHADEDGE
 70
     3
  9
$SHADEDIF
 70
    70
  9
$TILEMODE
 70
     1
  9
$MAXACTVP
 70
    64
  9
$PINSBASE
 10
0.0
 20
0.0
 30
0.0
  9
$PLIMCHECK
 70
     0
  9
$PEXTMIN
 10
1.000000000000000E+20
 20
1.000000000000000E+20
 30
1.000000000000000E+20
  9
$PEXTMAX
 10
-1.000000000000000E+20
 20
-1.000000000000000E+20
 30
-1.000000000000000E+20
  9
$PLIMMIN
 10
0.0
 20
0.0
  9
$PLIMMAX
 10
0.0
 20
0.0
  9
$UNITMODE
 70
     0
  9
$VISRETAIN
 70
     1
  9
$PLINEGEN
 70
     0
  9
$PSLTSCALE
 70
     1
  9
$TREEDEPTH
 70
  3020
  9
$CMLSTYLE
  2
Standard
  9
$CMLJUST
 70
     0
  9
$CMLSCALE
 40
1.0
  9
$PROXYGRAPHICS
 70
     1
  9
$MEASUREMENT
 70
     0
  9
$CELWEIGHT
370
    -1
  9
$ENDCAPS
280
     0
  9
$JOINSTYLE
280
     0
  9
$LWDISPLAY
290
     0
  9
$INSUNITS
 70
     0
  9
$HYPERLINKBASE
  1

  9
$STYLESHEET
  1

  9
$XEDIT
290
     1
  9
$CEPSNTYPE
380
     0
  9
$PSTYLEMODE
290
     1
  9
$FINGERPRINTGUID
  2
{C67B9BDF-4818-4297-9184-5C35DC86AA19}
  9
$VERSIONGUID
  2
{FAEB1C32-E019-11D5-929B-00C0DF256EC4}
  9
$EXTNAMES
290
     1
  9
$PSVPSCALE
 40
0.0
  9
$OLESTARTUP
290
     0
  0
ENDSEC
  0
SECTION
  2
CLASSES
  0
CLASS
  1
ACDBDICTIONARYWDFLT
  2
AcDbDictionaryWithDefault
  3
ObjectDBX Classes
 90
        0
280
     0
281
     0
  0
CLASS
  1
SCALE
  2
AcDbScale
  3
ObjectDBX Classes
 90
     1153
280
     0
281
     0
  0
CLASS
  1
VISUALSTYLE
  2
AcDbVisualStyle
  3
ObjectDBX Classes
 90
     4095
280
     0
281
     0
  0
CLASS
  1
MATERIAL
  2
AcDbMaterial
  3
ObjectDBX Classes
 90
     1153
280
     0
281
     0
  0
CLASS
  1
DICTIONARYVAR
  2
AcDbDictionaryVar
  3
ObjectDBX Classes
 90
        0
280
     0
281
     0
  0
CLASS
  1
ACDBPLACEHOLDER
  2
AcDbPlaceHolder
  3
ObjectDBX Classes
 90
        0
280
     0
281
     0
  0
CLASS
  1
LAYOUT
  2
AcDbLayout
  3
ObjectDBX Classes
 90
        0
280
     0
281
     0
  0
CLASS
  1
TABLESTYLE
  2
AcDbTableStyle
  3
ObjectDBX Classes
 90
     4095
280
     0
281
     0
  0
CLASS
  1
MLEADERSTYLE
  2
AcDbMLeaderStyle
  3
ACDB_MLEADERSTYLE_CLASS
 90
     4095
280
     0
281
     0
  0
CLASS
  1
SUN
  2
AcDbSun
  3
SCENEOE
 90
     1153
280
     0
281
     0
  0
CLASS
  1
CELLSTYLEMAP
  2
AcDbCellStyleMap
  3
ObjectDBX Classes
 90
     1152
280
     0
281
     0
  0
ENDSEC
  0
SECTION
  2
TABLES
  0
TABLE
  2
VPORT
  5
8
330
0
100
AcDbSymbolTable
 70
     1
  0
VPORT
  5
13B
330
8
100
AcDbSymbolTableRecord
100
AcDbViewportTableRecord
  2
*Active
 70
     0
 10
0.0
 20
0.0
 11
1.0
 21
1.0
 12
10.04037786151797
 22
-37.97107019619609
 13
0.0
 23
0.0
 14
0.5
 24
0.5
 15
0.5
 25
0.5
 16
0.0
 26
0.0
 36
1.0
 17
0.0
 27
0.0
 37
0.0
 40
255.7953848736354
 41
2.270231213872832
 42
50.0
 43
0.0
 44
0.0
 50
0.0
 51
0.0
 71
    16
 72
   100
 73
     1
 74
     3
 75
     0
 76
     0
 77
     0
 78
     0
281
     0
 65
     1
110
0.0
120
0.0
130
0.0
111
1.0
121
0.0
131
0.0
112
0.0
122
1.0
132
0.0
 79
     0
146
0.0
  0
ENDTAB
  0
TABLE
  2
LTYPE
  5
5
330
0
100
AcDbSymbolTable
 70
     8
  0
LTYPE
  5
14
330
5
100
AcDbSymbolTableRecord
100
AcDbLinetypeTableRecord
  2
ByBlock
 70
     0
  3

 72
    65
 73
     0
 40
0.0
  0
LTYPE
  5
15
330
5
100
AcDbSymbolTableRecord
100
AcDbLinetypeTableRecord
  2
ByLayer
 70
     0
  3

 72
    65
 73
     0
 40
0.0
  0
LTYPE
  5
16
330
5
100
AcDbSymbolTableRecord
100
AcDbLinetypeTableRecord
  2
Continuous
 70
     0
  3
Solid line
 72
    65
 73
     0
 40
0.0
  0
LTYPE
  5
20
330
5
100
AcDbSymbolTableRecord
100
AcDbLinetypeTableRecord
  2
PUNKT
 70
     0
  3
..............
 72
    65
 73
     2
 40
1.5
 49
0.7
 74
     0
 49
-0.8
 74
     0
  0
LTYPE
  5
21
330
5
100
AcDbSymbolTableRecord
100
AcDbLinetypeTableRecord
  2
GESTRICHELT
 70
     0
  3
-- -- -- -- --
 72
    65
 73
     7
 40
2.8
 49
0.9
 74
     0
 49
0.0
 74
     0
 49
0.9
 74
     0
 49
0.0
 74
     0
 49
0.2
 74
     0
 49
0.0
 74
     0
 49
-0.8
 74
     0
  0
LTYPE
  5
22
330
5
100
AcDbSymbolTableRecord
100
AcDbLinetypeTableRecord
  2
STRICHPUNKT
 70
     0
  3
--.--.--.--.--
 72
    65
 73
     4
 40
8.8
 49
5.5
 74
     0
 49
-1.3
 74
     0
 49
0.7
 74
     0
 49
-1.3
 74
     0
  0
LTYPE
  5
25
330
5
100
AcDbSymbolTableRecord
100
AcDbLinetypeTableRecord
  2
PHANTOM
 70
     0
  3
--..--..--..--
 72
    65
 73
     6
 40
14.2
 49
7.0
 74
     0
 49
-1.8
 74
     0
 49
0.9
 74
     0
 49
-1.8
 74
     0
 49
0.9
 74
     0
 49
-1.8
 74
     0
  0
LTYPE
  5
1B1
330
5
100
AcDbSymbolTableRecord
100
AcDbLinetypeTableRecord
  2
DASH
 70
     0
  3
DASH _ _ _ _ _
 72
    65
 73
     2
 40
0.75
 49
0.4
 74
     0
 49
-0.35
 74
     0
  0
LTYPE
  5
1B2
330
5
100
AcDbSymbolTableRecord
100
AcDbLinetypeTableRecord
  2
LONGDASH_DASH
 70
     0
  3
LONGDASH_DASH __ . __ . __
 72
    65
 73
     4
 40
0.85
 49
0.4
 74
     0
 49
-0.2
 74
     0
 49
0.05
 74
     0
 49
-0.2
 74
     0
  0
LTYPE
  5
1B3
330
5
100
AcDbSymbolTableRecord
100
AcDbLinetypeTableRecord
  2
LONGDASH_DASH_DASH
 70
     0
  3
LONGDASH_DASH_DASH __ . . __ . . __
 72
    65
 73
     6
 40
1.1
 49
0.4
 74
     0
 49
-0.2
 74
     0
 49
0.05
 74
     0
 49
-0.2
 74
     0
 49
0.05
 74
     0
 49
-0.2
 74
     0
  0
ENDTAB
  0
TABLE
  2
LAYER
  5
2
102
{ACAD_XDICTIONARY
360
1D0
102
}
330
0
100
AcDbSymbolTable
 70
    15
  0
LAYER
  5
17C
330
2
100
AcDbSymbolTableRecord
100
AcDbLayerTableRecord
  2
200
 70
     0
 62
     2
  6
Continuous
370
    50
390
F
  0
LAYER
  5
1B4
330
2
100
AcDbSymbolTableRecord
100
AcDbLayerTableRecord
  2
0
 70
     0
 62
     1
  6
Continuous
370
    -3
390
F
  0
LAYER
  5
1B5
330
2
100
AcDbSymbolTableRecord
100
AcDbLayerTableRecord
  2
1
 70
     0
 62
     4
  6
Continuous
370
    50
390
F
  0
LAYER
  5
1B6
330
2
100
AcDbSymbolTableRecord
100
AcDbLayerTableRecord
  2
2
 70
     0
 62
     7
  6
Continuous
370
    25
390
F
  0
LAYER
  5
1B7
330
2
100
AcDbSymbolTableRecord
100
AcDbLayerTableRecord
  2
3
 70
     0
 62
     1
  6
DASH
370
    35
390
F
  0
LAYER
  5
1B8
330
2
100
AcDbSymbolTableRecord
100
AcDbLayerTableRecord
  2
4
 70
     0
 62
     2
  6
LONGDASH_DASH
370
    25
390
F
  0
LAYER
  5
1B9
330
2
100
AcDbSymbolTableRecord
100
AcDbLayerTableRecord
  2
6
 70
     0
 62
     5
  6
Continuous
370
    -3
390
F
  0
LAYER
  5
1BA
330
2
100
AcDbSymbolTableRecord
100
AcDbLayerTableRecord
  2
CUT
 70
     0
 62
     1
  6
Continuous
370
    25
390
F
  0
LAYER
  5
1BB
330
2
100
AcDbSymbolTableRecord
100
AcDbLayerTableRecord
  2
NOCUT
 70
     0
 62
     7
  6
Continuous
370
    25
390
F
  0
LAYER
  5
1BC
330
2
100
AcDbSymbolTableRecord
100
AcDbLayerTableRecord
  2
SK1
 70
     0
 62
     4
  6
Continuous
370
    50
390
F
  0
LAYER
  5
1BD
330
2
100
AcDbSymbolTableRecord
100
AcDbLayerTableRecord
  2
SK2
 70
     0
 62
     7
  6
Continuous
370
    25
390
F
  0
LAYER
  5
1BE
330
2
100
AcDbSymbolTableRecord
100
AcDbLayerTableRecord
  2
SK3
 70
     0
 62
     1
  6
DASH
370
    35
390
F
  0
LAYER
  5
1BF
330
2
100
AcDbSymbolTableRecord
100
AcDbLayerTableRecord
  2
SK4
 70
     0
 62
     2
  6
LONGDASH_DASH
370
    25
390
F
  0
LAYER
  5
1C0
330
2
100
AcDbSymbolTableRecord
100
AcDbLayerTableRecord
  2
SK6
 70
     0
 62
     5
  6
Continuous
370
    -3
390
F
  0
LAYER
  5
1C1
330
2
100
AcDbSymbolTableRecord
100
AcDbLayerTableRecord
  2
INFTOTAL
 70
     0
 62
     9
  6
Continuous
370
    18
390
F
  0
ENDTAB
  0
TABLE
  2
STYLE
  5
3
330
0
100
AcDbSymbolTable
 70
     2
  0
STYLE
  5
11
330
3
100
AcDbSymbolTableRecord
100
AcDbTextStyleTableRecord
  2
Standard
 70
     0
 40
0.0
 41
1.0
 50
0.0
 71
     0
 42
0.2
  3
txt
  4

  0
STYLE
  5
17B
330
3
100
AcDbSymbolTableRecord
100
AcDbTextStyleTableRecord
  2
BMG_Text
 70
     0
 40
3.5
 41
1.0
 50
0.0
 71
     0
 42
0.2
  3
monos.ttf
  4

1001
ACAD
1000
Monospac821 BT
1071
       49
  0
ENDTAB
  0
TABLE
  2
VIEW
  5
6
330
0
100
AcDbSymbolTable
 70
     0
  0
ENDTAB
  0
TABLE
  2
UCS
  5
7
330
0
100
AcDbSymbolTable
 70
     0
  0
ENDTAB
  0
TABLE
  2
APPID
  5
9
330
0
100
AcDbSymbolTable
 70
     1
  0
APPID
  5
12
330
9
100
AcDbSymbolTableRecord
100
AcDbRegAppTableRecord
  2
ACAD
 70
     0
  0
ENDTAB
  0
TABLE
  2
DIMSTYLE
  5
A
330
0
100
AcDbSymbolTable
 70
     1
100
AcDbDimStyleTable
  0
DIMSTYLE
105
28
330
A
100
AcDbSymbolTableRecord
100
AcDbDimStyleTableRecord
  2
Standard
 70
     0
178
     0
340
11
  0
ENDTAB
  0
TABLE
  2
BLOCK_RECORD
  5
1
330
0
100
AcDbSymbolTable
 70
     0
  0
BLOCK_RECORD
  5
1D
330
1
100
AcDbSymbolTableRecord
100
AcDbBlockTableRecord
  2
*Model_Space
340
1E
  0
BLOCK_RECORD
  5
1B
330
1
100
AcDbSymbolTableRecord
100
AcDbBlockTableRecord
  2
*Paper_Space
340
1C
  0
ENDTAB
  0
ENDSEC
  0
SECTION
  2
BLOCKS
  0
BLOCK
  5
164
330
1D
100
AcDbEntity
  8
0
100
AcDbBlockBegin
  2
*Model_Space
 70
     0
 10
0.0
 20
0.0
 30
0.0
  3
*Model_Space
  1

  0
ENDBLK
  5
165
330
1D
100
AcDbEntity
  8
0
100
AcDbBlockEnd
  0
BLOCK
  5
162
330
1B
100
AcDbEntity
 67
     1
  8
0
100
AcDbBlockBegin
  2
*Paper_Space
 70
     0
 10
0.0
 20
0.0
 30
0.0
  3
*Paper_Space
  1

  0
ENDBLK
  5
163
330
1B
100
AcDbEntity
 67
     1
  8
0
100
AcDbBlockEnd
  0
ENDSEC
  0
SECTION
  2
ENTITIES
  0
LINE
  5
29
330
1D
100
AcDbEntity
  8
SK1
100
AcDbLine
 10
4.573206374
 20
0.0
 30
0.0
 11
-4.15220134
 21
0.0
 31
0.0
  0
ARC
  5
2A
330
1D
100
AcDbEntity
  8
1
100
AcDbCircle
 10
17.549662224
 20
2.377737841
 30
0.0
 40
7.149430876
100
AcDbArc
 50
89.997293056
 51
102.60944137
  0
LINE
  5
2B
330
1D
100
AcDbEntity
  8
1
100
AcDbLine
 10
17.55
 20
9.527168709
 30
0.0
 11
19.05
 21
9.527168709
 31
0.0
  0
ARC
  5
2C
330
1D
100
AcDbEntity
  8
1
100
AcDbCircle
 10
19.143218938
 20
-2.414049037
 30
0.0
 40
11.941581597
100
AcDbArc
 50
13.136820998
 51
90.447269564
  0
LINE
  5
2D
330
1D
100
AcDbEntity
  8
1
100
AcDbLine
 10
30.772290649
 20
0.3
 30
0.0
 11
31.047726626
 21
0.3
 31
0.0
  0
LINE
  5
2E
330
1D
100
AcDbEntity
  8
1
100
AcDbLine
 10
31.047726626
 20
0.3
 30
0.0
 11
31.032330742
 21
0.753926827
 31
0.0
  0
LINE
  5
2F
330
1D
100
AcDbEntity
  8
1
100
AcDbLine
 10
31.032330742
 20
0.753926827
 30
0.0
 11
30.843658348
 21
2.05290142
 31
0.0
  0
LINE
  5
30
330
1D
100
AcDbEntity
  8
1
100
AcDbLine
 10
30.843658348
 20
2.05290142
 30
0.0
 11
30.430028375
 21
3.335559644
 31
0.0
  0
LINE
  5
31
330
1D
100
AcDbEntity
  8
1
100
AcDbLine
 10
30.430028375
 20
3.335559644
 30
0.0
 11
29.855682928
 21
4.457038262
 31
0.0
  0
LINE
  5
32
330
1D
100
AcDbEntity
  8
1
100
AcDbLine
 10
29.855682928
 20
4.457038262
 30
0.0
 11
29.106770894
 21
5.499831142
 31
0.0
  0
LINE
  5
33
330
1D
100
AcDbEntity
  8
1
100
AcDbLine
 10
29.106770894
 20
5.499831142
 30
0.0
 11
27.897015538
 21
6.711353622
 31
0.0
  0
LINE
  5
34
330
1D
100
AcDbEntity
  8
1
100
AcDbLine
 10
27.897015538
 20
6.711353622
 30
0.0
 11
26.460887341
 21
7.733137676
 31
0.0
  0
LINE
  5
35
330
1D
100
AcDbEntity
  8
1
100
AcDbLine
 10
26.460887341
 20
7.733137676
 30
0.0
 11
25.518661346
 21
8.243054325
 31
0.0
  0
LINE
  5
36
330
1D
100
AcDbEntity
  8
1
100
AcDbLine
 10
25.518661346
 20
8.243054325
 30
0.0
 11
24.533735556
 21
8.672895754
 31
0.0
  0
LINE
  5
37
330
1D
100
AcDbEntity
  8
1
100
AcDbLine
 10
24.533735556
 20
8.672895754
 30
0.0
 11
23.484793179
 21
9.033193565
 31
0.0
  0
LINE
  5
38
330
1D
100
AcDbEntity
  8
1
100
AcDbLine
 10
23.484793179
 20
9.033193565
 30
0.0
 11
22.407648624
 21
9.31220219
 31
0.0
  0
LINE
  5
39
330
1D
100
AcDbEntity
  8
1
100
AcDbLine
 10
22.407648624
 20
9.31220219
 30
0.0
 11
20.752191638
 21
9.581240126
 31
0.0
  0
LINE
  5
3A
330
1D
100
AcDbEntity
  8
1
100
AcDbLine
 10
20.752191638
 20
9.581240126
 30
0.0
 11
19.05
 21
9.672277701
 31
0.0
  0
LINE
  5
3B
330
1D
100
AcDbEntity
  8
1
100
AcDbLine
 10
19.05
 20
9.672277701
 30
0.0
 11
17.55
 21
9.672277701
 31
0.0
  0
ARC
  5
3C
330
1D
100
AcDbEntity
  8
1
100
AcDbCircle
 10
17.489944393
 20
0.825236719
 30
0.0
 40
8.847244816
100
AcDbArc
 50
89.61106996500001
 51
119.007678726
  0
ARC
  5
3D
330
1D
100
AcDbEntity
  8
1
100
AcDbCircle
 10
17.043392033
 20
-0.125870481
 30
0.0
 40
9.500752119
100
AcDbArc
 50
113.864149333
 51
177.430860258
  0
LINE
  5
3E
330
1D
100
AcDbEntity
  8
1
100
AcDbLine
 10
7.55218952
 20
0.3
 30
0.0
 11
10.138002402
 21
0.3
 31
0.0
  0
ARC
  5
3F
330
1D
100
AcDbEntity
  8
1
100
AcDbCircle
 10
17.632
 20
0.0
 30
0.0
 40
7.5
100
AcDbArc
 50
48.70004115300001
 51
177.707557224
  0
LINE
  5
40
330
1D
100
AcDbEntity
  8
1
100
AcDbLine
 10
22.582008463
 20
5.634484557
 30
0.0
 11
23.461650564
 21
6.81398076
 31
0.0
  0
LINE
  5
41
330
1D
100
AcDbEntity
  8
1
100
AcDbLine
 10
23.461650564
 20
6.81398076
 30
0.0
 11
23.848682316
 21
7.332444708
 31
0.0
  0
ARC
  5
42
330
1D
100
AcDbEntity
  8
1
100
AcDbCircle
 10
17.625935458
 20
-0.555371892
 30
0.0
 40
10.046901472
100
AcDbArc
 50
51.729875085
 51
59.97631487499999
  0
ARC
  5
43
330
1D
100
AcDbEntity
  8
1
100
AcDbCircle
 10
17.62927424
 20
-0.549594468
 30
0.0
 40
10.040247852
100
AcDbArc
 50
59.97631487499999
 51
71.741880154
  0
ARC
  5
44
330
1D
100
AcDbEntity
  8
1
100
AcDbCircle
 10
17.632
 20
-0.541328272
 30
0.0
 40
10.031543843
100
AcDbArc
 50
71.741872984
 51
90.0
  0
ARC
  5
45
330
1D
100
AcDbEntity
  8
1
100
AcDbCircle
 10
17.632
 20
-0.541328272
 30
0.0
 40
10.031543843
100
AcDbArc
 50
90.0
 51
99.42707927200001
  0
ARC
  5
46
330
1D
100
AcDbEntity
  8
1
100
AcDbCircle
 10
17.686048356
 20
-1.928443306
 30
0.0
 40
11.41009527
100
AcDbArc
 50
98.55390613400002
 51
113.153327867
  0
LINE
  5
47
330
1D
100
AcDbEntity
  8
1
100
AcDbLine
 10
7.55218952
 20
-0.3
 30
0.0
 11
10.138002402
 21
-0.3
 31
0.0
  0
ARC
  5
48
330
1D
100
AcDbEntity
  8
1
100
AcDbCircle
 10
17.632
 20
0.0
 30
0.0
 40
7.5
100
AcDbArc
 50
182.292442776
 51
311.299958846
  0
LINE
  5
49
330
1D
100
AcDbEntity
  8
1
100
AcDbLine
 10
22.582008463
 20
-5.634484557
 30
0.0
 11
23.461650564
 21
-6.81398076
 31
0.0
  0
LINE
  5
4A
330
1D
100
AcDbEntity
  8
1
100
AcDbLine
 10
23.461650564
 20
-6.81398076
 30
0.0
 11
23.848682316
 21
-7.332444708
 31
0.0
  0
ARC
  5
4B
330
1D
100
AcDbEntity
  8
1
100
AcDbCircle
 10
17.625935458
 20
0.555371892
 30
0.0
 40
10.046901472
100
AcDbArc
 50
300.023685125
 51
308.270124915
  0
ARC
  5
4C
330
1D
100
AcDbEntity
  8
1
100
AcDbCircle
 10
17.62927424
 20
0.549594468
 30
0.0
 40
10.040247852
100
AcDbArc
 50
288.2581198459999
 51
300.023685125
  0
ARC
  5
4D
330
1D
100
AcDbEntity
  8
1
100
AcDbCircle
 10
17.632
 20
0.541328271
 30
0.0
 40
10.031543843
100
AcDbArc
 50
270.0
 51
288.258127016
  0
ARC
  5
4E
330
1D
100
AcDbEntity
  8
1
100
AcDbCircle
 10
17.632
 20
0.541328271
 30
0.0
 40
10.031543843
100
AcDbArc
 50
260.572920728
 51
270.0
  0
ARC
  5
4F
330
1D
100
AcDbEntity
  8
1
100
AcDbCircle
 10
17.549662224
 20
-2.377737841
 30
0.0
 40
7.149430876
100
AcDbArc
 50
257.39055863
 51
270.002706944
  0
LINE
  5
50
330
1D
100
AcDbEntity
  8
1
100
AcDbLine
 10
17.55
 20
-9.527168709
 30
0.0
 11
19.05
 21
-9.527168709
 31
0.0
  0
ARC
  5
51
330
1D
100
AcDbEntity
  8
1
100
AcDbCircle
 10
19.143218938
 20
2.414049037
 30
0.0
 40
11.941581597
100
AcDbArc
 50
269.552730436
 51
346.863179003
  0
LINE
  5
52
330
1D
100
AcDbEntity
  8
1
100
AcDbLine
 10
30.772290649
 20
-0.3
 30
0.0
 11
31.047726626
 21
-0.3
 31
0.0
  0
LINE
  5
53
330
1D
100
AcDbEntity
  8
1
100
AcDbLine
 10
31.047726626
 20
-0.3
 30
0.0
 11
31.032330742
 21
-0.753926827
 31
0.0
  0
LINE
  5
54
330
1D
100
AcDbEntity
  8
1
100
AcDbLine
 10
31.032330742
 20
-0.753926827
 30
0.0
 11
30.83784007
 21
-2.072478339
 31
0.0
  0
LINE
  5
55
330
1D
100
AcDbEntity
  8
1
100
AcDbLine
 10
30.83784007
 20
-2.072478339
 30
0.0
 11
30.430028375
 21
-3.335559644
 31
0.0
  0
LINE
  5
56
330
1D
100
AcDbEntity
  8
1
100
AcDbLine
 10
30.430028375
 20
-3.335559644
 30
0.0
 11
29.847655117
 21
-4.468933496
 31
0.0
  0
LINE
  5
57
330
1D
100
AcDbEntity
  8
1
100
AcDbLine
 10
29.847655117
 20
-4.468933496
 30
0.0
 11
29.106770894
 21
-5.499831142
 31
0.0
  0
LINE
  5
58
330
1D
100
AcDbEntity
  8
1
100
AcDbLine
 10
29.106770894
 20
-5.499831142
 30
0.0
 11
28.312444865
 21
-6.34103301
 31
0.0
  0
LINE
  5
59
330
1D
100
AcDbEntity
  8
1
100
AcDbLine
 10
28.312444865
 20
-6.34103301
 30
0.0
 11
27.423202322
 21
-7.086941342
 31
0.0
  0
LINE
  5
5A
330
1D
100
AcDbEntity
  8
1
100
AcDbLine
 10
27.423202322
 20
-7.086941342
 30
0.0
 11
26.460887341
 21
-7.733137676
 31
0.0
  0
LINE
  5
5B
330
1D
100
AcDbEntity
  8
1
100
AcDbLine
 10
26.460887341
 20
-7.733137676
 30
0.0
 11
25.177445379
 21
-8.402570432
 31
0.0
  0
LINE
  5
5C
330
1D
100
AcDbEntity
  8
1
100
AcDbLine
 10
25.177445379
 20
-8.402570432
 30
0.0
 11
23.817096347
 21
-8.928680635
 31
0.0
  0
LINE
  5
5D
330
1D
100
AcDbEntity
  8
1
100
AcDbLine
 10
23.817096347
 20
-8.928680635
 30
0.0
 11
22.407648624
 21
-9.31220219
 31
0.0
  0
LINE
  5
5E
330
1D
100
AcDbEntity
  8
1
100
AcDbLine
 10
22.407648624
 20
-9.31220219
 30
0.0
 11
20.740480473
 21
-9.582369417
 31
0.0
  0
LINE
  5
5F
330
1D
100
AcDbEntity
  8
1
100
AcDbLine
 10
20.740480473
 20
-9.582369417
 30
0.0
 11
19.05
 21
-9.672277701
 31
0.0
  0
LINE
  5
60
330
1D
100
AcDbEntity
  8
1
100
AcDbLine
 10
19.05
 20
-9.672277701
 30
0.0
 11
17.55
 21
-9.672277701
 31
0.0
  0
ARC
  5
61
330
1D
100
AcDbEntity
  8
1
100
AcDbCircle
 10
17.489944393
 20
-0.825236719
 30
0.0
 40
8.847244816
100
AcDbArc
 50
240.992321274
 51
270.388930035
  0
ARC
  5
62
330
1D
100
AcDbEntity
  8
1
100
AcDbCircle
 10
17.084716123
 20
0.154115379
 30
0.0
 40
9.543337164
100
AcDbArc
 50
182.727423672
 51
245.977566737
  0
LINE
  5
63
330
1D
100
AcDbEntity
  8
1
100
AcDbLine
 10
7.55218952
 20
-0.3
 30
0.0
 11
4.3
 21
-0.3
 31
0.0
  0
ARC
  5
64
330
1D
100
AcDbEntity
  8
1
100
AcDbCircle
 10
4.3
 20
0.0
 30
0.0
 40
0.3
100
AcDbArc
 50
90.0
 51
270.0
  0
LINE
  5
65
330
1D
100
AcDbEntity
  8
1
100
AcDbLine
 10
4.3
 20
0.3
 30
0.0
 11
7.55218952
 21
0.3
 31
0.0
  0
LINE
  5
66
330
1D
100
AcDbEntity
  8
1
100
AcDbLine
 10
30.772290649
 20
0.3
 30
0.0
 11
28.707039284
 21
0.3
 31
0.0
  0
ARC
  5
67
330
1D
100
AcDbEntity
  8
1
100
AcDbCircle
 10
21.36931206
 20
-0.41930688
 30
0.0
 40
7.37289924
100
AcDbArc
 50
5.598734985
 51
26.196211845
  0
ARC
  5
68
330
1D
100
AcDbEntity
  8
1
100
AcDbCircle
 10
21.380829188
 20
-0.413574718
 30
0.0
 40
7.360029017
100
AcDbArc
 50
26.195750979
 51
44.97273319999999
  0
ARC
  5
69
330
1D
100
AcDbEntity
  8
1
100
AcDbCircle
 10
21.38614768
 20
-0.408261286
 30
0.0
 40
7.352511109
100
AcDbArc
 50
44.97273319999999
 51
45.927167129
  0
ARC
  5
6A
330
1D
100
AcDbEntity
  8
1
100
AcDbCircle
 10
19.036024487
 20
-0.517412578
 30
0.0
 40
9.20791002
100
AcDbArc
 50
35.841217633
 51
44.97273319999999
  0
ARC
  5
6B
330
1D
100
AcDbEntity
  8
1
100
AcDbCircle
 10
19.042678315
 20
-0.51076508
 30
0.0
 40
9.198535498
100
AcDbArc
 50
44.97273319999999
 51
58.50170553800001
  0
LINE
  5
6C
330
1D
100
AcDbEntity
  8
SK1
100
AcDbLine
 10
-43.7
 20
-0.3
 30
0.0
 11
-43.7
 21
-23.0
 31
0.0
  0
LINE
  5
6E
330
1D
100
AcDbEntity
  8
1
100
AcDbLine
 10
43.7
 20
-23.0
 30
0.0
 11
46.305707514
 21
-22.633791691
 31
0.0
  0
LINE
  5
6F
330
1D
100
AcDbEntity
  8
1
100
AcDbLine
 10
46.305707514
 20
-22.633791691
 30
0.0
 11
48.279186621
 21
-22.981769304
 31
0.0
  0
ARC
  5
70
330
1D
100
AcDbEntity
  8
1
100
AcDbCircle
 10
48.487564435
 20
-21.8
 30
0.0
 40
1.2
100
AcDbArc
 50
260.0
 51
330.000000001
  0
LINE
  5
71
330
1D
100
AcDbEntity
  8
1
100
AcDbLine
 10
49.526794919
 20
-22.4
 30
0.0
 11
49.7
 21
-22.1
 31
0.0
  0
LINE
  5
72
330
1D
100
AcDbEntity
  8
1
100
AcDbLine
 10
49.7
 20
-22.1
 30
0.0
 11
49.7
 21
22.1
 31
0.0
  0
LINE
  5
73
330
1D
100
AcDbEntity
  8
1
100
AcDbLine
 10
49.7
 20
22.1
 30
0.0
 11
49.526794919
 21
22.4
 31
0.0
  0
ARC
  5
74
330
1D
100
AcDbEntity
  8
1
100
AcDbCircle
 10
48.487564435
 20
21.8
 30
0.0
 40
1.2
100
AcDbArc
 50
30.0
 51
100.0
  0
LINE
  5
75
330
1D
100
AcDbEntity
  8
1
100
AcDbLine
 10
48.279186621
 20
22.981769304
 30
0.0
 11
46.305707514
 21
22.633791691
 31
0.0
  0
LINE
  5
76
330
1D
100
AcDbEntity
  8
1
100
AcDbLine
 10
46.305707514
 20
22.633791691
 30
0.0
 11
43.7
 21
23.0
 31
0.0
  0
LINE
  5
78
330
1D
100
AcDbEntity
  8
SK1
100
AcDbLine
 10
-43.7
 20
23.0
 30
0.0
 11
-46.305707514
 21
22.633791691
 31
0.0
  0
LINE
  5
79
330
1D
100
AcDbEntity
  8
SK1
100
AcDbLine
 10
-46.305707514
 20
22.633791691
 30
0.0
 11
-48.279186621
 21
22.981769304
 31
0.0
  0
ARC
  5
7A
330
1D
100
AcDbEntity
  8
SK1
100
AcDbCircle
 10
-48.487564435
 20
21.8
 30
0.0
 40
1.2
100
AcDbArc
 50
80.0
 51
149.999999999
  0
LINE
  5
7B
330
1D
100
AcDbEntity
  8
SK1
100
AcDbLine
 10
-49.526794919
 20
22.4
 30
0.0
 11
-49.7
 21
22.1
 31
0.0
  0
LINE
  5
7C
330
1D
100
AcDbEntity
  8
SK1
100
AcDbLine
 10
-49.7
 20
22.1
 30
0.0
 11
-49.7
 21
-22.1
 31
0.0
  0
LINE
  5
7D
330
1D
100
AcDbEntity
  8
SK1
100
AcDbLine
 10
-49.7
 20
-22.1
 30
0.0
 11
-49.526794919
 21
-22.4
 31
0.0
  0
ARC
  5
7E
330
1D
100
AcDbEntity
  8
SK1
100
AcDbCircle
 10
-48.487564435
 20
-21.8
 30
0.0
 40
1.2
100
AcDbArc
 50
210.0
 51
279.999999999
  0
LINE
  5
7F
330
1D
100
AcDbEntity
  8
SK1
100
AcDbLine
 10
-48.279186621
 20
-22.981769304
 30
0.0
 11
-46.305707514
 21
-22.633791691
 31
0.0
  0
LINE
  5
80
330
1D
100
AcDbEntity
  8
SK1
100
AcDbLine
 10
-46.305707514
 20
-22.633791691
 30
0.0
 11
-43.7
 21
-23.0
 31
0.0
  0
LINE
  5
81
330
1D
100
AcDbEntity
  8
1
100
AcDbLine
 10
24.411376126
 20
-3.207812235
 30
0.0
 11
24.735573165
 21
-2.406085678
 31
0.0
  0
ARC
  5
82
330
1D
100
AcDbEntity
  8
1
100
AcDbCircle
 10
21.696221478
 20
0.017376236
 30
0.0
 40
3.887264633
100
AcDbArc
 50
321.4324915089998
 51
355.316865727
  0
LINE
  5
83
330
1D
100
AcDbEntity
  8
1
100
AcDbLine
 10
25.570508335
 20
-0.3
 30
0.0
 11
28.707039284
 21
-0.3
 31
0.0
  0
ARC
  5
84
330
1D
100
AcDbEntity
  8
1
100
AcDbCircle
 10
21.36931206
 20
0.41930688
 30
0.0
 40
7.37289924
100
AcDbArc
 50
333.803788154
 51
354.401265015
  0
ARC
  5
85
330
1D
100
AcDbEntity
  8
1
100
AcDbCircle
 10
21.380829188
 20
0.413574718
 30
0.0
 40
7.360029017
100
AcDbArc
 50
315.0272668
 51
333.804249021
  0
ARC
  5
86
330
1D
100
AcDbEntity
  8
1
100
AcDbCircle
 10
21.38614768
 20
0.408261285
 30
0.0
 40
7.352511109
100
AcDbArc
 50
314.0728328700001
 51
315.0272668
  0
LINE
  5
87
330
1D
100
AcDbEntity
  8
1
100
AcDbLine
 10
26.50035045
 20
-4.874196165
 30
0.0
 11
25.882265906
 21
-4.383279263
 31
0.0
  0
LINE
  5
88
330
1D
100
AcDbEntity
  8
1
100
AcDbLine
 10
25.882265906
 20
-4.383279263
 30
0.0
 11
24.411376126
 21
-3.207812235
 31
0.0
  0
ARC
  5
89
330
1D
100
AcDbEntity
  8
1
100
AcDbCircle
 10
17.686048356
 20
1.928443305
 30
0.0
 40
11.41009527
100
AcDbArc
 50
246.846672133
 51
261.446093866
  0
LINE
  5
8A
330
1D
100
AcDbEntity
  8
1
100
AcDbLine
 10
31.047726626
 20
-0.3
 30
0.0
 11
43.7
 21
-0.3
 31
0.0
  0
LINE
  5
8B
330
1D
100
AcDbEntity
  8
1
100
AcDbLine
 10
43.7
 20
-0.3
 30
0.0
 11
45.7
 21
-0.3
 31
0.0
  0
ARC
  5
8C
330
1D
100
AcDbEntity
  8
1
100
AcDbCircle
 10
45.7
 20
0.0
 30
0.0
 40
0.3
100
AcDbArc
 50
270.0
 51
90.0
  0
LINE
  5
8D
330
1D
100
AcDbEntity
  8
1
100
AcDbLine
 10
45.7
 20
0.3
 30
0.0
 11
43.7
 21
0.3
 31
0.0
  0
LINE
  5
8E
330
1D
100
AcDbEntity
  8
1
100
AcDbLine
 10
43.7
 20
0.3
 30
0.0
 11
43.7
 21
23.0
 31
0.0
  0
LINE
  5
8F
330
1D
100
AcDbEntity
  8
1
100
AcDbLine
 10
28.707039284
 20
0.3
 30
0.0
 11
25.570508335
 21
0.3
 31
0.0
  0
ARC
  5
90
330
1D
100
AcDbEntity
  8
1
100
AcDbCircle
 10
21.69062214
 20
-0.019596033
 30
0.0
 40
3.893026908
100
AcDbArc
 50
4.708966913
 51
38.541675852
  0
LINE
  5
91
330
1D
100
AcDbEntity
  8
1
100
AcDbLine
 10
24.735573165
 20
2.406085678
 30
0.0
 11
24.411376126
 21
3.207812235
 31
0.0
  0
LINE
  5
92
330
1D
100
AcDbEntity
  8
1
100
AcDbLine
 10
24.411376126
 20
3.207812235
 30
0.0
 11
25.882265906
 21
4.383279263
 31
0.0
  0
LINE
  5
93
330
1D
100
AcDbEntity
  8
1
100
AcDbLine
 10
25.882265906
 20
4.383279263
 30
0.0
 11
26.50035045
 21
4.874196165
 31
0.0
  0
ARC
  5
94
330
1D
100
AcDbEntity
  8
1
100
AcDbCircle
 10
19.042678315
 20
0.51076508
 30
0.0
 40
9.19856588
100
AcDbArc
 50
301.498294462
 51
315.0272668
  0
ARC
  5
95
330
1D
100
AcDbEntity
  8
1
100
AcDbCircle
 10
19.036024487
 20
0.517412578
 30
0.0
 40
9.207940956
100
AcDbArc
 50
315.0272668
 51
324.158782367
  0
ARC
  5
96
330
1D
100
AcDbEntity
  8
1
100
AcDbCircle
 10
17.632
 20
0.0
 30
0.0
 40
7.5
100
AcDbArc
 50
311.299958846
 51
334.677789343
  0
ARC
  5
97
330
1D
100
AcDbEntity
  8
1
100
AcDbCircle
 10
17.632
 20
0.0
 30
0.0
 40
7.5
100
AcDbArc
 50
18.712003447
 51
25.322210657
  0
ARC
  5
98
330
1D
100
AcDbEntity
  8
1
100
AcDbCircle
 10
17.632
 20
0.0
 30
0.0
 40
7.5
100
AcDbArc
 50
25.322210657
 51
48.700041154
  0
LINE
  5
99
330
1D
100
AcDbEntity
  8
SK1
100
AcDbLine
 10
-43.7
 20
0.3
 30
0.0
 11
-43.7
 21
23.0
 31
0.0
  0
LINE
  5
9A
330
1D
100
AcDbEntity
  8
1
100
AcDbLine
 10
43.7
 20
0.3
 30
0.0
 11
31.047726626
 21
0.3
 31
0.0
  0
LINE
  5
9B
330
1D
100
AcDbEntity
  8
1
100
AcDbLine
 10
43.7
 20
-23.0
 30
0.0
 11
43.7
 21
-0.3
 31
0.0
  0
LINE
  5
9C
330
1D
100
AcDbEntity
  8
1
100
AcDbLine
 10
46.305707514
 20
-22.633791691
 30
0.0
 11
46.305707514
 21
22.633791691
 31
0.0
  0
LINE
  5
9D
330
1D
100
AcDbEntity
  8
SK1
100
AcDbLine
 10
-46.305707514
 20
-22.633791691
 30
0.0
 11
-46.305707514
 21
22.633791691
 31
0.0
  0
LINE
  5
9E
330
1D
100
AcDbEntity
  8
1
100
AcDbLine
 10
28.707039284
 20
-0.3
 30
0.0
 11
30.772290649
 21
-0.3
 31
0.0
  0
LINE
  5
9F
330
1D
100
AcDbEntity
  8
1
100
AcDbLine
 10
19.05
 20
9.672277701
 30
0.0
 11
19.05
 21
9.527168709
 31
0.0
  0
LINE
  5
A0
330
1D
100
AcDbEntity
  8
1
100
AcDbLine
 10
19.05
 20
-9.672277701
 30
0.0
 11
19.05
 21
-9.527168709
 31
0.0
  0
LINE
  5
A1
330
1D
100
AcDbEntity
  8
1
100
AcDbLine
 10
17.55
 20
-9.672277701
 30
0.0
 11
17.55
 21
-9.527168709
 31
0.0
  0
LINE
  5
A2
330
1D
100
AcDbEntity
  8
1
100
AcDbLine
 10
17.55
 20
9.672277701
 30
0.0
 11
17.55
 21
9.527168709
 31
0.0
  0
LINE
  5
A3
330
1D
100
AcDbEntity
  8
SK3
  6
DASH
370
    35
100
AcDbLine
 10
-49.7
 20
-11.05
 30
0.0
 11
0.0
 21
-11.05
 31
0.0
  0
LINE
  5
A4
330
1D
100
AcDbEntity
  8
SK3
  6
DASH
370
    35
100
AcDbLine
 10
0.0
 20
11.05
 30
0.0
 11
-49.7
 21
11.05
 31
0.0
  0
LINE
  5
A6
330
1D
100
AcDbEntity
  8
SK4
100
AcDbLine
 10
-52.771708735
 20
0.0
 30
0.0
 11
51.678228668
 21
0.0
 31
0.0
  0
LINE
  5
A7
330
1D
100
AcDbEntity
  8
2
  6
Continuous
370
    25
100
AcDbLine
 10
63.247710419
 20
-23.0
 30
0.0
 11
43.7
 21
-23.0
 31
0.0
  0
LINE
  5
A8
330
1D
100
AcDbEntity
  8
2
  6
Continuous
370
    25
100
AcDbLine
 10
61.247710419
 20
-23.0
 30
0.0
 11
60.797710419
 21
-19.5
 31
0.0
  0
LINE
  5
A9
330
1D
100
AcDbEntity
  8
2
  6
Continuous
370
    25
100
AcDbLine
 10
60.797710419
 20
-19.5
 30
0.0
 11
61.697710419
 21
-19.5
 31
0.0
  0
LINE
  5
AA
330
1D
100
AcDbEntity
  8
2
  6
Continuous
370
    25
100
AcDbLine
 10
61.697710419
 20
-19.5
 30
0.0
 11
61.247710419
 21
-23.0
 31
0.0
  0
LINE
  5
AB
330
1D
100
AcDbEntity
  8
2
  6
Continuous
370
    25
100
AcDbLine
 10
63.247710419
 20
23.0
 30
0.0
 11
43.7
 21
23.0
 31
0.0
  0
LINE
  5
AC
330
1D
100
AcDbEntity
  8
2
  6
Continuous
370
    25
100
AcDbLine
 10
61.247710419
 20
23.0
 30
0.0
 11
61.697710419
 21
19.5
 31
0.0
  0
LINE
  5
AD
330
1D
100
AcDbEntity
  8
2
  6
Continuous
370
    25
100
AcDbLine
 10
61.697710419
 20
19.5
 30
0.0
 11
60.797710419
 21
19.5
 31
0.0
  0
LINE
  5
AE
330
1D
100
AcDbEntity
  8
2
  6
Continuous
370
    25
100
AcDbLine
 10
60.797710419
 20
19.5
 30
0.0
 11
61.247710419
 21
23.0
 31
0.0
  0
LINE
  5
AF
330
1D
100
AcDbEntity
  8
2
  6
Continuous
370
    25
100
AcDbLine
 10
61.247710419
 20
-19.5
 30
0.0
 11
61.247710419
 21
19.5
 31
0.0
  0
TEXT
  5
B0
330
1D
100
AcDbEntity
  8
2
  6
Continuous
370
    25
100
AcDbText
 10
59.747710419
 20
0.139999486
 30
0.0
 40
3.5
  1
46
 50
90.0
  7
BMG_Text
100
AcDbText
  0
CIRCLE
  5
B1
330
1D
100
AcDbEntity
  8
2
  6
Continuous
370
    25
100
AcDbCircle
 10
58.497710419
 20
-2.110000514
 30
0.0
 40
1.25
  0
LINE
  5
B2
330
1D
100
AcDbEntity
  8
2
  6
Continuous
370
    25
100
AcDbLine
 10
59.747710419
 20
-3.360000514
 30
0.0
 11
57.247710419
 21
-0.860000514
 31
0.0
  0
LINE
  5
B3
330
1D
100
AcDbEntity
  8
1
  6
Continuous
370
    50
100
AcDbLine
 10
0.0
 20
-4.573206374
 30
0.0
 11
0.0
 21
4.15220134
 31
0.0
  0
TEXT
  5
B4
330
1D
100
AcDbEntity
  8
SK6
100
AcDbText
 10
7.469743478000069
 20
-20.697731373
 30
0.0
 40
3.5
  1
331.874N
  7
BMG_Text
100
AcDbText
  0
LINE
  5
B5
330
1D
100
AcDbEntity
  8
2
  6
Continuous
370
    25
100
AcDbLine
 10
-49.7
 20
-33.466729736
 30
0.0
 11
-49.7
 21
-22.1
 31
0.0
  0
LINE
  5
B6
330
1D
100
AcDbEntity
  8
2
  6
Continuous
370
    25
100
AcDbLine
 10
-49.7
 20
-31.466729736
 30
0.0
 11
-46.2
 21
-31.016729736
 31
0.0
  0
LINE
  5
B7
330
1D
100
AcDbEntity
  8
2
  6
Continuous
370
    25
100
AcDbLine
 10
-46.2
 20
-31.016729736
 30
0.0
 11
-46.2
 21
-31.916729736
 31
0.0
  0
LINE
  5
B8
330
1D
100
AcDbEntity
  8
2
  6
Continuous
370
    25
100
AcDbLine
 10
-46.2
 20
-31.916729736
 30
0.0
 11
-49.7
 21
-31.466729736
 31
0.0
  0
LINE
  5
B9
330
1D
100
AcDbEntity
  8
2
  6
Continuous
370
    25
100
AcDbLine
 10
49.7
 20
-33.466729736
 30
0.0
 11
49.7
 21
-22.1
 31
0.0
  0
LINE
  5
BA
330
1D
100
AcDbEntity
  8
2
  6
Continuous
370
    25
100
AcDbLine
 10
49.7
 20
-31.466729736
 30
0.0
 11
46.2
 21
-31.916729736
 31
0.0
  0
LINE
  5
BB
330
1D
100
AcDbEntity
  8
2
  6
Continuous
370
    25
100
AcDbLine
 10
46.2
 20
-31.916729736
 30
0.0
 11
46.2
 21
-31.016729736
 31
0.0
  0
LINE
  5
BC
330
1D
100
AcDbEntity
  8
2
  6
Continuous
370
    25
100
AcDbLine
 10
46.2
 20
-31.016729736
 30
0.0
 11
49.7
 21
-31.466729736
 31
0.0
  0
LINE
  5
BD
330
1D
100
AcDbEntity
  8
2
  6
Continuous
370
    25
100
AcDbLine
 10
-46.2
 20
-31.466729736
 30
0.0
 11
46.2
 21
-31.466729736
 31
0.0
  0
TEXT
  5
BE
330
1D
100
AcDbEntity
  8
2
  6
Continuous
370
    25
100
AcDbText
 10
-3.168594861
 20
-29.966729736
 30
0.0
 40
3.5
  1
99.4
  7
BMG_Text
100
AcDbText
  0
LINE
  5
BF
330
1D
100
AcDbEntity
  8
SK1
100
AcDbLine
 10
-7.327709138
 20
0.300001205
 30
0.0
 11
-7.052272349
 21
0.300001205
 31
0.0
  0
ARC
  5
C0
330
1D
100
AcDbEntity
  8
SK1
100
AcDbCircle
 10
-19.049999095
 20
-2.493417882
 30
0.0
 40
12.050529948
100
AcDbArc
 50
13.403587765
 51
166.596412235
  0
LINE
  5
C1
330
1D
100
AcDbEntity
  8
SK1
100
AcDbLine
 10
-31.047725841
 20
0.300001205
 30
0.0
 11
-30.772289052
 21
0.300001205
 31
0.0
  0
LINE
  5
C2
330
1D
100
AcDbEntity
  8
SK1
100
AcDbLine
 10
-7.052272349
 20
0.300001205
 30
0.0
 11
-7.059383929
 21
0.595063114
 31
0.0
  0
LINE
  5
C3
330
1D
100
AcDbEntity
  8
SK1
100
AcDbLine
 10
-7.059383929
 20
0.595063114
 30
0.0
 11
-7.229782432
 21
1.927610164
 31
0.0
  0
LINE
  5
C4
330
1D
100
AcDbEntity
  8
SK1
100
AcDbLine
 10
-7.229782432
 20
1.927610164
 30
0.0
 11
-7.617901802
 21
3.208093838
 31
0.0
  0
LINE
  5
C5
330
1D
100
AcDbEntity
  8
SK1
100
AcDbLine
 10
-7.617901802
 20
3.208093838
 30
0.0
 11
-8.180416912
 21
4.349557477
 31
0.0
  0
LINE
  5
C6
330
1D
100
AcDbEntity
  8
SK1
100
AcDbLine
 10
-8.180416912
 20
4.349557477
 30
0.0
 11
-8.903633594
 21
5.390628501
 31
0.0
  0
LINE
  5
C7
330
1D
100
AcDbEntity
  8
SK1
100
AcDbLine
 10
-8.903633594
 20
5.390628501
 30
0.0
 11
-9.676210373
 21
6.234667524
 31
0.0
  0
LINE
  5
C8
330
1D
100
AcDbEntity
  8
SK1
100
AcDbLine
 10
-9.676210373
 20
6.234667524
 30
0.0
 11
-10.543897539
 21
6.985774058
 31
0.0
  0
LINE
  5
C9
330
1D
100
AcDbEntity
  8
SK1
100
AcDbLine
 10
-10.543897539
 20
6.985774058
 30
0.0
 11
-11.485203892
 21
7.63919277
 31
0.0
  0
LINE
  5
CA
330
1D
100
AcDbEntity
  8
SK1
100
AcDbLine
 10
-11.485203892
 20
7.63919277
 30
0.0
 11
-12.747484982
 21
8.322070612
 31
0.0
  0
LINE
  5
CB
330
1D
100
AcDbEntity
  8
SK1
100
AcDbLine
 10
-12.747484982
 20
8.322070612
 30
0.0
 11
-14.088220686
 21
8.863451219
 31
0.0
  0
LINE
  5
CC
330
1D
100
AcDbEntity
  8
SK1
100
AcDbLine
 10
-14.088220686
 20
8.863451219
 30
0.0
 11
-15.479810327
 21
9.263968355
 31
0.0
  0
LINE
  5
CD
330
1D
100
AcDbEntity
  8
SK1
100
AcDbLine
 10
-15.479810327
 20
9.263968355
 30
0.0
 11
-16.923427373
 21
9.529454893
 31
0.0
  0
LINE
  5
CE
330
1D
100
AcDbEntity
  8
SK1
100
AcDbLine
 10
-16.923427373
 20
9.529454893
 30
0.0
 11
-18.393140077
 21
9.658495224
 31
0.0
  0
LINE
  5
CF
330
1D
100
AcDbEntity
  8
SK1
100
AcDbLine
 10
-18.393140077
 20
9.658495224
 30
0.0
 11
-19.865873992
 21
9.651452563
 31
0.0
  0
LINE
  5
D0
330
1D
100
AcDbEntity
  8
SK1
100
AcDbLine
 10
-19.865873992
 20
9.651452563
 30
0.0
 11
-21.473319992
 21
9.486264809
 31
0.0
  0
LINE
  5
D1
330
1D
100
AcDbEntity
  8
SK1
100
AcDbLine
 10
-21.473319992
 20
9.486264809
 30
0.0
 11
-23.055022374
 21
9.154554716
 31
0.0
  0
LINE
  5
D2
330
1D
100
AcDbEntity
  8
SK1
100
AcDbLine
 10
-23.055022374
 20
9.154554716
 30
0.0
 11
-24.57878904
 21
8.655278272
 31
0.0
  0
LINE
  5
D3
330
1D
100
AcDbEntity
  8
SK1
100
AcDbLine
 10
-24.57878904
 20
8.655278272
 30
0.0
 11
-25.769142225
 21
8.117299787
 31
0.0
  0
LINE
  5
D4
330
1D
100
AcDbEntity
  8
SK1
100
AcDbLine
 10
-25.769142225
 20
8.117299787
 30
0.0
 11
-26.895867452
 21
7.458489182
 31
0.0
  0
LINE
  5
D5
330
1D
100
AcDbEntity
  8
SK1
100
AcDbLine
 10
-26.895867452
 20
7.458489182
 30
0.0
 11
-27.934150562
 21
6.679934709
 31
0.0
  0
LINE
  5
D6
330
1D
100
AcDbEntity
  8
SK1
100
AcDbLine
 10
-27.934150562
 20
6.679934709
 30
0.0
 11
-29.018202588
 21
5.603283903
 31
0.0
  0
LINE
  5
D7
330
1D
100
AcDbEntity
  8
SK1
100
AcDbLine
 10
-29.018202588
 20
5.603283903
 30
0.0
 11
-29.913129076
 21
4.361725672
 31
0.0
  0
LINE
  5
D8
330
1D
100
AcDbEntity
  8
SK1
100
AcDbLine
 10
-29.913129076
 20
4.361725672
 30
0.0
 11
-30.383221596
 21
3.440999453
 31
0.0
  0
LINE
  5
D9
330
1D
100
AcDbEntity
  8
SK1
100
AcDbLine
 10
-30.383221596
 20
3.440999453
 30
0.0
 11
-30.736341864
 21
2.460320041
 31
0.0
  0
LINE
  5
DA
330
1D
100
AcDbEntity
  8
SK1
100
AcDbLine
 10
-30.736341864
 20
2.460320041
 30
0.0
 11
-30.959525868
 21
1.443250597
 31
0.0
  0
LINE
  5
DB
330
1D
100
AcDbEntity
  8
SK1
100
AcDbLine
 10
-30.959525868
 20
1.443250597
 30
0.0
 11
-31.047725841
 21
0.300001205
 31
0.0
  0
ARC
  5
DC
330
1D
100
AcDbEntity
  8
SK1
100
AcDbCircle
 10
-19.049999095
 20
2.493420264
 30
0.0
 40
12.050529948
100
AcDbArc
 50
193.403587765
 51
346.596412235
  0
LINE
  5
DD
330
1D
100
AcDbEntity
  8
SK1
100
AcDbLine
 10
-7.327709138
 20
-0.299998823
 30
0.0
 11
-7.052272349
 21
-0.299998823
 31
0.0
  0
LINE
  5
DE
330
1D
100
AcDbEntity
  8
SK1
100
AcDbLine
 10
-7.052272349
 20
-0.299998823
 30
0.0
 11
-7.060069382
 21
-0.610966325
 31
0.0
  0
LINE
  5
DF
330
1D
100
AcDbEntity
  8
SK1
100
AcDbLine
 10
-7.060069382
 20
-0.610966325
 30
0.0
 11
-7.232889324
 21
-1.942080535
 31
0.0
  0
LINE
  5
E0
330
1D
100
AcDbEntity
  8
SK1
100
AcDbLine
 10
-7.232889324
 20
-1.942080535
 30
0.0
 11
-7.622975647
 21
-3.220787478
 31
0.0
  0
LINE
  5
E1
330
1D
100
AcDbEntity
  8
SK1
100
AcDbLine
 10
-7.622975647
 20
-3.220787478
 30
0.0
 11
-8.187453985
 21
-4.361432717
 31
0.0
  0
LINE
  5
E2
330
1D
100
AcDbEntity
  8
SK1
100
AcDbLine
 10
-8.187453985
 20
-4.361432717
 30
0.0
 11
-8.912410378
 21
-5.401480218
 31
0.0
  0
LINE
  5
E3
330
1D
100
AcDbEntity
  8
SK1
100
AcDbLine
 10
-8.912410378
 20
-5.401480218
 30
0.0
 11
-9.68713665
 21
-6.24525102
 31
0.0
  0
LINE
  5
E4
330
1D
100
AcDbEntity
  8
SK1
100
AcDbLine
 10
-9.68713665
 20
-6.24525102
 30
0.0
 11
-10.556954682
 21
-6.995856502
 31
0.0
  0
LINE
  5
E5
330
1D
100
AcDbEntity
  8
SK1
100
AcDbLine
 10
-10.556954682
 20
-6.995856502
 30
0.0
 11
-11.500339746
 21
-7.648572997
 31
0.0
  0
LINE
  5
E6
330
1D
100
AcDbEntity
  8
SK1
100
AcDbLine
 10
-11.500339746
 20
-7.648572997
 30
0.0
 11
-12.764736801
 21
-8.330141866
 31
0.0
  0
LINE
  5
E7
330
1D
100
AcDbEntity
  8
SK1
100
AcDbLine
 10
-12.764736801
 20
-8.330141866
 30
0.0
 11
-14.107439458
 21
-8.870030494
 31
0.0
  0
LINE
  5
E8
330
1D
100
AcDbEntity
  8
SK1
100
AcDbLine
 10
-14.107439458
 20
-8.870030494
 30
0.0
 11
-15.500828415
 21
-9.268881494
 31
0.0
  0
LINE
  5
E9
330
1D
100
AcDbEntity
  8
SK1
100
AcDbLine
 10
-15.500828415
 20
-9.268881494
 30
0.0
 11
-16.945987731
 21
-9.532484898
 31
0.0
  0
LINE
  5
EA
330
1D
100
AcDbEntity
  8
SK1
100
AcDbLine
 10
-16.945987731
 20
-9.532484898
 30
0.0
 11
-18.41704154
 21
-9.659457692
 31
0.0
  0
LINE
  5
EB
330
1D
100
AcDbEntity
  8
SK1
100
AcDbLine
 10
-18.41704154
 20
-9.659457692
 30
0.0
 11
-19.89087069
 21
-9.650152848
 31
0.0
  0
LINE
  5
EC
330
1D
100
AcDbEntity
  8
SK1
100
AcDbLine
 10
-19.89087069
 20
-9.650152848
 30
0.0
 11
-21.498264536
 21
-9.482376018
 31
0.0
  0
LINE
  5
ED
330
1D
100
AcDbEntity
  8
SK1
100
AcDbLine
 10
-21.498264536
 20
-9.482376018
 30
0.0
 11
-23.07958135
 21
-9.147975334
 31
0.0
  0
LINE
  5
EE
330
1D
100
AcDbEntity
  8
SK1
100
AcDbLine
 10
-23.07958135
 20
-9.147975334
 30
0.0
 11
-24.602576881
 21
-8.645898403
 31
0.0
  0
LINE
  5
EF
330
1D
100
AcDbEntity
  8
SK1
100
AcDbLine
 10
-24.602576881
 20
-8.645898403
 30
0.0
 11
-25.790100708
 21
-8.106490338
 31
0.0
  0
LINE
  5
F0
330
1D
100
AcDbEntity
  8
SK1
100
AcDbLine
 10
-25.790100708
 20
-8.106490338
 30
0.0
 11
-26.913881093
 21
-7.446536069
 31
0.0
  0
LINE
  5
F1
330
1D
100
AcDbEntity
  8
SK1
100
AcDbLine
 10
-26.913881093
 20
-7.446536069
 30
0.0
 11
-27.94914858
 21
-6.667156444
 31
0.0
  0
LINE
  5
F2
330
1D
100
AcDbEntity
  8
SK1
100
AcDbLine
 10
-27.94914858
 20
-6.667156444
 30
0.0
 11
-29.029836669
 21
-5.589705632
 31
0.0
  0
LINE
  5
F3
330
1D
100
AcDbEntity
  8
SK1
100
AcDbLine
 10
-29.029836669
 20
-5.589705632
 30
0.0
 11
-29.921339616
 21
-4.347867073
 31
0.0
  0
LINE
  5
F4
330
1D
100
AcDbEntity
  8
SK1
100
AcDbLine
 10
-29.921339616
 20
-4.347867073
 30
0.0
 11
-30.389152258
 21
-3.42734784
 31
0.0
  0
LINE
  5
F5
330
1D
100
AcDbEntity
  8
SK1
100
AcDbLine
 10
-30.389152258
 20
-3.42734784
 30
0.0
 11
-30.740108132
 21
-2.447202542
 31
0.0
  0
LINE
  5
F6
330
1D
100
AcDbEntity
  8
SK1
100
AcDbLine
 10
-30.740108132
 20
-2.447202542
 30
0.0
 11
-30.961354986
 21
-1.430976643
 31
0.0
  0
LINE
  5
F7
330
1D
100
AcDbEntity
  8
SK1
100
AcDbLine
 10
-30.961354986
 20
-1.430976643
 30
0.0
 11
-31.047725841
 21
-0.299998823
 31
0.0
  0
LINE
  5
F8
330
1D
100
AcDbEntity
  8
SK1
100
AcDbLine
 10
-31.047725841
 20
-0.299998823
 30
0.0
 11
-30.772289052
 21
-0.299998823
 31
0.0
  0
LINE
  5
F9
330
1D
100
AcDbEntity
  8
SK1
100
AcDbLine
 10
-31.047725841
 20
-0.299998823
 30
0.0
 11
-43.699999131
 21
-0.299998823
 31
0.0
  0
LINE
  5
FA
330
1D
100
AcDbEntity
  8
SK1
100
AcDbLine
 10
-4.299998075
 20
-0.299998823
 30
0.0
 11
-7.052272349
 21
-0.299998823
 31
0.0
  0
LINE
  5
FB
330
1D
100
AcDbEntity
  8
SK1
100
AcDbLine
 10
-7.052272349
 20
0.300001205
 30
0.0
 11
-4.299998075
 21
0.300001205
 31
0.0
  0
LINE
  5
FC
330
1D
100
AcDbEntity
  8
SK1
100
AcDbLine
 10
-43.699999131
 20
0.300001205
 30
0.0
 11
-31.047725841
 21
0.300001205
 31
0.0
  0
ARC
  5
FD
330
1D
100
AcDbEntity
  8
SK1
100
AcDbCircle
 10
-4.299999146
 20
0.000001191
 30
0.0
 40
0.300000014
100
AcDbArc
 50
270.00020459
 51
89.99979541
  0
ARC
  5
FE
330
1D
100
AcDbEntity
  8
SK1
100
AcDbCircle
 10
-45.699999247
 20
0.000001191
 30
0.0
 40
0.300000014
100
AcDbArc
 50
89.999951449
 51
270.0000485510001
  0
LINE
  5
FF
330
1D
100
AcDbEntity
  8
SK1
100
AcDbLine
 10
-45.699998993
 20
-0.299998823
 30
0.0
 11
-43.699999131
 21
-0.299998823
 31
0.0
  0
LINE
  5
100
330
1D
100
AcDbEntity
  8
SK1
100
AcDbLine
 10
-43.699999131
 20
0.300001205
 30
0.0
 11
-45.699998993
 21
0.300001205
 31
0.0
  0
ARC
  5
101
330
1D
100
AcDbEntity
  8
SK1
100
AcDbCircle
 10
-16.752003076
 20
-0.420543078
 30
0.0
 40
7.394656905
100
AcDbArc
 50
5.591842534
 51
26.196211845
  0
ARC
  5
102
330
1D
100
AcDbEntity
  8
SK1
100
AcDbCircle
 10
-16.740451961
 20
-0.414794001
 30
0.0
 40
7.381748715
100
AcDbArc
 50
26.195750979
 51
44.97273319999999
  0
ARC
  5
103
330
1D
100
AcDbEntity
  8
SK1
100
AcDbCircle
 10
-16.735117773
 20
-0.409464888
 30
0.0
 40
7.374208622
100
AcDbArc
 50
44.97273319999999
 51
46.082387478
  0
ARC
  5
104
330
1D
100
AcDbEntity
  8
SK1
100
AcDbCircle
 10
-19.06397463
 20
-0.517408936
 30
0.0
 40
9.207867166
100
AcDbArc
 50
36.058616107
 51
44.97273319999999
  0
ARC
  5
105
330
1D
100
AcDbEntity
  8
SK1
100
AcDbCircle
 10
-19.057320833
 20
-0.510761469
 30
0.0
 40
9.198491913
100
AcDbArc
 50
44.97273319999999
 51
58.374297328
  0
ARC
  5
106
330
1D
100
AcDbEntity
  8
SK1
100
AcDbCircle
 10
-19.055763361
 20
1.918639708
 30
0.0
 40
7.241780128
100
AcDbArc
 50
48.25334878100001
 51
62.863165861
  0
ARC
  5
107
330
1D
100
AcDbEntity
  8
SK1
100
AcDbCircle
 10
-19.049999183
 20
1.929991446
 30
0.0
 40
7.229044034
100
AcDbArc
 50
62.86278490000001
 51
90.0
  0
ARC
  5
108
330
1D
100
AcDbEntity
  8
SK1
100
AcDbCircle
 10
-19.049999183
 20
1.929991446
 30
0.0
 40
7.229044034
100
AcDbArc
 50
90.0
 51
117.1372151
  0
ARC
  5
109
330
1D
100
AcDbEntity
  8
SK1
100
AcDbCircle
 10
-19.044235005
 20
1.918639708
 30
0.0
 40
7.24177531
100
AcDbArc
 50
117.136834139
 51
131.746651219
  0
ARC
  5
10A
330
1D
100
AcDbEntity
  8
SK1
100
AcDbCircle
 10
-19.042677533
 20
-0.510761469
 30
0.0
 40
9.198522608
100
AcDbArc
 50
121.625702672
 51
135.0272668
  0
ARC
  5
10B
330
1D
100
AcDbEntity
  8
SK1
100
AcDbCircle
 10
-19.036023737
 20
-0.517408936
 30
0.0
 40
9.207897327
100
AcDbArc
 50
135.0272668
 51
143.941383893
  0
ARC
  5
10C
330
1D
100
AcDbEntity
  8
SK1
100
AcDbCircle
 10
-21.364880593
 20
-0.409464888
 30
0.0
 40
7.374209268
100
AcDbArc
 50
133.917612522
 51
135.0272668
  0
ARC
  5
10D
330
1D
100
AcDbEntity
  8
SK1
100
AcDbCircle
 10
-21.359546406
 20
-0.414794001
 30
0.0
 40
7.381748715
100
AcDbArc
 50
135.0272668
 51
153.804249021
  0
ARC
  5
10E
330
1D
100
AcDbEntity
  8
SK1
100
AcDbCircle
 10
-21.34799529
 20
-0.420543078
 30
0.0
 40
7.394651297
100
AcDbArc
 50
153.803788155
 51
174.408157466
  0
LINE
  5
10F
330
1D
100
AcDbEntity
  8
SK1
100
AcDbLine
 10
-7.327709138
 20
0.300001205
 30
0.0
 11
-9.392536968
 21
0.300001205
 31
0.0
  0
LINE
  5
110
330
1D
100
AcDbEntity
  8
SK1
100
AcDbLine
 10
-28.707463085
 20
0.300001205
 30
0.0
 11
-30.772289052
 21
0.300001205
 31
0.0
  0
ARC
  5
111
330
1D
100
AcDbEntity
  8
SK1
100
AcDbCircle
 10
-19.050010594
 20
-0.000002426
 30
0.0
 40
6.750013049
100
AcDbArc
 50
2.547344108
 51
31.717853163
  0
LINE
  5
112
330
1D
100
AcDbEntity
  8
SK1
100
AcDbLine
 10
-11.620193511
 20
4.902457612
 30
0.0
 11
-13.308129996
 21
3.548727398
 31
0.0
  0
LINE
  5
113
330
1D
100
AcDbEntity
  8
SK1
100
AcDbLine
 10
-9.392536968
 20
0.300001205
 30
0.0
 11
-12.306667656
 21
0.300001205
 31
0.0
  0
LINE
  5
114
330
1D
100
AcDbEntity
  8
SK1
100
AcDbLine
 10
-24.791866332
 20
3.548727398
 30
0.0
 11
-26.381440252
 21
4.823871216
 31
0.0
  0
LINE
  5
115
330
1D
100
AcDbEntity
  8
SK1
100
AcDbLine
 10
-26.381440252
 20
4.823871216
 30
0.0
 11
-26.47980468
 21
4.902457612
 31
0.0
  0
ARC
  5
116
330
1D
100
AcDbEntity
  8
SK1
100
AcDbCircle
 10
-19.050027841
 20
0.000010554
 30
0.0
 40
6.749970407
100
AcDbArc
 50
148.282052653
 51
177.452750075
  0
LINE
  5
117
330
1D
100
AcDbEntity
  8
SK1
100
AcDbLine
 10
-25.793328672
 20
0.300001205
 30
0.0
 11
-28.707463085
 21
0.300001205
 31
0.0
  0
ARC
  5
118
330
1D
100
AcDbEntity
  8
SK1
100
AcDbCircle
 10
-16.735117773
 20
0.409467269
 30
0.0
 40
7.374209268
100
AcDbArc
 50
313.917612522
 51
315.0272668
  0
ARC
  5
119
330
1D
100
AcDbEntity
  8
SK1
100
AcDbCircle
 10
-16.740451961
 20
0.414796382
 30
0.0
 40
7.381748715
100
AcDbArc
 50
315.0272668
 51
333.804249021
  0
ARC
  5
11A
330
1D
100
AcDbEntity
  8
SK1
100
AcDbCircle
 10
-16.752003076
 20
0.42054546
 30
0.0
 40
7.394651297
100
AcDbArc
 50
333.803788155
 51
354.408157466
  0
LINE
  5
11B
330
1D
100
AcDbEntity
  8
SK1
100
AcDbLine
 10
-13.308129996
 20
-3.548725016
 30
0.0
 11
-11.718556076
 21
-4.823868835
 31
0.0
  0
LINE
  5
11C
330
1D
100
AcDbEntity
  8
SK1
100
AcDbLine
 10
-11.718556076
 20
-4.823868835
 30
0.0
 11
-11.620193511
 21
-4.902455231
 31
0.0
  0
ARC
  5
11D
330
1D
100
AcDbEntity
  8
SK1
100
AcDbCircle
 10
-19.050093207
 20
0.000030274
 30
0.0
 40
6.750096712
100
AcDbArc
 50
328.28233162
 51
357.452471108
  0
LINE
  5
11E
330
1D
100
AcDbEntity
  8
SK1
100
AcDbLine
 10
-12.306667656
 20
-0.299998823
 30
0.0
 11
-9.392536968
 21
-0.299998823
 31
0.0
  0
ARC
  5
11F
330
1D
100
AcDbEntity
  8
SK1
100
AcDbCircle
 10
-19.050004597
 20
-0.000001007
 30
0.0
 40
6.749993946
100
AcDbArc
 50
182.547301916
 51
211.717895355
  0
LINE
  5
120
330
1D
100
AcDbEntity
  8
SK1
100
AcDbLine
 10
-26.47980468
 20
-4.902455231
 30
0.0
 11
-24.791866332
 21
-3.548725016
 31
0.0
  0
ARC
  5
121
330
1D
100
AcDbEntity
  8
SK1
100
AcDbCircle
 10
-21.34799529
 20
0.42054546
 30
0.0
 40
7.394656905
100
AcDbArc
 50
185.591842534
 51
206.196211845
  0
ARC
  5
122
330
1D
100
AcDbEntity
  8
SK1
100
AcDbCircle
 10
-21.359546406
 20
0.414796382
 30
0.0
 40
7.381748715
100
AcDbArc
 50
206.195750979
 51
224.9727332
  0
ARC
  5
123
330
1D
100
AcDbEntity
  8
SK1
100
AcDbCircle
 10
-21.364880593
 20
0.409467269
 30
0.0
 40
7.374208622
100
AcDbArc
 50
224.9727332
 51
226.082387478
  0
LINE
  5
124
330
1D
100
AcDbEntity
  8
SK1
100
AcDbLine
 10
-28.707463085
 20
-0.299998823
 30
0.0
 11
-25.793328672
 21
-0.299998823
 31
0.0
  0
ARC
  5
125
330
1D
100
AcDbEntity
  8
SK1
100
AcDbCircle
 10
-19.036023737
 20
0.517411317
 30
0.0
 40
9.207867166
100
AcDbArc
 50
216.058616107
 51
224.9727332
  0
ARC
  5
126
330
1D
100
AcDbEntity
  8
SK1
100
AcDbCircle
 10
-19.042677533
 20
0.510763851
 30
0.0
 40
9.198491913
100
AcDbArc
 50
224.9727332
 51
238.374297328
  0
ARC
  5
127
330
1D
100
AcDbEntity
  8
SK1
100
AcDbCircle
 10
-19.044235005
 20
-1.918637326
 30
0.0
 40
7.241780128
100
AcDbArc
 50
228.253348781
 51
242.863165861
  0
ARC
  5
128
330
1D
100
AcDbEntity
  8
SK1
100
AcDbCircle
 10
-19.049999183
 20
-1.929989065
 30
0.0
 40
7.229044034
100
AcDbArc
 50
242.8627849
 51
270.0
  0
ARC
  5
129
330
1D
100
AcDbEntity
  8
SK1
100
AcDbCircle
 10
-19.049999183
 20
-1.929989065
 30
0.0
 40
7.229044034
100
AcDbArc
 50
270.0
 51
297.1372151
  0
ARC
  5
12A
330
1D
100
AcDbEntity
  8
SK1
100
AcDbCircle
 10
-19.055763361
 20
-1.918637326
 30
0.0
 40
7.24177531
100
AcDbArc
 50
297.136834139
 51
311.746651219
  0
ARC
  5
12B
330
1D
100
AcDbEntity
  8
SK1
100
AcDbCircle
 10
-19.057320833
 20
0.510763851
 30
0.0
 40
9.198522608
100
AcDbArc
 50
301.625702672
 51
315.0272668
  0
ARC
  5
12C
330
1D
100
AcDbEntity
  8
SK1
100
AcDbCircle
 10
-19.06397463
 20
0.517411317
 30
0.0
 40
9.207897327
100
AcDbArc
 50
315.0272668
 51
323.941383893
  0
LINE
  5
12D
330
1D
100
AcDbEntity
  8
SK1
100
AcDbLine
 10
-9.392536968
 20
-0.299998823
 30
0.0
 11
-7.327709138
 21
-0.299998823
 31
0.0
  0
LINE
  5
12E
330
1D
100
AcDbEntity
  8
SK1
100
AcDbLine
 10
-30.772289052
 20
-0.299998823
 30
0.0
 11
-28.707463085
 21
-0.299998823
 31
0.0
  0
ARC
  5
12F
330
1D
100
AcDbEntity
  8
SK1
100
AcDbCircle
 10
-19.049999183
 20
0.000001191
 30
0.0
 40
6.75
100
AcDbArc
 50
31.71788536599999
 51
58.282114634
  0
LINE
  5
130
330
1D
100
AcDbEntity
  8
SK1
100
AcDbLine
 10
-15.501271725
 20
5.741868893
 30
0.0
 11
-14.233909339
 21
7.321704904
 31
0.0
  0
ARC
  5
131
330
1D
100
AcDbEntity
  8
SK1
100
AcDbCircle
 10
-19.049999183
 20
0.000001191
 30
0.0
 40
6.75
100
AcDbArc
 50
211.717885366
 51
238.282114634
  0
LINE
  5
132
330
1D
100
AcDbEntity
  8
SK1
100
AcDbLine
 10
-22.598724603
 20
-5.741866512
 30
0.0
 11
-23.866086989
 21
-7.321702522
 31
0.0
  0
LINE
  5
133
330
1D
100
AcDbEntity
  8
SK1
100
AcDbLine
 10
-14.233909339
 20
-7.321702522
 30
0.0
 11
-15.501271725
 21
-5.741866512
 31
0.0
  0
ARC
  5
134
330
1D
100
AcDbEntity
  8
SK1
100
AcDbCircle
 10
-19.049999183
 20
0.000001191
 30
0.0
 40
6.75
100
AcDbArc
 50
301.717885366
 51
328.282114634
  0
LINE
  5
135
330
1D
100
AcDbEntity
  8
SK1
100
AcDbLine
 10
-23.866086989
 20
7.321704904
 30
0.0
 11
-22.598724603
 21
5.741868893
 31
0.0
  0
ARC
  5
136
330
1D
100
AcDbEntity
  8
SK1
100
AcDbCircle
 10
-19.049999183
 20
0.000001191
 30
0.0
 40
6.75
100
AcDbArc
 50
121.717885366
 51
148.282114634
  0
ARC
  5
137
330
1D
100
AcDbEntity
  8
SK1
100
AcDbCircle
 10
-19.049998164
 20
-0.000564956
 30
0.0
 40
6.750481898
100
AcDbArc
 50
58.284640031
 51
121.715359969
  0
ARC
  5
138
330
1D
100
AcDbEntity
  8
SK1
100
AcDbCircle
 10
-19.049998164
 20
0.000569665
 30
0.0
 40
6.750483878
100
AcDbArc
 50
238.284650416
 51
301.715349584
  0
LINE
  5
139
330
1D
100
AcDbEntity
  8
SK4
100
AcDbLine
 10
-19.049998164
 20
-12.430684115
 30
0.0
 11
-19.049998164
 21
11.854169446
 31
0.0
  0
LINE
  5
13A
330
1D
100
AcDbEntity
  8
SK4
100
AcDbLine
 10
17.632
 20
-12.430684115
 30
0.0
 11
17.632
 21
11.854169446
 31
0.0
  0
ARC
  5
1D6
330
1D
100
AcDbEntity
  8
1
100
AcDbCircle
 10
0.0000000000000002
 20
0.0
 30
0.0
 40
2.5
100
AcDbArc
 50
270.0
 51
90.0
  0
ARC
  5
1D8
330
1D
100
AcDbEntity
  8
SK1
100
AcDbCircle
 10
0.0000000000000001
 20
0.0
 30
0.0
 40
2.5
100
AcDbArc
 50
90.0
 51
270.0
  0
LINE
  5
1E7
330
1D
100
AcDbEntity
  8
1
100
AcDbLine
 10
43.7
 20
23.0
 30
0.0
 11
0.0
 21
23.00000000000001
 31
0.0
  0
LINE
  5
1E8
330
1D
100
AcDbEntity
  8
1
100
AcDbLine
 10
43.7
 20
-23.0
 30
0.0
 11
0.0
 21
-22.99999999999999
 31
0.0
  0
LINE
  5
1E9
330
1D
100
AcDbEntity
  8
1
100
AcDbLine
 10
0.0
 20
0.0
 30
0.0
 11
0.0
 21
23.00000000000001
 31
0.0
  0
LINE
  5
1EA
330
1D
100
AcDbEntity
  8
1
100
AcDbLine
 10
0.0
 20
0.0
 30
0.0
 11
0.0
 21
-22.99999999999999
 31
0.0
  0
LINE
  5
1EC
330
1D
100
AcDbEntity
  8
SK1
100
AcDbLine
 10
0.0
 20
23.00000000000001
 30
0.0
 11
-43.7
 21
23.0
 31
0.0
  0
LINE
  5
1ED
330
1D
100
AcDbEntity
  8
SK1
100
AcDbLine
 10
0.0
 20
-22.99999999999999
 30
0.0
 11
-43.7
 21
-23.0
 31
0.0
  0
LINE
  5
1EE
330
1D
100
AcDbEntity
  8
SK1
100
AcDbLine
 10
0.0
 20
-22.99999999999999
 30
0.0
 11
0.0
 21
23.00000000000001
 31
0.0
  0
LINE
  5
1FB
330
1D
100
AcDbEntity
  8
NOCUT
100
AcDbLine
 10
0.0
 20
0.0
 30
0.0
 11
0.0
 21
23.00000000000001
 31
0.0
  0
LINE
  5
1FC
330
1D
100
AcDbEntity
  8
NOCUT
100
AcDbLine
 10
0.0
 20
23.00000000000001
 30
0.0
 11
43.7
 21
23.0
 31
0.0
  0
LINE
  5
1FD
330
1D
100
AcDbEntity
  8
NOCUT
100
AcDbLine
 10
43.7
 20
23.0
 30
0.0
 11
46.305707514
 21
22.633791691
 31
0.0
  0
LINE
  5
1FE
330
1D
100
AcDbEntity
  8
NOCUT
100
AcDbLine
 10
46.305707514
 20
22.633791691
 30
0.0
 11
48.27918662179969
 21
22.98176930361465
 31
0.0
  0
LINE
  5
1FF
330
1D
100
AcDbEntity
  8
NOCUT
100
AcDbLine
 10
49.7
 20
22.1
 30
0.0
 11
49.7
 21
0.0
 31
0.0
  0
LINE
  5
200
330
1D
100
AcDbEntity
  8
NOCUT
100
AcDbLine
 10
49.7
 20
0.0
 30
0.0
 11
0.0
 21
0.0
 31
0.0
  0
ARC
  5
201
330
1D
100
AcDbEntity
  8
NOCUT
100
AcDbCircle
 10
48.47619410019125
 20
21.71363373261335
 30
0.0
 40
1.283347097624413
100
AcDbArc
 50
17.52136411137188
 51
98.83043046001744
  0
LWPOLYLINE
  5
203
330
1D
100
AcDbEntity
  8
INFTOTAL
100
AcDbPolyline
 90
        4
 70
     1
 43
0.0
 10
-91.17004396109067
 20
46.71467231572129
 10
-91.17004396109067
 20
-59.68137907374764
 10
106.7933408541579
 20
-59.68137907374764
 10
106.7933408541579
 20
46.71467231572129
  0
LINE
  5
20F
330
1D
100
AcDbEntity
  8
4
100
AcDbLine
 10
0.0
 20
0.0
 30
0.0
 11
51.678228668
 21
0.0
 31
0.0
  0
LINE
  5
211
330
1D
100
AcDbEntity
  8
4
100
AcDbLine
 10
17.632
 20
11.854169446
 30
0.0
 11
17.632
 21
-12.430684115
 31
0.0
  0
LINE
  5
214
330
1D
100
AcDbEntity
  8
3
100
AcDbLine
 10
0.0
 20
11.05
 30
0.0
 11
49.7
 21
11.05
 31
0.0
  0
LINE
  5
215
330
1D
100
AcDbEntity
  8
3
100
AcDbLine
 10
49.7
 20
-11.05
 30
0.0
 11
0.0
 21
-11.05
 31
0.0
  0
ENDSEC
  0
SECTION
  2
OBJECTS
  0
DICTIONARY
  5
C
330
0
100
AcDbDictionary
281
     1
  3
ACAD_DETAILVIEWSTYLE
350
1DD
  3
ACAD_GROUP
350
D
  3
ACAD_LAYOUT
350
1A
  3
ACAD_MLINESTYLE
350
17
  3
ACAD_PLOTSETTINGS
350
19
  3
ACAD_PLOTSTYLENAME
350
E
  3
ACAD_SCALELIST
350
140
  3
ACAD_SECTIONVIEWSTYLE
350
1DE
  3
AcDbVariableDictionary
350
181
  3
APPDATA
350
1CF
  3
DWGPROPS
350
236
  0
DICTIONARY
  5
1D0
330
2
100
AcDbDictionary
280
     1
281
     1
  3
ACAD_LAYERSTATES
360
1D1
  0
DICTIONARY
  5
1DD
102
{ACAD_REACTORS
330
C
102
}
330
C
100
AcDbDictionary
281
     1
  0
DICTIONARY
  5
D
102
{ACAD_REACTORS
330
C
102
}
330
C
100
AcDbDictionary
281
     1
  0
DICTIONARY
  5
1A
102
{ACAD_REACTORS
330
C
102
}
330
C
100
AcDbDictionary
281
     1
  3
Layout1
350
1C
  3
Model
350
1E
  0
DICTIONARY
  5
17
102
{ACAD_REACTORS
330
C
102
}
330
C
100
AcDbDictionary
281
     1
  3
Standard
350
18
  0
DICTIONARY
  5
19
102
{ACAD_REACTORS
330
C
102
}
330
C
100
AcDbDictionary
281
     1
  0
ACDBDICTIONARYWDFLT
  5
E
102
{ACAD_REACTORS
330
C
102
}
330
C
100
AcDbDictionary
281
     1
  3
Normal
350
F
100
AcDbDictionaryWithDefault
340
F
  0
DICTIONARY
  5
140
102
{ACAD_REACTORS
330
C
102
}
330
C
100
AcDbDictionary
281
     1
  3
A0
350
141
  3
A1
350
142
  3
A2
350
143
  3
A3
350
144
  3
A4
350
145
  3
A5
350
146
  3
A6
350
147
  3
A7
350
148
  3
A8
350
149
  3
A9
350
14A
  3
B0
350
14B
  3
B1
350
14C
  3
B2
350
14D
  3
B3
350
14E
  3
B4
350
14F
  3
B5
350
150
  3
B6
350
151
  3
B7
350
152
  3
B8
350
153
  3
B9
350
154
  3
C0
350
155
  3
C1
350
156
  3
C2
350
157
  3
C3
350
158
  3
C4
350
159
  3
C5
350
15A
  3
C6
350
15B
  3
C7
350
15C
  3
C8
350
15D
  3
C9
350
15E
  3
D0
350
15F
  3
D1
350
160
  3
D2
350
161
  0
DICTIONARY
  5
1DE
102
{ACAD_REACTORS
330
C
102
}
330
C
100
AcDbDictionary
281
     1
  0
DICTIONARY
  5
181
102
{ACAD_REACTORS
330
C
102
}
330
C
100
AcDbDictionary
281
     1
  3
DIMASSOC
350
185
  3
HIDETEXT
350
186
  0
DICTIONARY
  5
1CF
102
{ACAD_REACTORS
330
C
102
}
330
C
100
AcDbDictionary
281
     1
  0
XRECORD
  5
236
102
{ACAD_REACTORS
330
C
102
}
330
C
100
AcDbXrecord
280
     1
  1
DWGPROPS COOKIE
  2

  3

  4

  6

  7

  8
matthias.ochs
  9

300
=
301
=
302
=
303
=
304
=
305
=
306
=
307
=
308
=
309
=
 40
0.0
 41
2458327.466081366
 42
2458589.566744549
  1

 90
        0
  0
DICTIONARY
  5
1D1
102
{ACAD_REACTORS
330
1D0
102
}
330
1D0
100
AcDbDictionary
281
     1
  0
LAYOUT
  5
1C
102
{ACAD_REACTORS
330
1A
102
}
330
1A
100
AcDbPlotSettings
  1

  2
none_device
  4

  6

 40
0.0
 41
0.0
 42
0.0
 43
0.0
 44
0.0
 45
0.0
 46
0.0
 47
0.0
 48
0.0
 49
0.0
140
0.0
141
0.0
142
1.0
143
1.0
 70
   688
 72
     0
 73
     0
 74
     5
  7

 75
    16
147
1.0
148
0.0
149
0.0
100
AcDbLayout
  1
Layout1
 70
     1
 71
     1
 10
0.0
 20
0.0
 11
12.0
 21
9.0
 12
0.0
 22
0.0
 32
0.0
 14
1.000000000000000E+20
 24
1.000000000000000E+20
 34
1.000000000000000E+20
 15
-1.000000000000000E+20
 25
-1.000000000000000E+20
 35
-1.000000000000000E+20
146
0.0
 13
0.0
 23
0.0
 33
0.0
 16
1.0
 26
0.0
 36
0.0
 17
0.0
 27
1.0
 37
0.0
 76
     0
330
1B
  0
LAYOUT
  5
1E
102
{ACAD_REACTORS
330
1A
102
}
330
1A
100
AcDbPlotSettings
  1

  2
none_device
  4

  6

 40
0.0
 41
0.0
 42
0.0
 43
0.0
 44
0.0
 45
0.0
 46
0.0
 47
0.0
 48
0.0
 49
0.0
140
0.0
141
0.0
142
1.0
143
1.0
 70
  1712
 72
     0
 73
     0
 74
     0
  7

 75
     0
147
1.0
148
0.0
149
0.0
100
AcDbLayout
  1
Model
 70
     1
 71
     0
 10
0.0
 20
0.0
 11
12.0
 21
9.0
 12
0.0
 22
0.0
 32
0.0
 14
-91.17004396109067
 24
-59.68137907374764
 34
0.0
 15
106.7933408541579
 25
46.71467231572129
 35
0.0
146
0.0
 13
0.0
 23
0.0
 33
0.0
 16
1.0
 26
0.0
 36
0.0
 17
0.0
 27
1.0
 37
0.0
 76
     0
330
1D
331
13B
  0
MLINESTYLE
  5
18
102
{ACAD_REACTORS
330
17
102
}
330
17
100
AcDbMlineStyle
  2
Standard
 70
     0
  3

 62
   256
 51
90.0
 52
90.0
 71
     2
 49
0.5
 62
   256
  6
BYLAYER
 49
-0.5
 62
   256
  6
BYLAYER
  0
ACDBPLACEHOLDER
  5
F
102
{ACAD_REACTORS
330
E
102
}
330
E
  0
SCALE
  5
141
102
{ACAD_REACTORS
330
140
102
}
330
140
100
AcDbScale
 70
     0
300
1:1
140
1.0
141
1.0
290
     1
  0
SCALE
  5
142
102
{ACAD_REACTORS
330
140
102
}
330
140
100
AcDbScale
 70
     0
300
1:2
140
1.0
141
2.0
290
     0
  0
SCALE
  5
143
102
{ACAD_REACTORS
330
140
102
}
330
140
100
AcDbScale
 70
     0
300
1:4
140
1.0
141
4.0
290
     0
  0
SCALE
  5
144
102
{ACAD_REACTORS
330
140
102
}
330
140
100
AcDbScale
 70
     0
300
1:5
140
1.0
141
5.0
290
     0
  0
SCALE
  5
145
102
{ACAD_REACTORS
330
140
102
}
330
140
100
AcDbScale
 70
     0
300
1:8
140
1.0
141
8.0
290
     0
  0
SCALE
  5
146
102
{ACAD_REACTORS
330
140
102
}
330
140
100
AcDbScale
 70
     0
300
1:10
140
1.0
141
10.0
290
     0
  0
SCALE
  5
147
102
{ACAD_REACTORS
330
140
102
}
330
140
100
AcDbScale
 70
     0
300
1:16
140
1.0
141
16.0
290
     0
  0
SCALE
  5
148
102
{ACAD_REACTORS
330
140
102
}
330
140
100
AcDbScale
 70
     0
300
1:20
140
1.0
141
20.0
290
     0
  0
SCALE
  5
149
102
{ACAD_REACTORS
330
140
102
}
330
140
100
AcDbScale
 70
     0
300
1:30
140
1.0
141
30.0
290
     0
  0
SCALE
  5
14A
102
{ACAD_REACTORS
330
140
102
}
330
140
100
AcDbScale
 70
     0
300
1:40
140
1.0
141
40.0
290
     0
  0
SCALE
  5
14B
102
{ACAD_REACTORS
330
140
102
}
330
140
100
AcDbScale
 70
     0
300
1:50
140
1.0
141
50.0
290
     0
  0
SCALE
  5
14C
102
{ACAD_REACTORS
330
140
102
}
330
140
100
AcDbScale
 70
     0
300
1:100
140
1.0
141
100.0
290
     0
  0
SCALE
  5
14D
102
{ACAD_REACTORS
330
140
102
}
330
140
100
AcDbScale
 70
     0
300
2:1
140
2.0
141
1.0
290
     0
  0
SCALE
  5
14E
102
{ACAD_REACTORS
330
140
102
}
330
140
100
AcDbScale
 70
     0
300
4:1
140
4.0
141
1.0
290
     0
  0
SCALE
  5
14F
102
{ACAD_REACTORS
330
140
102
}
330
140
100
AcDbScale
 70
     0
300
8:1
140
8.0
141
1.0
290
     0
  0
SCALE
  5
150
102
{ACAD_REACTORS
330
140
102
}
330
140
100
AcDbScale
 70
     0
300
10:1
140
10.0
141
1.0
290
     0
  0
SCALE
  5
151
102
{ACAD_REACTORS
330
140
102
}
330
140
100
AcDbScale
 70
     0
300
100:1
140
100.0
141
1.0
290
     0
  0
SCALE
  5
152
102
{ACAD_REACTORS
330
140
102
}
330
140
100
AcDbScale
 70
     0
300
1/128" = 1'-0"
140
0.0078125
141
12.0
290
     0
  0
SCALE
  5
153
102
{ACAD_REACTORS
330
140
102
}
330
140
100
AcDbScale
 70
     0
300
1/64" = 1'-0"
140
0.015625
141
12.0
290
     0
  0
SCALE
  5
154
102
{ACAD_REACTORS
330
140
102
}
330
140
100
AcDbScale
 70
     0
300
1/32" = 1'-0"
140
0.03125
141
12.0
290
     0
  0
SCALE
  5
155
102
{ACAD_REACTORS
330
140
102
}
330
140
100
AcDbScale
 70
     0
300
1/16" = 1'-0"
140
0.0625
141
12.0
290
     0
  0
SCALE
  5
156
102
{ACAD_REACTORS
330
140
102
}
330
140
100
AcDbScale
 70
     0
300
3/32" = 1'-0"
140
0.09375
141
12.0
290
     0
  0
SCALE
  5
157
102
{ACAD_REACTORS
330
140
102
}
330
140
100
AcDbScale
 70
     0
300
1/8" = 1'-0"
140
0.125
141
12.0
290
     0
  0
SCALE
  5
158
102
{ACAD_REACTORS
330
140
102
}
330
140
100
AcDbScale
 70
     0
300
3/16" = 1'-0"
140
0.1875
141
12.0
290
     0
  0
SCALE
  5
159
102
{ACAD_REACTORS
330
140
102
}
330
140
100
AcDbScale
 70
     0
300
1/4" = 1'-0"
140
0.25
141
12.0
290
     0
  0
SCALE
  5
15A
102
{ACAD_REACTORS
330
140
102
}
330
140
100
AcDbScale
 70
     0
300
3/8" = 1'-0"
140
0.375
141
12.0
290
     0
  0
SCALE
  5
15B
102
{ACAD_REACTORS
330
140
102
}
330
140
100
AcDbScale
 70
     0
300
1/2" = 1'-0"
140
0.5
141
12.0
290
     0
  0
SCALE
  5
15C
102
{ACAD_REACTORS
330
140
102
}
330
140
100
AcDbScale
 70
     0
300
3/4" = 1'-0"
140
0.75
141
12.0
290
     0
  0
SCALE
  5
15D
102
{ACAD_REACTORS
330
140
102
}
330
140
100
AcDbScale
 70
     0
300
1" = 1'-0"
140
1.0
141
12.0
290
     0
  0
SCALE
  5
15E
102
{ACAD_REACTORS
330
140
102
}
330
140
100
AcDbScale
 70
     0
300
1-1/2" = 1'-0"
140
1.5
141
12.0
290
     0
  0
SCALE
  5
15F
102
{ACAD_REACTORS
330
140
102
}
330
140
100
AcDbScale
 70
     0
300
3" = 1'-0"
140
3.0
141
12.0
290
     0
  0
SCALE
  5
160
102
{ACAD_REACTORS
330
140
102
}
330
140
100
AcDbScale
 70
     0
300
6" = 1'-0"
140
6.0
141
12.0
290
     0
  0
SCALE
  5
161
102
{ACAD_REACTORS
330
140
102
}
330
140
100
AcDbScale
 70
     0
300
1'-0" = 1'-0"
140
12.0
141
12.0
290
     0
  0
DICTIONARYVAR
  5
185
102
{ACAD_REACTORS
330
181
102
}
330
181
100
DictionaryVariables
280
     0
  1
2
  0
DICTIONARYVAR
  5
186
102
{ACAD_REACTORS
330
181
102
}
330
181
100
DictionaryVariables
280
     0
  1
1
  0
ENDSEC
  0
EOF
