  0
SECTION
  2
HEADER
  9
$ACADVER
  1
AC1015
  9
$ACADMAINTVER
 70
     6
  9
$DWGCODEPAGE
  3
ANSI_1252
  9
$INSBASE
 10
0.0
 20
0.0
 30
0.0
  9
$EXTMIN
 10
-61.33481092940484
 20
-58.32497961614588
 30
0.0
  9
$EXTMAX
 10
103.8571071860912
 20
50.51781023733177
 30
0.0
  9
$LIMMIN
 10
-54.828407773
 20
-40.572351799
  9
$LIMMAX
 10
91.403793317
 20
32.466062889
  9
$ORTHOMODE
 70
     0
  9
$REGENMODE
 70
     1
  9
$FILLMODE
 70
     1
  9
$QTEXTMODE
 70
     0
  9
$MIRRTEXT
 70
     1
  9
$LTSCALE
 40
1.0
  9
$ATTMODE
 70
     1
  9
$TEXTSIZE
 40
0.2
  9
$TRACEWID
 40
0.05
  9
$TEXTSTYLE
  7
Standard
  9
$CLAYER
  8
3
  9
$CELTYPE
  6
ByLayer
  9
$CECOLOR
 62
   256
  9
$CELTSCALE
 40
1.0
  9
$DISPSILH
 70
     0
  9
$DIMSCALE
 40
1.0
  9
$DIMASZ
 40
0.18
  9
$DIMEXO
 40
0.0625
  9
$DIMDLI
 40
0.38
  9
$DIMRND
 40
0.0
  9
$DIMDLE
 40
0.0
  9
$DIMEXE
 40
0.18
  9
$DIMTP
 40
0.0
  9
$DIMTM
 40
0.0
  9
$DIMTXT
 40
0.18
  9
$DIMCEN
 40
0.09
  9
$DIMTSZ
 40
0.0
  9
$DIMTOL
 70
     0
  9
$DIMLIM
 70
     0
  9
$DIMTIH
 70
     1
  9
$DIMTOH
 70
     1
  9
$DIMSE1
 70
     0
  9
$DIMSE2
 70
     0
  9
$DIMTAD
 70
     0
  9
$DIMZIN
 70
     0
  9
$DIMBLK
  1

  9
$DIMASO
 70
     1
  9
$DIMSHO
 70
     1
  9
$DIMPOST
  1

  9
$DIMAPOST
  1

  9
$DIMALT
 70
     0
  9
$DIMALTD
 70
     2
  9
$DIMALTF
 40
25.4
  9
$DIMLFAC
 40
1.0
  9
$DIMTOFL
 70
     0
  9
$DIMTVP
 40
0.0
  9
$DIMTIX
 70
     0
  9
$DIMSOXD
 70
     0
  9
$DIMSAH
 70
     0
  9
$DIMBLK1
  1

  9
$DIMBLK2
  1

  9
$DIMSTYLE
  2
Standard
  9
$DIMCLRD
 70
     0
  9
$DIMCLRE
 70
     0
  9
$DIMCLRT
 70
     0
  9
$DIMTFAC
 40
1.0
  9
$DIMGAP
 40
0.09
  9
$DIMJUST
 70
     0
  9
$DIMSD1
 70
     0
  9
$DIMSD2
 70
     0
  9
$DIMTOLJ
 70
     1
  9
$DIMTZIN
 70
     0
  9
$DIMALTZ
 70
     0
  9
$DIMALTTZ
 70
     0
  9
$DIMUPT
 70
     0
  9
$DIMDEC
 70
     4
  9
$DIMTDEC
 70
     4
  9
$DIMALTU
 70
     2
  9
$DIMALTTD
 70
     2
  9
$DIMTXSTY
  7
Standard
  9
$DIMAUNIT
 70
     0
  9
$DIMADEC
 70
     0
  9
$DIMALTRND
 40
0.0
  9
$DIMAZIN
 70
     0
  9
$DIMDSEP
 70
    46
  9
$DIMATFIT
 70
     3
  9
$DIMFRAC
 70
     0
  9
$DIMLDRBLK
  1

  9
$DIMLUNIT
 70
     2
  9
$DIMLWD
 70
    -2
  9
$DIMLWE
 70
    -2
  9
$DIMTMOVE
 70
     2
  9
$LUNITS
 70
     2
  9
$LUPREC
 70
     4
  9
$SKETCHINC
 40
0.1
  9
$FILLETRAD
 40
0.5
  9
$AUNITS
 70
     2
  9
$AUPREC
 70
     0
  9
$MENU
  1
.
  9
$ELEVATION
 40
0.0
  9
$PELEVATION
 40
0.0
  9
$THICKNESS
 40
0.0
  9
$LIMCHECK
 70
     0
  9
$CHAMFERA
 40
0.5
  9
$CHAMFERB
 40
0.5
  9
$CHAMFERC
 40
1.0
  9
$CHAMFERD
 40
0.0
  9
$SKPOLY
 70
     0
  9
$TDCREATE
 40
2458327.549412905
  9
$TDUCREATE
 40
2458327.466079572
  9
$TDUPDATE
 40
2458589.648511157
  9
$TDUUPDATE
 40
2458589.565177824
  9
$TDINDWG
 40
0.0036745023
  9
$TDUSRTIMER
 40
0.0001645255
  9
$USRTIMER
 70
     1
  9
$ANGBASE
 50
0.0
  9
$ANGDIR
 70
     0
  9
$PDMODE
 70
     0
  9
$PDSIZE
 40
0.0
  9
$PLINEWID
 40
0.0
  9
$SPLFRAME
 70
     0
  9
$SPLINETYPE
 70
     6
  9
$SPLINESEGS
 70
     8
  9
$HANDSEED
  5
1FC
  9
$SURFTAB1
 70
     6
  9
$SURFTAB2
 70
     6
  9
$SURFTYPE
 70
     6
  9
$SURFU
 70
     6
  9
$SURFV
 70
     6
  9
$UCSBASE
  2

  9
$UCSNAME
  2

  9
$UCSORG
 10
0.0
 20
0.0
 30
0.0
  9
$UCSXDIR
 10
1.0
 20
0.0
 30
0.0
  9
$UCSYDIR
 10
0.0
 20
1.0
 30
0.0
  9
$UCSORTHOREF
  2

  9
$UCSORTHOVIEW
 70
     0
  9
$UCSORGTOP
 10
0.0
 20
0.0
 30
0.0
  9
$UCSORGBOTTOM
 10
0.0
 20
0.0
 30
0.0
  9
$UCSORGLEFT
 10
0.0
 20
0.0
 30
0.0
  9
$UCSORGRIGHT
 10
0.0
 20
0.0
 30
0.0
  9
$UCSORGFRONT
 10
0.0
 20
0.0
 30
0.0
  9
$UCSORGBACK
 10
0.0
 20
0.0
 30
0.0
  9
$PUCSBASE
  2

  9
$PUCSNAME
  2

  9
$PUCSORG
 10
0.0
 20
0.0
 30
0.0
  9
$PUCSXDIR
 10
1.0
 20
0.0
 30
0.0
  9
$PUCSYDIR
 10
0.0
 20
1.0
 30
0.0
  9
$PUCSORTHOREF
  2

  9
$PUCSORTHOVIEW
 70
     0
  9
$PUCSORGTOP
 10
0.0
 20
0.0
 30
0.0
  9
$PUCSORGBOTTOM
 10
0.0
 20
0.0
 30
0.0
  9
$PUCSORGLEFT
 10
0.0
 20
0.0
 30
0.0
  9
$PUCSORGRIGHT
 10
0.0
 20
0.0
 30
0.0
  9
$PUCSORGFRONT
 10
0.0
 20
0.0
 30
0.0
  9
$PUCSORGBACK
 10
0.0
 20
0.0
 30
0.0
  9
$USERI1
 70
     0
  9
$USERI2
 70
     0
  9
$USERI3
 70
     0
  9
$USERI4
 70
     0
  9
$USERI5
 70
     0
  9
$USERR1
 40
0.0
  9
$USERR2
 40
0.0
  9
$USERR3
 40
0.0
  9
$USERR4
 40
0.0
  9
$USERR5
 40
0.0
  9
$WORLDVIEW
 70
     1
  9
$SHADEDGE
 70
     3
  9
$SHADEDIF
 70
    70
  9
$TILEMODE
 70
     1
  9
$MAXACTVP
 70
    64
  9
$PINSBASE
 10
0.0
 20
0.0
 30
0.0
  9
$PLIMCHECK
 70
     0
  9
$PEXTMIN
 10
1.000000000000000E+20
 20
1.000000000000000E+20
 30
1.000000000000000E+20
  9
$PEXTMAX
 10
-1.000000000000000E+20
 20
-1.000000000000000E+20
 30
-1.000000000000000E+20
  9
$PLIMMIN
 10
0.0
 20
0.0
  9
$PLIMMAX
 10
0.0
 20
0.0
  9
$UNITMODE
 70
     0
  9
$VISRETAIN
 70
     1
  9
$PLINEGEN
 70
     0
  9
$PSLTSCALE
 70
     1
  9
$TREEDEPTH
 70
  3020
  9
$CMLSTYLE
  2
Standard
  9
$CMLJUST
 70
     0
  9
$CMLSCALE
 40
1.0
  9
$PROXYGRAPHICS
 70
     1
  9
$MEASUREMENT
 70
     0
  9
$CELWEIGHT
370
    -1
  9
$ENDCAPS
280
     0
  9
$JOINSTYLE
280
     0
  9
$LWDISPLAY
290
     0
  9
$INSUNITS
 70
     0
  9
$HYPERLINKBASE
  1

  9
$STYLESHEET
  1

  9
$XEDIT
290
     1
  9
$CEPSNTYPE
380
     0
  9
$PSTYLEMODE
290
     1
  9
$FINGERPRINTGUID
  2
{BB4A1128-39B9-453C-8AD4-8A2D2C33E5AD}
  9
$VERSIONGUID
  2
{FAEB1C32-E019-11D5-929B-00C0DF256EC4}
  9
$EXTNAMES
290
     1
  9
$PSVPSCALE
 40
0.0
  9
$OLESTARTUP
290
     0
  0
ENDSEC
  0
SECTION
  2
CLASSES
  0
CLASS
  1
ACDBDICTIONARYWDFLT
  2
AcDbDictionaryWithDefault
  3
ObjectDBX Classes
 90
        0
280
     0
281
     0
  0
CLASS
  1
SCALE
  2
AcDbScale
  3
ObjectDBX Classes
 90
     1153
280
     0
281
     0
  0
CLASS
  1
VISUALSTYLE
  2
AcDbVisualStyle
  3
ObjectDBX Classes
 90
     4095
280
     0
281
     0
  0
CLASS
  1
MATERIAL
  2
AcDbMaterial
  3
ObjectDBX Classes
 90
     1153
280
     0
281
     0
  0
CLASS
  1
DICTIONARYVAR
  2
AcDbDictionaryVar
  3
ObjectDBX Classes
 90
        0
280
     0
281
     0
  0
CLASS
  1
ACDBPLACEHOLDER
  2
AcDbPlaceHolder
  3
ObjectDBX Classes
 90
        0
280
     0
281
     0
  0
CLASS
  1
LAYOUT
  2
AcDbLayout
  3
ObjectDBX Classes
 90
        0
280
     0
281
     0
  0
CLASS
  1
TABLESTYLE
  2
AcDbTableStyle
  3
ObjectDBX Classes
 90
     4095
280
     0
281
     0
  0
CLASS
  1
MLEADERSTYLE
  2
AcDbMLeaderStyle
  3
ACDB_MLEADERSTYLE_CLASS
 90
     4095
280
     0
281
     0
  0
CLASS
  1
CELLSTYLEMAP
  2
AcDbCellStyleMap
  3
ObjectDBX Classes
 90
     1152
280
     0
281
     0
  0
CLASS
  1
SUN
  2
AcDbSun
  3
SCENEOE
 90
     1153
280
     0
281
     0
  0
ENDSEC
  0
SECTION
  2
TABLES
  0
TABLE
  2
VPORT
  5
8
330
0
100
AcDbSymbolTable
 70
     1
  0
VPORT
  5
EF
330
8
100
AcDbSymbolTableRecord
100
AcDbViewportTableRecord
  2
*Active
 70
     0
 10
0.0
 20
0.0
 11
1.0
 21
1.0
 12
-21.62199761331227
 22
-25.2625839745859
 13
0.0
 23
0.0
 14
0.5
 24
0.5
 15
0.5
 25
0.5
 16
0.0
 26
0.0
 36
1.0
 17
0.0
 27
0.0
 37
0.0
 40
232.3323131497393
 41
1.978589420654912
 42
50.0
 43
0.0
 44
0.0
 50
0.0
 51
0.0
 71
    16
 72
   100
 73
     1
 74
     3
 75
     0
 76
     0
 77
     0
 78
     0
281
     0
 65
     1
110
0.0
120
0.0
130
0.0
111
1.0
121
0.0
131
0.0
112
0.0
122
1.0
132
0.0
 79
     0
146
0.0
  0
ENDTAB
  0
TABLE
  2
LTYPE
  5
5
330
0
100
AcDbSymbolTable
 70
     8
  0
LTYPE
  5
14
330
5
100
AcDbSymbolTableRecord
100
AcDbLinetypeTableRecord
  2
ByBlock
 70
     0
  3

 72
    65
 73
     0
 40
0.0
  0
LTYPE
  5
15
330
5
100
AcDbSymbolTableRecord
100
AcDbLinetypeTableRecord
  2
ByLayer
 70
     0
  3

 72
    65
 73
     0
 40
0.0
  0
LTYPE
  5
16
330
5
100
AcDbSymbolTableRecord
100
AcDbLinetypeTableRecord
  2
Continuous
 70
     0
  3
Solid line
 72
    65
 73
     0
 40
0.0
  0
LTYPE
  5
20
330
5
100
AcDbSymbolTableRecord
100
AcDbLinetypeTableRecord
  2
PUNKT
 70
     0
  3
..............
 72
    65
 73
     2
 40
1.5
 49
0.7
 74
     0
 49
-0.8
 74
     0
  0
LTYPE
  5
21
330
5
100
AcDbSymbolTableRecord
100
AcDbLinetypeTableRecord
  2
GESTRICHELT
 70
     0
  3
-- -- -- -- --
 72
    65
 73
     7
 40
2.8
 49
0.9
 74
     0
 49
0.0
 74
     0
 49
0.9
 74
     0
 49
0.0
 74
     0
 49
0.2
 74
     0
 49
0.0
 74
     0
 49
-0.8
 74
     0
  0
LTYPE
  5
22
330
5
100
AcDbSymbolTableRecord
100
AcDbLinetypeTableRecord
  2
STRICHPUNKT
 70
     0
  3
--.--.--.--.--
 72
    65
 73
     4
 40
8.8
 49
5.5
 74
     0
 49
-1.3
 74
     0
 49
0.7
 74
     0
 49
-1.3
 74
     0
  0
LTYPE
  5
25
330
5
100
AcDbSymbolTableRecord
100
AcDbLinetypeTableRecord
  2
PHANTOM
 70
     0
  3
--..--..--..--
 72
    65
 73
     6
 40
14.2
 49
7.0
 74
     0
 49
-1.8
 74
     0
 49
0.9
 74
     0
 49
-1.8
 74
     0
 49
0.9
 74
     0
 49
-1.8
 74
     0
  0
LTYPE
  5
167
330
5
100
AcDbSymbolTableRecord
100
AcDbLinetypeTableRecord
  2
DASH
 70
     0
  3
DASH _ _ _ _ _
 72
    65
 73
     2
 40
0.75
 49
0.4
 74
     0
 49
-0.35
 74
     0
  0
LTYPE
  5
168
330
5
100
AcDbSymbolTableRecord
100
AcDbLinetypeTableRecord
  2
LONGDASH_DASH
 70
     0
  3
LONGDASH_DASH __ . __ . __
 72
    65
 73
     4
 40
0.85
 49
0.4
 74
     0
 49
-0.2
 74
     0
 49
0.05
 74
     0
 49
-0.2
 74
     0
  0
LTYPE
  5
169
330
5
100
AcDbSymbolTableRecord
100
AcDbLinetypeTableRecord
  2
LONGDASH_DASH_DASH
 70
     0
  3
LONGDASH_DASH_DASH __ . . __ . . __
 72
    65
 73
     6
 40
1.1
 49
0.4
 74
     0
 49
-0.2
 74
     0
 49
0.05
 74
     0
 49
-0.2
 74
     0
 49
0.05
 74
     0
 49
-0.2
 74
     0
  0
ENDTAB
  0
TABLE
  2
LAYER
  5
2
102
{ACAD_XDICTIONARY
360
186
102
}
330
0
100
AcDbSymbolTable
 70
    15
  0
LAYER
  5
131
330
2
100
AcDbSymbolTableRecord
100
AcDbLayerTableRecord
  2
200
 70
     0
 62
     2
  6
Continuous
370
    50
390
F
  0
LAYER
  5
16A
330
2
100
AcDbSymbolTableRecord
100
AcDbLayerTableRecord
  2
0
 70
     0
 62
     1
  6
Continuous
370
    -3
390
F
  0
LAYER
  5
16B
330
2
100
AcDbSymbolTableRecord
100
AcDbLayerTableRecord
  2
1
 70
     0
 62
     4
  6
Continuous
370
    50
390
F
  0
LAYER
  5
16C
330
2
100
AcDbSymbolTableRecord
100
AcDbLayerTableRecord
  2
2
 70
     0
 62
     7
  6
Continuous
370
    25
390
F
  0
LAYER
  5
16D
330
2
100
AcDbSymbolTableRecord
100
AcDbLayerTableRecord
  2
3
 70
     0
 62
     1
  6
DASH
370
    35
390
F
  0
LAYER
  5
16E
330
2
100
AcDbSymbolTableRecord
100
AcDbLayerTableRecord
  2
4
 70
     0
 62
     2
  6
LONGDASH_DASH
370
    25
390
F
  0
LAYER
  5
16F
330
2
100
AcDbSymbolTableRecord
100
AcDbLayerTableRecord
  2
6
 70
     0
 62
     5
  6
Continuous
370
    -3
390
F
  0
LAYER
  5
170
330
2
100
AcDbSymbolTableRecord
100
AcDbLayerTableRecord
  2
CUT
 70
     0
 62
     1
  6
Continuous
370
    25
390
F
  0
LAYER
  5
171
330
2
100
AcDbSymbolTableRecord
100
AcDbLayerTableRecord
  2
NOCUT
 70
     0
 62
     7
  6
Continuous
370
    25
390
F
  0
LAYER
  5
172
330
2
100
AcDbSymbolTableRecord
100
AcDbLayerTableRecord
  2
SK1
 70
     0
 62
     4
  6
Continuous
370
    50
390
F
  0
LAYER
  5
173
330
2
100
AcDbSymbolTableRecord
100
AcDbLayerTableRecord
  2
SK2
 70
     0
 62
     7
  6
Continuous
370
    25
390
F
  0
LAYER
  5
174
330
2
100
AcDbSymbolTableRecord
100
AcDbLayerTableRecord
  2
SK3
 70
     0
 62
     1
  6
DASH
370
    35
390
F
  0
LAYER
  5
175
330
2
100
AcDbSymbolTableRecord
100
AcDbLayerTableRecord
  2
SK4
 70
     0
 62
     2
  6
LONGDASH_DASH
370
    25
390
F
  0
LAYER
  5
176
330
2
100
AcDbSymbolTableRecord
100
AcDbLayerTableRecord
  2
SK6
 70
     0
 62
     5
  6
Continuous
370
    -3
390
F
  0
LAYER
  5
177
330
2
100
AcDbSymbolTableRecord
100
AcDbLayerTableRecord
  2
INFTOTAL
 70
     0
 62
     9
  6
Continuous
370
    18
390
F
  0
ENDTAB
  0
TABLE
  2
STYLE
  5
3
330
0
100
AcDbSymbolTable
 70
     2
  0
STYLE
  5
11
330
3
100
AcDbSymbolTableRecord
100
AcDbTextStyleTableRecord
  2
Standard
 70
     0
 40
0.0
 41
1.0
 50
0.0
 71
     0
 42
0.2
  3
txt
  4

  0
STYLE
  5
130
330
3
100
AcDbSymbolTableRecord
100
AcDbTextStyleTableRecord
  2
BMG_Text
 70
     0
 40
3.5
 41
1.0
 50
0.0
 71
     0
 42
0.2
  3
monos.ttf
  4

1001
ACAD
1000
Monospac821 BT
1071
       49
  0
ENDTAB
  0
TABLE
  2
VIEW
  5
6
330
0
100
AcDbSymbolTable
 70
     0
  0
ENDTAB
  0
TABLE
  2
UCS
  5
7
330
0
100
AcDbSymbolTable
 70
     0
  0
ENDTAB
  0
TABLE
  2
APPID
  5
9
330
0
100
AcDbSymbolTable
 70
     1
  0
APPID
  5
12
330
9
100
AcDbSymbolTableRecord
100
AcDbRegAppTableRecord
  2
ACAD
 70
     0
  0
ENDTAB
  0
TABLE
  2
DIMSTYLE
  5
A
330
0
100
AcDbSymbolTable
 70
     1
100
AcDbDimStyleTable
  0
DIMSTYLE
105
28
330
A
100
AcDbSymbolTableRecord
100
AcDbDimStyleTableRecord
  2
Standard
 70
     0
178
     0
340
11
  0
ENDTAB
  0
TABLE
  2
BLOCK_RECORD
  5
1
330
0
100
AcDbSymbolTable
 70
     0
  0
BLOCK_RECORD
  5
1D
330
1
100
AcDbSymbolTableRecord
100
AcDbBlockTableRecord
  2
*Model_Space
340
1E
  0
BLOCK_RECORD
  5
1B
330
1
100
AcDbSymbolTableRecord
100
AcDbBlockTableRecord
  2
*Paper_Space
340
1C
  0
ENDTAB
  0
ENDSEC
  0
SECTION
  2
BLOCKS
  0
BLOCK
  5
119
330
1D
100
AcDbEntity
  8
0
100
AcDbBlockBegin
  2
*Model_Space
 70
     0
 10
0.0
 20
0.0
 30
0.0
  3
*Model_Space
  1

  0
ENDBLK
  5
11A
330
1D
100
AcDbEntity
  8
0
100
AcDbBlockEnd
  0
BLOCK
  5
117
330
1B
100
AcDbEntity
 67
     1
  8
0
100
AcDbBlockBegin
  2
*Paper_Space
 70
     0
 10
0.0
 20
0.0
 30
0.0
  3
*Paper_Space
  1

  0
ENDBLK
  5
118
330
1B
100
AcDbEntity
 67
     1
  8
0
100
AcDbBlockEnd
  0
ENDSEC
  0
SECTION
  2
ENTITIES
  0
LINE
  5
29
330
1D
100
AcDbEntity
  8
3
100
AcDbLine
 10
36.7
 20
8.05
 30
0.0
 11
59.7
 21
8.05
 31
0.0
  0
LINE
  5
2A
330
1D
100
AcDbEntity
  8
1
100
AcDbLine
 10
39.015014172
 20
2.284593182
 30
0.0
 11
39.28133145
 21
1.727485564
 31
0.0
  0
LINE
  5
2B
330
1D
100
AcDbEntity
  8
3
100
AcDbLine
 10
36.7
 20
9.0
 30
0.0
 11
36.7
 21
-9.0
 31
0.0
  0
LINE
  5
2C
330
1D
100
AcDbEntity
  8
1
100
AcDbLine
 10
21.485441491
 20
18.0
 30
0.0
 11
21.485441491
 21
0.0
 31
0.0
  0
LINE
  5
2D
330
1D
100
AcDbEntity
  8
1
100
AcDbLine
 10
21.485441491
 20
0.0
 30
0.0
 11
21.485441491
 21
-18.0
 31
0.0
  0
LINE
  5
2E
330
1D
100
AcDbEntity
  8
1
100
AcDbLine
 10
57.187486792
 20
-17.69256878
 30
0.0
 11
57.187486792
 21
0.0
 31
0.0
  0
LINE
  5
2F
330
1D
100
AcDbEntity
  8
1
100
AcDbLine
 10
57.187486792
 20
0.0
 30
0.0
 11
57.187486792
 21
17.69256878
 31
0.0
  0
LINE
  5
30
330
1D
100
AcDbEntity
  8
1
100
AcDbLine
 10
43.440965655
 20
-0.3
 30
0.0
 11
41.711299681
 21
-0.3
 31
0.0
  0
LINE
  5
31
330
1D
100
AcDbEntity
  8
1
100
AcDbLine
 10
41.711299681
 20
0.3
 30
0.0
 11
43.440965655
 21
0.3
 31
0.0
  0
LINE
  5
32
330
1D
100
AcDbEntity
  8
3
100
AcDbLine
 10
59.7
 20
-8.999999552
 30
0.0
 11
36.7
 21
-9.0
 31
0.0
  0
LINE
  5
33
330
1D
100
AcDbEntity
  8
3
100
AcDbLine
 10
59.7
 20
-8.05
 30
0.0
 11
36.69
 21
-8.05
 31
0.0
  0
ARC
  5
34
330
1D
100
AcDbEntity
  8
1
100
AcDbCircle
 10
20.3
 20
-18.2
 30
0.0
 40
0.5
100
AcDbArc
 50
75.000000007
 51
126.869897646
  0
LINE
  5
35
330
1D
100
AcDbEntity
  8
1
100
AcDbLine
 10
20.429409523
 20
-17.717037087
 30
0.0
 11
21.485441491
 21
-18.0
 31
0.0
  0
LINE
  5
36
330
1D
100
AcDbEntity
  8
1
100
AcDbLine
 10
21.485441491
 20
-18.0
 30
0.0
 11
55.0
 21
-18.0
 31
0.0
  0
LINE
  5
37
330
1D
100
AcDbEntity
  8
1
100
AcDbLine
 10
55.0
 20
-18.0
 30
0.0
 11
55.0
 21
-0.3
 31
0.0
  0
LINE
  5
38
330
1D
100
AcDbEntity
  8
1
100
AcDbLine
 10
55.0
 20
-0.3
 30
0.0
 11
43.521754999
 21
-0.3
 31
0.0
  0
ARC
  5
39
330
1D
100
AcDbEntity
  8
1
100
AcDbCircle
 10
37.151652464
 20
0.57725313
 30
0.0
 40
6.430223897
100
AcDbArc
 50
265.078513719
 51
352.1588827360001
  0
LINE
  5
3A
330
1D
100
AcDbEntity
  8
1
100
AcDbLine
 10
36.6
 20
-5.829263781
 30
0.0
 11
35.1
 21
-5.829263781
 31
0.0
  0
ARC
  5
3B
330
1D
100
AcDbEntity
  8
1
100
AcDbCircle
 10
35.047336204
 20
-0.658307434
 30
0.0
 40
5.171224517
100
AcDbArc
 50
233.922700164
 51
270.583510813
  0
ARC
  5
3C
330
1D
100
AcDbEntity
  8
1
100
AcDbCircle
 10
34.88345284
 20
0.070555419
 30
0.0
 40
5.691582669
100
AcDbArc
 50
183.732931693
 51
239.586055938
  0
LINE
  5
3D
330
1D
100
AcDbEntity
  8
1
100
AcDbLine
 10
29.203945646
 20
-0.3
 30
0.0
 11
22.3
 21
-0.3
 31
0.0
  0
ARC
  5
3E
330
1D
100
AcDbEntity
  8
1
100
AcDbCircle
 10
22.3
 20
0.0
 30
0.0
 40
0.3
100
AcDbArc
 50
90.0
 51
270.0
  0
LINE
  5
3F
330
1D
100
AcDbEntity
  8
1
100
AcDbLine
 10
22.3
 20
0.3
 30
0.0
 11
29.203945646
 21
0.3
 31
0.0
  0
ARC
  5
40
330
1D
100
AcDbEntity
  8
1
100
AcDbCircle
 10
34.860525508
 20
-0.056417592
 30
0.0
 40
5.667797565
100
AcDbArc
 50
120.286417602
 51
176.394594766
  0
ARC
  5
41
330
1D
100
AcDbEntity
  8
1
100
AcDbCircle
 10
35.047336204
 20
0.658307434
 30
0.0
 40
5.171224518
100
AcDbArc
 50
89.416489187
 51
126.077299837
  0
LINE
  5
42
330
1D
100
AcDbEntity
  8
1
100
AcDbLine
 10
35.1
 20
5.829263781
 30
0.0
 11
36.6
 21
5.829263781
 31
0.0
  0
ARC
  5
43
330
1D
100
AcDbEntity
  8
1
100
AcDbCircle
 10
37.151557139
 20
-0.577372461
 30
0.0
 40
6.430334611
100
AcDbArc
 50
7.842054718
 51
94.920548827
  0
LINE
  5
44
330
1D
100
AcDbEntity
  8
1
100
AcDbLine
 10
43.521754999
 20
0.3
 30
0.0
 11
55.0
 21
0.3
 31
0.0
  0
LINE
  5
45
330
1D
100
AcDbEntity
  8
1
100
AcDbLine
 10
55.0
 20
0.3
 30
0.0
 11
55.0
 21
18.0
 31
0.0
  0
LINE
  5
46
330
1D
100
AcDbEntity
  8
1
100
AcDbLine
 10
55.0
 20
18.0
 30
0.0
 11
21.485441491
 21
18.0
 31
0.0
  0
LINE
  5
47
330
1D
100
AcDbEntity
  8
1
100
AcDbLine
 10
21.485441491
 20
18.0
 30
0.0
 11
20.429409523
 21
17.717037087
 31
0.0
  0
ARC
  5
48
330
1D
100
AcDbEntity
  8
1
100
AcDbCircle
 10
20.3
 20
18.2
 30
0.0
 40
0.5
100
AcDbArc
 50
233.130102354
 51
285.0
  0
LINE
  5
49
330
1D
100
AcDbEntity
  8
1
100
AcDbLine
 10
43.521754999
 20
-0.3
 30
0.0
 11
43.440965655
 21
-0.3
 31
0.0
  0
ARC
  5
4A
330
1D
100
AcDbEntity
  8
1
100
AcDbCircle
 10
36.641999821
 20
1.23809184
 30
0.0
 40
6.970772046
100
AcDbArc
 50
269.654783283
 51
347.252862467
  0
LINE
  5
4B
330
1D
100
AcDbEntity
  8
1
100
AcDbLine
 10
36.6
 20
-5.732553678
 30
0.0
 11
35.1
 21
-5.732553678
 31
0.0
  0
ARC
  5
4C
330
1D
100
AcDbEntity
  8
1
100
AcDbCircle
 10
35.099291231
 20
-1.171761728
 30
0.0
 40
4.560792005
100
AcDbArc
 50
248.647977804
 51
270.008904033
  0
ARC
  5
4D
330
1D
100
AcDbEntity
  8
1
100
AcDbCircle
 10
35.172084659
 20
0.926146828
 30
0.0
 40
6.578134752
100
AcDbArc
 50
241.190866519
 51
254.721926476
  0
LINE
  5
4E
330
1D
100
AcDbEntity
  8
1
100
AcDbLine
 10
29.203945646
 20
0.3
 30
0.0
 11
30.648921256
 21
0.3
 31
0.0
  0
ARC
  5
4F
330
1D
100
AcDbEntity
  8
1
100
AcDbCircle
 10
35.13891012
 20
0.0
 30
0.0
 40
4.5
100
AcDbArc
 50
48.08605360399999
 51
176.177446271
  0
LINE
  5
50
330
1D
100
AcDbEntity
  8
1
100
AcDbLine
 10
38.14497181
 20
3.34867035
 30
0.0
 11
38.892400557
 21
4.329510743
 31
0.0
  0
ARC
  5
51
330
1D
100
AcDbEntity
  8
1
100
AcDbCircle
 10
35.13891012
 20
-0.281083258
 30
0.0
 40
5.945272702
100
AcDbArc
 50
50.85092088599999
 51
106.607109945
  0
ARC
  5
52
330
1D
100
AcDbEntity
  8
1
100
AcDbCircle
 10
35.172084659
 20
-0.926146828
 30
0.0
 40
6.578134752
100
AcDbArc
 50
105.278073524
 51
118.80913348
  0
ARC
  5
53
330
1D
100
AcDbEntity
  8
1
100
AcDbCircle
 10
35.13891012
 20
0.281083258
 30
0.0
 40
5.943171302
100
AcDbArc
 50
253.357788598
 51
309.086403278
  0
LINE
  5
54
330
1D
100
AcDbEntity
  8
1
100
AcDbLine
 10
38.888208856
 20
-4.334665369
 30
0.0
 11
38.14497181
 21
-3.34867035
 31
0.0
  0
ARC
  5
55
330
1D
100
AcDbEntity
  8
1
100
AcDbCircle
 10
35.13891012
 20
0.0
 30
0.0
 40
4.5
100
AcDbArc
 50
183.822553729
 51
311.913946397
  0
LINE
  5
56
330
1D
100
AcDbEntity
  8
1
100
AcDbLine
 10
30.648921256
 20
-0.3
 30
0.0
 11
29.203945646
 21
-0.3
 31
0.0
  0
LINE
  5
57
330
1D
100
AcDbEntity
  8
1
100
AcDbLine
 10
55.0
 20
18.0
 30
0.0
 11
57.187486792
 21
17.69256878
 31
0.0
  0
LINE
  5
58
330
1D
100
AcDbEntity
  8
1
100
AcDbLine
 10
57.187486792
 20
17.69256878
 30
0.0
 11
58.844856365
 21
17.984807753
 31
0.0
  0
ARC
  5
59
330
1D
100
AcDbEntity
  8
1
100
AcDbCircle
 10
59.018504542
 20
17.0
 30
0.0
 40
1.0
100
AcDbArc
 50
47.03938581100002
 51
100.0
  0
LINE
  5
5A
330
1D
100
AcDbEntity
  8
1
100
AcDbLine
 10
59.7
 20
17.731822343
 30
0.0
 11
59.7
 21
-17.731822343
 31
0.0
  0
ARC
  5
5B
330
1D
100
AcDbEntity
  8
1
100
AcDbCircle
 10
59.018504542
 20
-17.0
 30
0.0
 40
1.0
100
AcDbArc
 50
259.999999998
 51
312.960614191
  0
LINE
  5
5C
330
1D
100
AcDbEntity
  8
1
100
AcDbLine
 10
58.844856365
 20
-17.984807753
 30
0.0
 11
57.187486792
 21
-17.69256878
 31
0.0
  0
LINE
  5
5D
330
1D
100
AcDbEntity
  8
1
100
AcDbLine
 10
57.187486792
 20
-17.69256878
 30
0.0
 11
55.0
 21
-18.0
 31
0.0
  0
ARC
  5
5E
330
1D
100
AcDbEntity
  8
1
100
AcDbCircle
 10
35.099291231
 20
1.171761728
 30
0.0
 40
4.560792005
100
AcDbArc
 50
89.991095967
 51
111.352022196
  0
LINE
  5
5F
330
1D
100
AcDbEntity
  8
1
100
AcDbLine
 10
35.1
 20
5.732553678
 30
0.0
 11
36.6
 21
5.732553678
 31
0.0
  0
ARC
  5
60
330
1D
100
AcDbEntity
  8
1
100
AcDbCircle
 10
36.641999821
 20
-1.23809184
 30
0.0
 40
6.970772046
100
AcDbArc
 50
12.747137533
 51
90.34521671600001
  0
LINE
  5
61
330
1D
100
AcDbEntity
  8
1
100
AcDbLine
 10
43.440965655
 20
0.3
 30
0.0
 11
43.521754999
 21
0.3
 31
0.0
  0
LINE
  5
62
330
1D
100
AcDbEntity
  8
1
100
AcDbLine
 10
55.0
 20
0.3
 30
0.0
 11
55.7
 21
0.3
 31
0.0
  0
ARC
  5
63
330
1D
100
AcDbEntity
  8
1
100
AcDbCircle
 10
55.7
 20
0.0
 30
0.0
 40
0.3
100
AcDbArc
 50
270.0
 51
90.0
  0
LINE
  5
64
330
1D
100
AcDbEntity
  8
1
100
AcDbLine
 10
55.7
 20
-0.3
 30
0.0
 11
55.0
 21
-0.3
 31
0.0
  0
ARC
  5
65
330
1D
100
AcDbEntity
  8
1
100
AcDbCircle
 10
35.153856592
 20
-0.003854529
 30
0.0
 40
4.484830716
100
AcDbArc
 50
334.8644315600001
 51
356.213850234
  0
LINE
  5
66
330
1D
100
AcDbEntity
  8
1
100
AcDbLine
 10
39.213997552
 20
-1.908837977
 30
0.0
 11
40.435609064
 21
-2.886607276
 31
0.0
  0
ARC
  5
67
330
1D
100
AcDbEntity
  8
1
100
AcDbCircle
 10
37.43781368
 20
0.203528891
 30
0.0
 40
4.305312845
100
AcDbArc
 50
314.131013314
 51
353.280035856
  0
LINE
  5
68
330
1D
100
AcDbEntity
  8
1
100
AcDbLine
 10
41.711299681
 20
-0.3
 30
0.0
 11
39.628898984
 21
-0.3
 31
0.0
  0
ARC
  5
69
330
1D
100
AcDbEntity
  8
1
100
AcDbCircle
 10
36.05
 20
0.255039452
 30
0.0
 40
5.395994918
100
AcDbArc
 50
301.789368174
 51
324.394036889
  0
ARC
  5
6A
330
1D
100
AcDbEntity
  8
1
100
AcDbCircle
 10
35.13891012
 20
0.0
 30
0.0
 40
4.5
100
AcDbArc
 50
25.099164477
 51
48.086053603
  0
LINE
  5
6B
330
1D
100
AcDbEntity
  8
1
100
AcDbLine
 10
39.213997552
 20
1.908837977
 30
0.0
 11
39.604464526
 21
2.224863887
 31
0.0
  0
LINE
  5
6C
330
1D
100
AcDbEntity
  8
1
100
AcDbLine
 10
39.604464526
 20
2.224863887
 30
0.0
 11
40.435609064
 21
2.886607276
 31
0.0
  0
ARC
  5
6D
330
1D
100
AcDbEntity
  8
1
100
AcDbCircle
 10
37.43781368
 20
-0.203528891
 30
0.0
 40
4.305312845
100
AcDbArc
 50
6.719964143000001
 51
45.86898668600001
  0
LINE
  5
6E
330
1D
100
AcDbEntity
  8
1
100
AcDbLine
 10
41.711299681
 20
0.3
 30
0.0
 11
39.628898984
 21
0.3
 31
0.0
  0
ARC
  5
6F
330
1D
100
AcDbEntity
  8
1
100
AcDbCircle
 10
35.13891012
 20
0.0
 30
0.0
 40
4.5
100
AcDbArc
 50
3.822553729
 51
25.099164476
  0
ARC
  5
70
330
1D
100
AcDbEntity
  8
1
100
AcDbCircle
 10
36.05
 20
-0.255039452
 30
0.0
 40
5.393683215
100
AcDbArc
 50
35.605963111
 51
58.21063182599998
  0
ARC
  5
71
330
1D
100
AcDbEntity
  8
1
100
AcDbCircle
 10
35.13891012
 20
0.0
 30
0.0
 40
4.5
100
AcDbArc
 50
311.913946397
 51
334.900835523
  0
LINE
  5
72
330
1D
100
AcDbEntity
  8
3
100
AcDbLine
 10
59.7
 20
8.999999552
 30
0.0
 11
36.7
 21
9.0
 31
0.0
  0
ARC
  5
73
330
1D
100
AcDbEntity
  8
SK1
100
AcDbCircle
 10
-0.3
 20
-18.2
 30
0.0
 40
0.5
100
AcDbArc
 50
53.130102354
 51
104.999999993
  0
LINE
  5
74
330
1D
100
AcDbEntity
  8
SK1
100
AcDbLine
 10
-0.429409523
 20
-17.717037087
 30
0.0
 11
-1.485441491
 21
-18.0
 31
0.0
  0
LINE
  5
75
330
1D
100
AcDbEntity
  8
SK1
100
AcDbLine
 10
-1.485441491
 20
-18.0
 30
0.0
 11
-35.0
 21
-18.0
 31
0.0
  0
LINE
  5
76
330
1D
100
AcDbEntity
  8
SK1
100
AcDbLine
 10
-35.0
 20
-18.0
 30
0.0
 11
-35.0
 21
-0.3
 31
0.0
  0
LINE
  5
77
330
1D
100
AcDbEntity
  8
SK1
100
AcDbLine
 10
-35.0
 20
-0.3
 30
0.0
 11
-23.521754999
 21
-0.3
 31
0.0
  0
ARC
  5
78
330
1D
100
AcDbEntity
  8
SK1
100
AcDbCircle
 10
-17.151652464
 20
0.57725313
 30
0.0
 40
6.430223897
100
AcDbArc
 50
187.841117264
 51
274.921486281
  0
LINE
  5
79
330
1D
100
AcDbEntity
  8
SK1
100
AcDbLine
 10
-16.6
 20
-5.829263781
 30
0.0
 11
-15.1
 21
-5.829263781
 31
0.0
  0
ARC
  5
7A
330
1D
100
AcDbEntity
  8
SK1
100
AcDbCircle
 10
-15.047336204
 20
-0.658307434
 30
0.0
 40
5.171224517
100
AcDbArc
 50
269.416489187
 51
306.077299836
  0
ARC
  5
7B
330
1D
100
AcDbEntity
  8
SK1
100
AcDbCircle
 10
-14.88345284
 20
0.070555419
 30
0.0
 40
5.691582669
100
AcDbArc
 50
300.413944062
 51
356.2670683069999
  0
LINE
  5
7C
330
1D
100
AcDbEntity
  8
SK1
100
AcDbLine
 10
-9.203945646
 20
-0.3
 30
0.0
 11
-2.3
 21
-0.3
 31
0.0
  0
ARC
  5
7D
330
1D
100
AcDbEntity
  8
SK1
100
AcDbCircle
 10
-2.3
 20
0.0
 30
0.0
 40
0.3
100
AcDbArc
 50
270.0
 51
90.0
  0
LINE
  5
7E
330
1D
100
AcDbEntity
  8
SK1
100
AcDbLine
 10
-2.3
 20
0.3
 30
0.0
 11
-9.203945646
 21
0.3
 31
0.0
  0
ARC
  5
7F
330
1D
100
AcDbEntity
  8
SK1
100
AcDbCircle
 10
-14.860525508
 20
-0.056417592
 30
0.0
 40
5.667797565
100
AcDbArc
 50
3.605405234
 51
59.713582398
  0
ARC
  5
80
330
1D
100
AcDbEntity
  8
SK1
100
AcDbCircle
 10
-15.047336204
 20
0.658307434
 30
0.0
 40
5.171224518
100
AcDbArc
 50
53.922700163
 51
90.58351081300002
  0
LINE
  5
81
330
1D
100
AcDbEntity
  8
SK1
100
AcDbLine
 10
-15.1
 20
5.829263781
 30
0.0
 11
-16.6
 21
5.829263781
 31
0.0
  0
ARC
  5
82
330
1D
100
AcDbEntity
  8
SK1
100
AcDbCircle
 10
-17.151557139
 20
-0.577372461
 30
0.0
 40
6.430334611
100
AcDbArc
 50
85.07945117300001
 51
172.157945282
  0
LINE
  5
83
330
1D
100
AcDbEntity
  8
SK1
100
AcDbLine
 10
-23.521754999
 20
0.3
 30
0.0
 11
-35.0
 21
0.3
 31
0.0
  0
LINE
  5
84
330
1D
100
AcDbEntity
  8
SK1
100
AcDbLine
 10
-35.0
 20
0.3
 30
0.0
 11
-35.0
 21
18.0
 31
0.0
  0
LINE
  5
85
330
1D
100
AcDbEntity
  8
SK1
100
AcDbLine
 10
-35.0
 20
18.0
 30
0.0
 11
-1.485441491
 21
18.0
 31
0.0
  0
LINE
  5
86
330
1D
100
AcDbEntity
  8
SK1
100
AcDbLine
 10
-1.485441491
 20
18.0
 30
0.0
 11
-0.429409523
 21
17.717037087
 31
0.0
  0
ARC
  5
87
330
1D
100
AcDbEntity
  8
SK1
100
AcDbCircle
 10
-0.3
 20
18.2
 30
0.0
 40
0.5
100
AcDbArc
 50
255.0
 51
306.8698976460001
  0
LINE
  5
88
330
1D
100
AcDbEntity
  8
SK1
100
AcDbLine
 10
-23.521754999
 20
-0.3
 30
0.0
 11
-23.440965655
 21
-0.3
 31
0.0
  0
ARC
  5
89
330
1D
100
AcDbEntity
  8
SK1
100
AcDbCircle
 10
-16.641999821
 20
1.23809184
 30
0.0
 40
6.970772046
100
AcDbArc
 50
192.747137533
 51
270.345216717
  0
LINE
  5
8A
330
1D
100
AcDbEntity
  8
SK1
100
AcDbLine
 10
-16.6
 20
-5.732553678
 30
0.0
 11
-15.1
 21
-5.732553678
 31
0.0
  0
ARC
  5
8B
330
1D
100
AcDbEntity
  8
SK1
100
AcDbCircle
 10
-15.099291232
 20
-1.171761728
 30
0.0
 40
4.560792005
100
AcDbArc
 50
269.991095967
 51
291.352022196
  0
ARC
  5
8C
330
1D
100
AcDbEntity
  8
SK1
100
AcDbCircle
 10
-15.172084659
 20
0.926146828
 30
0.0
 40
6.578134752
100
AcDbArc
 50
285.278073524
 51
298.809133481
  0
LINE
  5
8D
330
1D
100
AcDbEntity
  8
SK1
100
AcDbLine
 10
-9.203945646
 20
0.3
 30
0.0
 11
-10.648921256
 21
0.3
 31
0.0
  0
ARC
  5
8E
330
1D
100
AcDbEntity
  8
SK1
100
AcDbCircle
 10
-15.13891012
 20
0.0
 30
0.0
 40
4.5
100
AcDbArc
 50
3.822553729
 51
131.913946396
  0
LINE
  5
8F
330
1D
100
AcDbEntity
  8
SK1
100
AcDbLine
 10
-18.14497181
 20
3.34867035
 30
0.0
 11
-18.892400557
 21
4.329510743
 31
0.0
  0
ARC
  5
90
330
1D
100
AcDbEntity
  8
SK1
100
AcDbCircle
 10
-15.13891012
 20
-0.281083258
 30
0.0
 40
5.945272702
100
AcDbArc
 50
73.392890055
 51
129.149079114
  0
ARC
  5
91
330
1D
100
AcDbEntity
  8
SK1
100
AcDbCircle
 10
-15.172084659
 20
-0.926146828
 30
0.0
 40
6.578134752
100
AcDbArc
 50
61.19086652
 51
74.72192647599998
  0
ARC
  5
92
330
1D
100
AcDbEntity
  8
SK1
100
AcDbCircle
 10
-15.13891012
 20
0.281083258
 30
0.0
 40
5.943171302
100
AcDbArc
 50
230.913596722
 51
286.642211402
  0
LINE
  5
93
330
1D
100
AcDbEntity
  8
SK1
100
AcDbLine
 10
-18.888208856
 20
-4.334665369
 30
0.0
 11
-18.14497181
 21
-3.34867035
 31
0.0
  0
ARC
  5
94
330
1D
100
AcDbEntity
  8
SK1
100
AcDbCircle
 10
-15.13891012
 20
0.0
 30
0.0
 40
4.5
100
AcDbArc
 50
228.086053603
 51
356.177446271
  0
LINE
  5
95
330
1D
100
AcDbEntity
  8
SK1
100
AcDbLine
 10
-10.648921256
 20
-0.3
 30
0.0
 11
-9.203945646
 21
-0.3
 31
0.0
  0
LINE
  5
96
330
1D
100
AcDbEntity
  8
SK1
100
AcDbLine
 10
-35.0
 20
18.0
 30
0.0
 11
-37.187486792
 21
17.69256878
 31
0.0
  0
LINE
  5
97
330
1D
100
AcDbEntity
  8
SK1
100
AcDbLine
 10
-37.187486792
 20
17.69256878
 30
0.0
 11
-38.844856365
 21
17.984807753
 31
0.0
  0
ARC
  5
98
330
1D
100
AcDbEntity
  8
SK1
100
AcDbCircle
 10
-39.018504542
 20
17.0
 30
0.0
 40
1.0
100
AcDbArc
 50
80.0
 51
132.960614189
  0
LINE
  5
99
330
1D
100
AcDbEntity
  8
SK1
100
AcDbLine
 10
-39.7
 20
17.731822343
 30
0.0
 11
-39.7
 21
-17.731822343
 31
0.0
  0
ARC
  5
9A
330
1D
100
AcDbEntity
  8
SK1
100
AcDbCircle
 10
-39.018504542
 20
-17.0
 30
0.0
 40
1.0
100
AcDbArc
 50
227.039385809
 51
280.000000002
  0
LINE
  5
9B
330
1D
100
AcDbEntity
  8
SK1
100
AcDbLine
 10
-38.844856365
 20
-17.984807753
 30
0.0
 11
-37.187486792
 21
-17.69256878
 31
0.0
  0
LINE
  5
9C
330
1D
100
AcDbEntity
  8
SK1
100
AcDbLine
 10
-37.187486792
 20
-17.69256878
 30
0.0
 11
-35.0
 21
-18.0
 31
0.0
  0
ARC
  5
9D
330
1D
100
AcDbEntity
  8
SK1
100
AcDbCircle
 10
-15.099291232
 20
1.171761728
 30
0.0
 40
4.560792005
100
AcDbArc
 50
68.647977804
 51
90.008904033
  0
LINE
  5
9E
330
1D
100
AcDbEntity
  8
SK1
100
AcDbLine
 10
-15.1
 20
5.732553678
 30
0.0
 11
-16.6
 21
5.732553678
 31
0.0
  0
ARC
  5
9F
330
1D
100
AcDbEntity
  8
SK1
100
AcDbCircle
 10
-16.641999821
 20
-1.23809184
 30
0.0
 40
6.970772046
100
AcDbArc
 50
89.654783284
 51
167.252862467
  0
LINE
  5
A0
330
1D
100
AcDbEntity
  8
SK1
100
AcDbLine
 10
-23.440965655
 20
0.3
 30
0.0
 11
-23.521754999
 21
0.3
 31
0.0
  0
LINE
  5
A1
330
1D
100
AcDbEntity
  8
SK1
100
AcDbLine
 10
-35.0
 20
0.3
 30
0.0
 11
-35.7
 21
0.3
 31
0.0
  0
ARC
  5
A2
330
1D
100
AcDbEntity
  8
SK1
100
AcDbCircle
 10
-35.7
 20
0.0
 30
0.0
 40
0.3
100
AcDbArc
 50
90.0
 51
270.0
  0
LINE
  5
A3
330
1D
100
AcDbEntity
  8
SK1
100
AcDbLine
 10
-35.7
 20
-0.3
 30
0.0
 11
-35.0
 21
-0.3
 31
0.0
  0
ARC
  5
A4
330
1D
100
AcDbEntity
  8
SK1
100
AcDbCircle
 10
-15.153856592
 20
-0.003854529
 30
0.0
 40
4.484830716
100
AcDbArc
 50
183.786149766
 51
205.13556844
  0
LINE
  5
A5
330
1D
100
AcDbEntity
  8
SK1
100
AcDbLine
 10
-19.213997552
 20
-1.908837977
 30
0.0
 11
-20.435609064
 21
-2.886607276
 31
0.0
  0
ARC
  5
A6
330
1D
100
AcDbEntity
  8
SK1
100
AcDbCircle
 10
-17.43781368
 20
0.203528891
 30
0.0
 40
4.305312845
100
AcDbArc
 50
186.719964144
 51
225.868986686
  0
LINE
  5
A7
330
1D
100
AcDbEntity
  8
SK1
100
AcDbLine
 10
-21.711299681
 20
-0.3
 30
0.0
 11
-19.628898984
 21
-0.3
 31
0.0
  0
ARC
  5
A8
330
1D
100
AcDbEntity
  8
SK1
100
AcDbCircle
 10
-16.05
 20
0.255039452
 30
0.0
 40
5.395994918
100
AcDbArc
 50
215.605963111
 51
238.210631826
  0
ARC
  5
A9
330
1D
100
AcDbEntity
  8
SK1
100
AcDbCircle
 10
-15.13891012
 20
0.0
 30
0.0
 40
4.5
100
AcDbArc
 50
131.913946397
 51
154.900835523
  0
LINE
  5
AA
330
1D
100
AcDbEntity
  8
SK1
100
AcDbLine
 10
-19.213997552
 20
1.908837977
 30
0.0
 11
-19.604464526
 21
2.224863887
 31
0.0
  0
LINE
  5
AB
330
1D
100
AcDbEntity
  8
SK1
100
AcDbLine
 10
-19.604464526
 20
2.224863887
 30
0.0
 11
-20.435609064
 21
2.886607276
 31
0.0
  0
ARC
  5
AC
330
1D
100
AcDbEntity
  8
SK1
100
AcDbCircle
 10
-17.43781368
 20
-0.203528891
 30
0.0
 40
4.305312845
100
AcDbArc
 50
134.131013314
 51
173.280035857
  0
LINE
  5
AD
330
1D
100
AcDbEntity
  8
SK1
100
AcDbLine
 10
-21.711299681
 20
0.3
 30
0.0
 11
-19.628898984
 21
0.3
 31
0.0
  0
ARC
  5
AE
330
1D
100
AcDbEntity
  8
SK1
100
AcDbCircle
 10
-15.13891012
 20
0.0
 30
0.0
 40
4.5
100
AcDbArc
 50
154.900835524
 51
176.177446271
  0
ARC
  5
AF
330
1D
100
AcDbEntity
  8
SK1
100
AcDbCircle
 10
-16.05
 20
-0.255039452
 30
0.0
 40
5.393683215
100
AcDbArc
 50
121.789368174
 51
144.394036889
  0
ARC
  5
B0
330
1D
100
AcDbEntity
  8
SK1
100
AcDbCircle
 10
-15.13891012
 20
0.0
 30
0.0
 40
4.5
100
AcDbArc
 50
205.099164477
 51
228.086053603
  0
LINE
  5
B1
330
1D
100
AcDbEntity
  8
SK3
100
AcDbLine
 10
-39.7
 20
8.999999552
 30
0.0
 11
-16.7
 21
9.0
 31
0.0
  0
LINE
  5
B2
330
1D
100
AcDbEntity
  8
1
100
AcDbLine
 10
0.0
 20
0.0
 30
0.0
 11
0.0
 21
-31.25
 31
0.0
  0
LINE
  5
B3
330
1D
100
AcDbEntity
  8
1
100
AcDbLine
 10
0.0
 20
-31.25
 30
0.0
 11
0.5
 21
-31.75
 31
0.0
  0
LINE
  5
B4
330
1D
100
AcDbEntity
  8
1
100
AcDbLine
 10
0.5
 20
-31.75
 30
0.0
 11
19.5
 21
-31.75
 31
0.0
  0
LINE
  5
B5
330
1D
100
AcDbEntity
  8
1
100
AcDbLine
 10
19.5
 20
-31.75
 30
0.0
 11
20.0
 21
-31.25
 31
0.0
  0
LINE
  5
B6
330
1D
100
AcDbEntity
  8
1
100
AcDbLine
 10
20.0
 20
-31.25
 30
0.0
 11
20.0
 21
0.0
 31
0.0
  0
LINE
  5
B7
330
1D
100
AcDbEntity
  8
1
100
AcDbLine
 10
20.0
 20
0.0
 30
0.0
 11
20.0
 21
31.25
 31
0.0
  0
LINE
  5
B8
330
1D
100
AcDbEntity
  8
1
100
AcDbLine
 10
20.0
 20
31.25
 30
0.0
 11
19.5
 21
31.75
 31
0.0
  0
LINE
  5
B9
330
1D
100
AcDbEntity
  8
1
100
AcDbLine
 10
19.5
 20
31.75
 30
0.0
 11
0.5
 21
31.75
 31
0.0
  0
LINE
  5
BA
330
1D
100
AcDbEntity
  8
1
100
AcDbLine
 10
0.5
 20
31.75
 30
0.0
 11
0.0
 21
31.25
 31
0.0
  0
LINE
  5
BB
330
1D
100
AcDbEntity
  8
1
100
AcDbLine
 10
0.0
 20
31.25
 30
0.0
 11
0.0
 21
0.0
 31
0.0
  0
LINE
  5
BC
330
1D
100
AcDbEntity
  8
SK1
100
AcDbLine
 10
-1.485441491
 20
18.0
 30
0.0
 11
-1.485441491
 21
0.0
 31
0.0
  0
LINE
  5
BD
330
1D
100
AcDbEntity
  8
SK1
100
AcDbLine
 10
-1.485441491
 20
0.0
 30
0.0
 11
-1.485441491
 21
-18.0
 31
0.0
  0
LINE
  5
BE
330
1D
100
AcDbEntity
  8
SK1
100
AcDbLine
 10
-37.187486792
 20
-17.69256878
 30
0.0
 11
-37.187486792
 21
0.0
 31
0.0
  0
LINE
  5
BF
330
1D
100
AcDbEntity
  8
SK1
100
AcDbLine
 10
-37.187486792
 20
0.0
 30
0.0
 11
-37.187486792
 21
17.69256878
 31
0.0
  0
LINE
  5
C0
330
1D
100
AcDbEntity
  8
SK1
100
AcDbLine
 10
-23.440965655
 20
-0.3
 30
0.0
 11
-21.711299681
 21
-0.3
 31
0.0
  0
LINE
  5
C1
330
1D
100
AcDbEntity
  8
SK1
100
AcDbLine
 10
-21.711299681
 20
0.3
 30
0.0
 11
-23.440965655
 21
0.3
 31
0.0
  0
LINE
  5
C2
330
1D
100
AcDbEntity
  8
SK3
100
AcDbLine
 10
-39.7
 20
-8.999999552
 30
0.0
 11
-16.7
 21
-9.0
 31
0.0
  0
LINE
  5
C3
330
1D
100
AcDbEntity
  8
SK3
100
AcDbLine
 10
-39.7
 20
-8.05
 30
0.0
 11
0.0
 21
-8.05
 31
0.0
  0
LINE
  5
C4
330
1D
100
AcDbEntity
  8
3
100
AcDbLine
 10
0.0
 20
-8.05
 30
0.0
 11
36.69
 21
-8.05
 31
0.0
  0
LINE
  5
C5
330
1D
100
AcDbEntity
  8
3
100
AcDbLine
 10
36.69
 20
8.05
 30
0.0
 11
0.0
 21
8.05
 31
0.0
  0
LINE
  5
C6
330
1D
100
AcDbEntity
  8
SK3
100
AcDbLine
 10
0.0
 20
8.05
 30
0.0
 11
-39.7
 21
8.05
 31
0.0
  0
LINE
  5
C7
330
1D
100
AcDbEntity
  8
SK1
100
AcDbLine
 10
-19.015014172
 20
2.284593182
 30
0.0
 11
-19.28133145
 21
1.727485564
 31
0.0
  0
LINE
  5
C8
330
1D
100
AcDbEntity
  8
SK3
100
AcDbLine
 10
-16.7
 20
9.0
 30
0.0
 11
-16.7
 21
-9.0
 31
0.0
  0
LINE
  5
C9
330
1D
100
AcDbEntity
  8
SK4
100
AcDbLine
 10
-41.926685837
 20
0.0
 30
0.0
 11
62.11697235
 21
0.0
 31
0.0
  0
LINE
  5
CA
330
1D
100
AcDbEntity
  8
2
100
AcDbLine
 10
71.982470512
 20
-18.0
 30
0.0
 11
55.0
 21
-18.0
 31
0.0
  0
LINE
  5
CB
330
1D
100
AcDbEntity
  8
2
100
AcDbLine
 10
69.982470512
 20
-18.0
 30
0.0
 11
69.532470512
 21
-14.5
 31
0.0
  0
LINE
  5
CC
330
1D
100
AcDbEntity
  8
2
100
AcDbLine
 10
69.532470512
 20
-14.5
 30
0.0
 11
70.432470512
 21
-14.5
 31
0.0
  0
LINE
  5
CD
330
1D
100
AcDbEntity
  8
2
100
AcDbLine
 10
70.432470512
 20
-14.5
 30
0.0
 11
69.982470512
 21
-18.0
 31
0.0
  0
LINE
  5
CE
330
1D
100
AcDbEntity
  8
2
100
AcDbLine
 10
71.982470512
 20
18.0
 30
0.0
 11
55.0
 21
18.0
 31
0.0
  0
LINE
  5
CF
330
1D
100
AcDbEntity
  8
2
100
AcDbLine
 10
69.982470512
 20
18.0
 30
0.0
 11
70.432470512
 21
14.5
 31
0.0
  0
LINE
  5
D0
330
1D
100
AcDbEntity
  8
2
100
AcDbLine
 10
70.432470512
 20
14.5
 30
0.0
 11
69.532470512
 21
14.5
 31
0.0
  0
LINE
  5
D1
330
1D
100
AcDbEntity
  8
2
100
AcDbLine
 10
69.532470512
 20
14.5
 30
0.0
 11
69.982470512
 21
18.0
 31
0.0
  0
LINE
  5
D2
330
1D
100
AcDbEntity
  8
2
100
AcDbLine
 10
69.982470512
 20
-14.5
 30
0.0
 11
69.982470512
 21
14.5
 31
0.0
  0
TEXT
  5
D3
330
1D
100
AcDbEntity
  8
2
100
AcDbText
 10
68.482470512
 20
0.331405848
 30
0.0
 40
3.5
  1
36
 50
90.0
  7
BMG_Text
100
AcDbText
  0
CIRCLE
  5
D4
330
1D
100
AcDbEntity
  8
2
100
AcDbCircle
 10
67.232470512
 20
-1.918594152
 30
0.0
 40
1.25
  0
LINE
  5
D5
330
1D
100
AcDbEntity
  8
2
100
AcDbLine
 10
68.482470512
 20
-3.168594152
 30
0.0
 11
65.982470512
 21
-0.668594152
 31
0.0
  0
LINE
  5
D6
330
1D
100
AcDbEntity
  8
2
100
AcDbLine
 10
80.502071381
 20
-31.75
 30
0.0
 11
19.5
 21
-31.75
 31
0.0
  0
LINE
  5
D7
330
1D
100
AcDbEntity
  8
2
100
AcDbLine
 10
78.502071381
 20
-31.75
 30
0.0
 11
78.052071381
 21
-28.25
 31
0.0
  0
LINE
  5
D8
330
1D
100
AcDbEntity
  8
2
100
AcDbLine
 10
78.052071381
 20
-28.25
 30
0.0
 11
78.952071381
 21
-28.25
 31
0.0
  0
LINE
  5
D9
330
1D
100
AcDbEntity
  8
2
100
AcDbLine
 10
78.952071381
 20
-28.25
 30
0.0
 11
78.502071381
 21
-31.75
 31
0.0
  0
LINE
  5
DA
330
1D
100
AcDbEntity
  8
2
100
AcDbLine
 10
80.502071381
 20
31.75
 30
0.0
 11
19.5
 21
31.75
 31
0.0
  0
LINE
  5
DB
330
1D
100
AcDbEntity
  8
2
100
AcDbLine
 10
78.502071381
 20
31.75
 30
0.0
 11
78.952071381
 21
28.25
 31
0.0
  0
LINE
  5
DC
330
1D
100
AcDbEntity
  8
2
100
AcDbLine
 10
78.952071381
 20
28.25
 30
0.0
 11
78.052071381
 21
28.25
 31
0.0
  0
LINE
  5
DD
330
1D
100
AcDbEntity
  8
2
100
AcDbLine
 10
78.052071381
 20
28.25
 30
0.0
 11
78.502071381
 21
31.75
 31
0.0
  0
LINE
  5
DE
330
1D
100
AcDbEntity
  8
2
100
AcDbLine
 10
78.502071381
 20
-28.25
 30
0.0
 11
78.502071381
 21
28.25
 31
0.0
  0
TEXT
  5
DF
330
1D
100
AcDbEntity
  8
2
100
AcDbText
 10
77.002071381
 20
-1.17250071
 30
0.0
 40
3.5
  1
63.5
 50
90.0
  7
BMG_Text
100
AcDbText
  0
CIRCLE
  5
E0
330
1D
100
AcDbEntity
  8
2
100
AcDbCircle
 10
75.752071381
 20
-3.42250071
 30
0.0
 40
1.25
  0
LINE
  5
E1
330
1D
100
AcDbEntity
  8
2
100
AcDbLine
 10
77.002071381
 20
-4.67250071
 30
0.0
 11
74.502071381
 21
-2.17250071
 31
0.0
  0
LINE
  5
E2
330
1D
100
AcDbEntity
  8
2
100
AcDbLine
 10
0.0
 20
-41.85628891
 30
0.0
 11
0.0
 21
-31.25
 31
0.0
  0
LINE
  5
E3
330
1D
100
AcDbEntity
  8
2
100
AcDbLine
 10
0.0
 20
-39.85628891
 30
0.0
 11
3.5
 21
-39.40628891
 31
0.0
  0
LINE
  5
E4
330
1D
100
AcDbEntity
  8
2
100
AcDbLine
 10
3.5
 20
-39.40628891
 30
0.0
 11
3.5
 21
-40.30628891
 31
0.0
  0
LINE
  5
E5
330
1D
100
AcDbEntity
  8
2
100
AcDbLine
 10
3.5
 20
-40.30628891
 30
0.0
 11
0.0
 21
-39.85628891
 31
0.0
  0
LINE
  5
E6
330
1D
100
AcDbEntity
  8
2
100
AcDbLine
 10
20.0
 20
-41.85628891
 30
0.0
 11
20.0
 21
-31.25
 31
0.0
  0
LINE
  5
E7
330
1D
100
AcDbEntity
  8
2
100
AcDbLine
 10
20.0
 20
-39.85628891
 30
0.0
 11
16.5
 21
-40.30628891
 31
0.0
  0
LINE
  5
E8
330
1D
100
AcDbEntity
  8
2
100
AcDbLine
 10
16.5
 20
-40.30628891
 30
0.0
 11
16.5
 21
-39.40628891
 31
0.0
  0
LINE
  5
E9
330
1D
100
AcDbEntity
  8
2
100
AcDbLine
 10
16.5
 20
-39.40628891
 30
0.0
 11
20.0
 21
-39.85628891
 31
0.0
  0
LINE
  5
EA
330
1D
100
AcDbEntity
  8
2
100
AcDbLine
 10
3.5
 20
-39.85628891
 30
0.0
 11
16.5
 21
-39.85628891
 31
0.0
  0
TEXT
  5
EB
330
1D
100
AcDbEntity
  8
2
100
AcDbText
 10
8.335312276
 20
-38.35628891
 30
0.0
 40
3.5
  1
20
  7
BMG_Text
100
AcDbText
  0
TEXT
  5
EC
330
1D
100
AcDbEntity
  8
SK6
100
AcDbText
 10
75.5279191403394
 20
-54.72495787672658
 30
0.0
 40
3.5
  1
331.865N
  7
BMG_Text
100
AcDbText
  0
LINE
  5
ED
330
1D
100
AcDbEntity
  8
SK4
100
AcDbLine
 10
-15.13891012
 20
-6.711659909
 30
0.0
 11
-15.13891012
 21
6.810022276
 31
0.0
  0
LINE
  5
EE
330
1D
100
AcDbEntity
  8
SK4
100
AcDbLine
 10
35.13891012
 20
-6.969964469
 30
0.0
 11
35.13891012
 21
6.956769214
 31
0.0
  0
LWPOLYLINE
  5
1A8
330
1D
100
AcDbEntity
  8
INFTOTAL
100
AcDbPolyline
 90
        4
 70
     1
 43
0.0
 10
-61.33481092940484
 20
50.51781023733177
 10
-61.33481092940484
 20
-58.32497961614588
 10
103.8571071860912
 20
-58.32497961614588
 10
103.8571071860912
 20
50.51781023733177
  0
LINE
  5
1AE
330
1D
100
AcDbEntity
  8
NOCUT
100
AcDbLine
 10
0.0
 20
31.25
 30
0.0
 11
0.5
 21
31.75
 31
0.0
  0
LINE
  5
1AF
330
1D
100
AcDbEntity
  8
NOCUT
100
AcDbLine
 10
0.5
 20
31.75
 30
0.0
 11
19.5
 21
31.75
 31
0.0
  0
LINE
  5
1B0
330
1D
100
AcDbEntity
  8
NOCUT
100
AcDbLine
 10
19.5
 20
31.75
 30
0.0
 11
20.0
 21
31.25
 31
0.0
  0
LINE
  5
1B1
330
1D
100
AcDbEntity
  8
NOCUT
100
AcDbLine
 10
20.0
 20
31.25
 30
0.0
 11
19.99999999999891
 21
17.80000000000081
 31
0.0
  0
ARC
  5
1B2
330
1D
100
AcDbEntity
  8
NOCUT
100
AcDbCircle
 10
20.29999999995155
 20
18.19999999989069
 30
0.0
 40
0.4999999998834849
100
AcDbArc
 50
233.1301023509261
 51
285.0000000625608
  0
LINE
  5
1B3
330
1D
100
AcDbEntity
  8
NOCUT
100
AcDbLine
 10
20.42940952255126
 20
17.71703708685547
 30
0.0
 11
21.485441491
 21
18.0
 31
0.0
  0
LINE
  5
1B4
330
1D
100
AcDbEntity
  8
NOCUT
100
AcDbLine
 10
21.485441491
 20
18.0
 30
0.0
 11
55.0
 21
18.0
 31
0.0
  0
LINE
  5
1B5
330
1D
100
AcDbEntity
  8
NOCUT
100
AcDbLine
 10
55.0
 20
18.0
 30
0.0
 11
57.187486792
 21
17.69256878
 31
0.0
  0
LINE
  5
1B6
330
1D
100
AcDbEntity
  8
NOCUT
100
AcDbLine
 10
57.187486792
 20
17.69256878
 30
0.0
 11
58.84485636433307
 21
17.98480775301221
 31
0.0
  0
ARC
  5
1B7
330
1D
100
AcDbEntity
  8
NOCUT
100
AcDbCircle
 10
59.01850454157764
 20
16.99999999708343
 30
0.0
 40
1.000000002916572
100
AcDbArc
 50
47.03938590209805
 51
89.9999999758005
  0
LINE
  5
1B8
330
1D
100
AcDbEntity
  8
NOCUT
100
AcDbLine
 10
59.7
 20
17.731822343
 30
0.0
 11
59.7
 21
0.0
 31
0.0
  0
LINE
  5
1B9
330
1D
100
AcDbEntity
  8
NOCUT
100
AcDbLine
 10
59.7
 20
0.0
 30
0.0
 11
0.0
 21
0.0
 31
0.0
  0
LINE
  5
1C1
330
1D
100
AcDbEntity
  8
4
100
AcDbLine
 10
62.11697235
 20
0.0
 30
0.0
 11
0.0
 21
0.0
 31
0.0
  0
LINE
  5
1C2
330
1D
100
AcDbEntity
  8
4
100
AcDbLine
 10
35.13891012
 20
6.956769214
 30
0.0
 11
35.13891012
 21
-6.969964469
 31
0.0
  0
LINE
  5
1C6
330
1D
100
AcDbEntity
  8
SK1
100
AcDbLine
 10
0.000000000001089
 20
-17.80000000000081
 30
0.0
 11
0.0000000000010895
 21
17.80000000000082
 31
0.0
  0
LINE
  5
1C9
330
1D
100
AcDbEntity
  8
NOCUT
100
AcDbLine
 10
0.0
 20
31.25
 30
0.0
 11
0.0
 21
0.0
 31
0.0
  0
ENDSEC
  0
SECTION
  2
OBJECTS
  0
DICTIONARY
  5
C
330
0
100
AcDbDictionary
281
     1
  3
ACAD_DETAILVIEWSTYLE
350
18F
  3
ACAD_GROUP
350
D
  3
ACAD_LAYOUT
350
1A
  3
ACAD_MLINESTYLE
350
17
  3
ACAD_PLOTSETTINGS
350
19
  3
ACAD_PLOTSTYLENAME
350
E
  3
ACAD_SCALELIST
350
F5
  3
ACAD_SECTIONVIEWSTYLE
350
190
  3
AcDbVariableDictionary
350
137
  3
APPDATA
350
185
  3
DWGPROPS
350
1FB
  0
DICTIONARY
  5
186
330
2
100
AcDbDictionary
280
     1
281
     1
  3
ACAD_LAYERSTATES
360
187
  0
DICTIONARY
  5
18F
102
{ACAD_REACTORS
330
C
102
}
330
C
100
AcDbDictionary
281
     1
  0
DICTIONARY
  5
D
102
{ACAD_REACTORS
330
C
102
}
330
C
100
AcDbDictionary
281
     1
  0
DICTIONARY
  5
1A
102
{ACAD_REACTORS
330
C
102
}
330
C
100
AcDbDictionary
281
     1
  3
Layout1
350
1C
  3
Model
350
1E
  0
DICTIONARY
  5
17
102
{ACAD_REACTORS
330
C
102
}
330
C
100
AcDbDictionary
281
     1
  3
Standard
350
18
  0
DICTIONARY
  5
19
102
{ACAD_REACTORS
330
C
102
}
330
C
100
AcDbDictionary
281
     1
  0
ACDBDICTIONARYWDFLT
  5
E
102
{ACAD_REACTORS
330
C
102
}
330
C
100
AcDbDictionary
281
     1
  3
Normal
350
F
100
AcDbDictionaryWithDefault
340
F
  0
DICTIONARY
  5
F5
102
{ACAD_REACTORS
330
C
102
}
330
C
100
AcDbDictionary
281
     1
  3
A0
350
F6
  3
A1
350
F7
  3
A2
350
F8
  3
A3
350
F9
  3
A4
350
FA
  3
A5
350
FB
  3
A6
350
FC
  3
A7
350
FD
  3
A8
350
FE
  3
A9
350
FF
  3
B0
350
100
  3
B1
350
101
  3
B2
350
102
  3
B3
350
103
  3
B4
350
104
  3
B5
350
105
  3
B6
350
106
  3
B7
350
107
  3
B8
350
108
  3
B9
350
109
  3
C0
350
10A
  3
C1
350
10B
  3
C2
350
10C
  3
C3
350
10D
  3
C4
350
10E
  3
C5
350
10F
  3
C6
350
110
  3
C7
350
111
  3
C8
350
112
  3
C9
350
113
  3
D0
350
114
  3
D1
350
115
  3
D2
350
116
  0
DICTIONARY
  5
190
102
{ACAD_REACTORS
330
C
102
}
330
C
100
AcDbDictionary
281
     1
  0
DICTIONARY
  5
137
102
{ACAD_REACTORS
330
C
102
}
330
C
100
AcDbDictionary
281
     1
  3
DIMASSOC
350
13B
  3
HIDETEXT
350
13C
  0
DICTIONARY
  5
185
102
{ACAD_REACTORS
330
C
102
}
330
C
100
AcDbDictionary
281
     1
  0
XRECORD
  5
1FB
102
{ACAD_REACTORS
330
C
102
}
330
C
100
AcDbXrecord
280
     1
  1
DWGPROPS COOKIE
  2

  3

  4

  6

  7

  8
matthias.ochs
  9

300
=
301
=
302
=
303
=
304
=
305
=
306
=
307
=
308
=
309
=
 40
0.0
 41
2458327.466079572
 42
2458589.565177824
  1

 90
        0
  0
DICTIONARY
  5
187
102
{ACAD_REACTORS
330
186
102
}
330
186
100
AcDbDictionary
281
     1
  0
LAYOUT
  5
1C
102
{ACAD_REACTORS
330
1A
102
}
330
1A
100
AcDbPlotSettings
  1

  2
none_device
  4

  6

 40
0.0
 41
0.0
 42
0.0
 43
0.0
 44
0.0
 45
0.0
 46
0.0
 47
0.0
 48
0.0
 49
0.0
140
0.0
141
0.0
142
1.0
143
1.0
 70
   688
 72
     0
 73
     0
 74
     5
  7

 75
    16
147
1.0
148
0.0
149
0.0
100
AcDbLayout
  1
Layout1
 70
     1
 71
     1
 10
0.0
 20
0.0
 11
12.0
 21
9.0
 12
0.0
 22
0.0
 32
0.0
 14
1.000000000000000E+20
 24
1.000000000000000E+20
 34
1.000000000000000E+20
 15
-1.000000000000000E+20
 25
-1.000000000000000E+20
 35
-1.000000000000000E+20
146
0.0
 13
0.0
 23
0.0
 33
0.0
 16
1.0
 26
0.0
 36
0.0
 17
0.0
 27
1.0
 37
0.0
 76
     0
330
1B
  0
LAYOUT
  5
1E
102
{ACAD_REACTORS
330
1A
102
}
330
1A
100
AcDbPlotSettings
  1

  2
none_device
  4

  6

 40
0.0
 41
0.0
 42
0.0
 43
0.0
 44
0.0
 45
0.0
 46
0.0
 47
0.0
 48
0.0
 49
0.0
140
0.0
141
0.0
142
1.0
143
1.0
 70
  1712
 72
     0
 73
     0
 74
     0
  7

 75
     0
147
1.0
148
0.0
149
0.0
100
AcDbLayout
  1
Model
 70
     1
 71
     0
 10
0.0
 20
0.0
 11
12.0
 21
9.0
 12
0.0
 22
0.0
 32
0.0
 14
-61.33481092940484
 24
-58.32497961614588
 34
0.0
 15
103.8571071860912
 25
50.51781023733177
 35
0.0
146
0.0
 13
0.0
 23
0.0
 33
0.0
 16
1.0
 26
0.0
 36
0.0
 17
0.0
 27
1.0
 37
0.0
 76
     0
330
1D
331
EF
  0
MLINESTYLE
  5
18
102
{ACAD_REACTORS
330
17
102
}
330
17
100
AcDbMlineStyle
  2
Standard
 70
     0
  3

 62
   256
 51
90.0
 52
90.0
 71
     2
 49
0.5
 62
   256
  6
BYLAYER
 49
-0.5
 62
   256
  6
BYLAYER
  0
ACDBPLACEHOLDER
  5
F
102
{ACAD_REACTORS
330
E
102
}
330
E
  0
SCALE
  5
F6
102
{ACAD_REACTORS
330
F5
102
}
330
F5
100
AcDbScale
 70
     0
300
1:1
140
1.0
141
1.0
290
     1
  0
SCALE
  5
F7
102
{ACAD_REACTORS
330
F5
102
}
330
F5
100
AcDbScale
 70
     0
300
1:2
140
1.0
141
2.0
290
     0
  0
SCALE
  5
F8
102
{ACAD_REACTORS
330
F5
102
}
330
F5
100
AcDbScale
 70
     0
300
1:4
140
1.0
141
4.0
290
     0
  0
SCALE
  5
F9
102
{ACAD_REACTORS
330
F5
102
}
330
F5
100
AcDbScale
 70
     0
300
1:5
140
1.0
141
5.0
290
     0
  0
SCALE
  5
FA
102
{ACAD_REACTORS
330
F5
102
}
330
F5
100
AcDbScale
 70
     0
300
1:8
140
1.0
141
8.0
290
     0
  0
SCALE
  5
FB
102
{ACAD_REACTORS
330
F5
102
}
330
F5
100
AcDbScale
 70
     0
300
1:10
140
1.0
141
10.0
290
     0
  0
SCALE
  5
FC
102
{ACAD_REACTORS
330
F5
102
}
330
F5
100
AcDbScale
 70
     0
300
1:16
140
1.0
141
16.0
290
     0
  0
SCALE
  5
FD
102
{ACAD_REACTORS
330
F5
102
}
330
F5
100
AcDbScale
 70
     0
300
1:20
140
1.0
141
20.0
290
     0
  0
SCALE
  5
FE
102
{ACAD_REACTORS
330
F5
102
}
330
F5
100
AcDbScale
 70
     0
300
1:30
140
1.0
141
30.0
290
     0
  0
SCALE
  5
FF
102
{ACAD_REACTORS
330
F5
102
}
330
F5
100
AcDbScale
 70
     0
300
1:40
140
1.0
141
40.0
290
     0
  0
SCALE
  5
100
102
{ACAD_REACTORS
330
F5
102
}
330
F5
100
AcDbScale
 70
     0
300
1:50
140
1.0
141
50.0
290
     0
  0
SCALE
  5
101
102
{ACAD_REACTORS
330
F5
102
}
330
F5
100
AcDbScale
 70
     0
300
1:100
140
1.0
141
100.0
290
     0
  0
SCALE
  5
102
102
{ACAD_REACTORS
330
F5
102
}
330
F5
100
AcDbScale
 70
     0
300
2:1
140
2.0
141
1.0
290
     0
  0
SCALE
  5
103
102
{ACAD_REACTORS
330
F5
102
}
330
F5
100
AcDbScale
 70
     0
300
4:1
140
4.0
141
1.0
290
     0
  0
SCALE
  5
104
102
{ACAD_REACTORS
330
F5
102
}
330
F5
100
AcDbScale
 70
     0
300
8:1
140
8.0
141
1.0
290
     0
  0
SCALE
  5
105
102
{ACAD_REACTORS
330
F5
102
}
330
F5
100
AcDbScale
 70
     0
300
10:1
140
10.0
141
1.0
290
     0
  0
SCALE
  5
106
102
{ACAD_REACTORS
330
F5
102
}
330
F5
100
AcDbScale
 70
     0
300
100:1
140
100.0
141
1.0
290
     0
  0
SCALE
  5
107
102
{ACAD_REACTORS
330
F5
102
}
330
F5
100
AcDbScale
 70
     0
300
1/128" = 1'-0"
140
0.0078125
141
12.0
290
     0
  0
SCALE
  5
108
102
{ACAD_REACTORS
330
F5
102
}
330
F5
100
AcDbScale
 70
     0
300
1/64" = 1'-0"
140
0.015625
141
12.0
290
     0
  0
SCALE
  5
109
102
{ACAD_REACTORS
330
F5
102
}
330
F5
100
AcDbScale
 70
     0
300
1/32" = 1'-0"
140
0.03125
141
12.0
290
     0
  0
SCALE
  5
10A
102
{ACAD_REACTORS
330
F5
102
}
330
F5
100
AcDbScale
 70
     0
300
1/16" = 1'-0"
140
0.0625
141
12.0
290
     0
  0
SCALE
  5
10B
102
{ACAD_REACTORS
330
F5
102
}
330
F5
100
AcDbScale
 70
     0
300
3/32" = 1'-0"
140
0.09375
141
12.0
290
     0
  0
SCALE
  5
10C
102
{ACAD_REACTORS
330
F5
102
}
330
F5
100
AcDbScale
 70
     0
300
1/8" = 1'-0"
140
0.125
141
12.0
290
     0
  0
SCALE
  5
10D
102
{ACAD_REACTORS
330
F5
102
}
330
F5
100
AcDbScale
 70
     0
300
3/16" = 1'-0"
140
0.1875
141
12.0
290
     0
  0
SCALE
  5
10E
102
{ACAD_REACTORS
330
F5
102
}
330
F5
100
AcDbScale
 70
     0
300
1/4" = 1'-0"
140
0.25
141
12.0
290
     0
  0
SCALE
  5
10F
102
{ACAD_REACTORS
330
F5
102
}
330
F5
100
AcDbScale
 70
     0
300
3/8" = 1'-0"
140
0.375
141
12.0
290
     0
  0
SCALE
  5
110
102
{ACAD_REACTORS
330
F5
102
}
330
F5
100
AcDbScale
 70
     0
300
1/2" = 1'-0"
140
0.5
141
12.0
290
     0
  0
SCALE
  5
111
102
{ACAD_REACTORS
330
F5
102
}
330
F5
100
AcDbScale
 70
     0
300
3/4" = 1'-0"
140
0.75
141
12.0
290
     0
  0
SCALE
  5
112
102
{ACAD_REACTORS
330
F5
102
}
330
F5
100
AcDbScale
 70
     0
300
1" = 1'-0"
140
1.0
141
12.0
290
     0
  0
SCALE
  5
113
102
{ACAD_REACTORS
330
F5
102
}
330
F5
100
AcDbScale
 70
     0
300
1-1/2" = 1'-0"
140
1.5
141
12.0
290
     0
  0
SCALE
  5
114
102
{ACAD_REACTORS
330
F5
102
}
330
F5
100
AcDbScale
 70
     0
300
3" = 1'-0"
140
3.0
141
12.0
290
     0
  0
SCALE
  5
115
102
{ACAD_REACTORS
330
F5
102
}
330
F5
100
AcDbScale
 70
     0
300
6" = 1'-0"
140
6.0
141
12.0
290
     0
  0
SCALE
  5
116
102
{ACAD_REACTORS
330
F5
102
}
330
F5
100
AcDbScale
 70
     0
300
1'-0" = 1'-0"
140
12.0
141
12.0
290
     0
  0
DICTIONARYVAR
  5
13B
102
{ACAD_REACTORS
330
137
102
}
330
137
100
DictionaryVariables
280
     0
  1
2
  0
DICTIONARYVAR
  5
13C
102
{ACAD_REACTORS
330
137
102
}
330
137
100
DictionaryVariables
280
     0
  1
1
  0
ENDSEC
  0
EOF
