  0
SECTION
  2
HEADER
  9
$ACADVER
  1
AC1015
  9
$ACADMAINTVER
 70
     6
  9
$DWGCODEPAGE
  3
ANSI_1252
  9
$INSBASE
 10
0.0
 20
0.0
 30
0.0
  9
$EXTMIN
 10
-79.27982746615419
 20
-28.34933277966218
 30
0.0
  9
$EXTMAX
 10
87.56104408690396
 20
37.13428574798869
 30
0.0
  9
$LIMMIN
 10
-42.690884816
 20
-23.980938791
  9
$LIMMAX
 10
50.399916038
 20
23.981187261
  9
$ORTHOMODE
 70
     0
  9
$REGENMODE
 70
     1
  9
$FILLMODE
 70
     1
  9
$QTEXTMODE
 70
     0
  9
$MIRRTEXT
 70
     1
  9
$LTSCALE
 40
1.0
  9
$ATTMODE
 70
     1
  9
$TEXTSIZE
 40
0.2
  9
$TRACEWID
 40
0.05
  9
$TEXTSTYLE
  7
Standard
  9
$CLAYER
  8
SK1
  9
$CELTYPE
  6
ByLayer
  9
$CECOLOR
 62
   256
  9
$CELTSCALE
 40
1.0
  9
$DISPSILH
 70
     0
  9
$DIMSCALE
 40
1.0
  9
$DIMASZ
 40
0.18
  9
$DIMEXO
 40
0.0625
  9
$DIMDLI
 40
0.38
  9
$DIMRND
 40
0.0
  9
$DIMDLE
 40
0.0
  9
$DIMEXE
 40
0.18
  9
$DIMTP
 40
0.0
  9
$DIMTM
 40
0.0
  9
$DIMTXT
 40
0.18
  9
$DIMCEN
 40
0.09
  9
$DIMTSZ
 40
0.0
  9
$DIMTOL
 70
     0
  9
$DIMLIM
 70
     0
  9
$DIMTIH
 70
     1
  9
$DIMTOH
 70
     1
  9
$DIMSE1
 70
     0
  9
$DIMSE2
 70
     0
  9
$DIMTAD
 70
     0
  9
$DIMZIN
 70
     0
  9
$DIMBLK
  1

  9
$DIMASO
 70
     1
  9
$DIMSHO
 70
     1
  9
$DIMPOST
  1

  9
$DIMAPOST
  1

  9
$DIMALT
 70
     0
  9
$DIMALTD
 70
     2
  9
$DIMALTF
 40
25.4
  9
$DIMLFAC
 40
1.0
  9
$DIMTOFL
 70
     0
  9
$DIMTVP
 40
0.0
  9
$DIMTIX
 70
     0
  9
$DIMSOXD
 70
     0
  9
$DIMSAH
 70
     0
  9
$DIMBLK1
  1

  9
$DIMBLK2
  1

  9
$DIMSTYLE
  2
Standard
  9
$DIMCLRD
 70
     0
  9
$DIMCLRE
 70
     0
  9
$DIMCLRT
 70
     0
  9
$DIMTFAC
 40
1.0
  9
$DIMGAP
 40
0.09
  9
$DIMJUST
 70
     0
  9
$DIMSD1
 70
     0
  9
$DIMSD2
 70
     0
  9
$DIMTOLJ
 70
     1
  9
$DIMTZIN
 70
     0
  9
$DIMALTZ
 70
     0
  9
$DIMALTTZ
 70
     0
  9
$DIMUPT
 70
     0
  9
$DIMDEC
 70
     4
  9
$DIMTDEC
 70
     4
  9
$DIMALTU
 70
     2
  9
$DIMALTTD
 70
     2
  9
$DIMTXSTY
  7
Standard
  9
$DIMAUNIT
 70
     0
  9
$DIMADEC
 70
     0
  9
$DIMALTRND
 40
0.0
  9
$DIMAZIN
 70
     0
  9
$DIMDSEP
 70
    46
  9
$DIMATFIT
 70
     3
  9
$DIMFRAC
 70
     0
  9
$DIMLDRBLK
  1

  9
$DIMLUNIT
 70
     2
  9
$DIMLWD
 70
    -2
  9
$DIMLWE
 70
    -2
  9
$DIMTMOVE
 70
     2
  9
$LUNITS
 70
     2
  9
$LUPREC
 70
     4
  9
$SKETCHINC
 40
0.1
  9
$FILLETRAD
 40
0.5
  9
$AUNITS
 70
     2
  9
$AUPREC
 70
     0
  9
$MENU
  1
.
  9
$ELEVATION
 40
0.0
  9
$PELEVATION
 40
0.0
  9
$THICKNESS
 40
0.0
  9
$LIMCHECK
 70
     0
  9
$CHAMFERA
 40
0.5
  9
$CHAMFERB
 40
0.5
  9
$CHAMFERC
 40
1.0
  9
$CHAMFERD
 40
0.0
  9
$SKPOLY
 70
     0
  9
$TDCREATE
 40
2458327.549412523
  9
$TDUCREATE
 40
2458327.46607919
  9
$TDUPDATE
 40
2458589.648313808
  9
$TDUUPDATE
 40
2458589.564980475
  9
$TDINDWG
 40
0.0071898727
  9
$TDUSRTIMER
 40
0.000962662
  9
$USRTIMER
 70
     1
  9
$ANGBASE
 50
0.0
  9
$ANGDIR
 70
     0
  9
$PDMODE
 70
     0
  9
$PDSIZE
 40
0.0
  9
$PLINEWID
 40
0.0
  9
$SPLFRAME
 70
     0
  9
$SPLINETYPE
 70
     6
  9
$SPLINESEGS
 70
     8
  9
$HANDSEED
  5
1F9
  9
$SURFTAB1
 70
     6
  9
$SURFTAB2
 70
     6
  9
$SURFTYPE
 70
     6
  9
$SURFU
 70
     6
  9
$SURFV
 70
     6
  9
$UCSBASE
  2

  9
$UCSNAME
  2

  9
$UCSORG
 10
0.0
 20
0.0
 30
0.0
  9
$UCSXDIR
 10
1.0
 20
0.0
 30
0.0
  9
$UCSYDIR
 10
0.0
 20
1.0
 30
0.0
  9
$UCSORTHOREF
  2

  9
$UCSORTHOVIEW
 70
     0
  9
$UCSORGTOP
 10
0.0
 20
0.0
 30
0.0
  9
$UCSORGBOTTOM
 10
0.0
 20
0.0
 30
0.0
  9
$UCSORGLEFT
 10
0.0
 20
0.0
 30
0.0
  9
$UCSORGRIGHT
 10
0.0
 20
0.0
 30
0.0
  9
$UCSORGFRONT
 10
0.0
 20
0.0
 30
0.0
  9
$UCSORGBACK
 10
0.0
 20
0.0
 30
0.0
  9
$PUCSBASE
  2

  9
$PUCSNAME
  2

  9
$PUCSORG
 10
0.0
 20
0.0
 30
0.0
  9
$PUCSXDIR
 10
1.0
 20
0.0
 30
0.0
  9
$PUCSYDIR
 10
0.0
 20
1.0
 30
0.0
  9
$PUCSORTHOREF
  2

  9
$PUCSORTHOVIEW
 70
     0
  9
$PUCSORGTOP
 10
0.0
 20
0.0
 30
0.0
  9
$PUCSORGBOTTOM
 10
0.0
 20
0.0
 30
0.0
  9
$PUCSORGLEFT
 10
0.0
 20
0.0
 30
0.0
  9
$PUCSORGRIGHT
 10
0.0
 20
0.0
 30
0.0
  9
$PUCSORGFRONT
 10
0.0
 20
0.0
 30
0.0
  9
$PUCSORGBACK
 10
0.0
 20
0.0
 30
0.0
  9
$USERI1
 70
     0
  9
$USERI2
 70
     0
  9
$USERI3
 70
     0
  9
$USERI4
 70
     0
  9
$USERI5
 70
     0
  9
$USERR1
 40
0.0
  9
$USERR2
 40
0.0
  9
$USERR3
 40
0.0
  9
$USERR4
 40
0.0
  9
$USERR5
 40
0.0
  9
$WORLDVIEW
 70
     1
  9
$SHADEDGE
 70
     3
  9
$SHADEDIF
 70
    70
  9
$TILEMODE
 70
     1
  9
$MAXACTVP
 70
    64
  9
$PINSBASE
 10
0.0
 20
0.0
 30
0.0
  9
$PLIMCHECK
 70
     0
  9
$PEXTMIN
 10
1.000000000000000E+20
 20
1.000000000000000E+20
 30
1.000000000000000E+20
  9
$PEXTMAX
 10
-1.000000000000000E+20
 20
-1.000000000000000E+20
 30
-1.000000000000000E+20
  9
$PLIMMIN
 10
0.0
 20
0.0
  9
$PLIMMAX
 10
0.0
 20
0.0
  9
$UNITMODE
 70
     0
  9
$VISRETAIN
 70
     1
  9
$PLINEGEN
 70
     0
  9
$PSLTSCALE
 70
     1
  9
$TREEDEPTH
 70
  3020
  9
$CMLSTYLE
  2
Standard
  9
$CMLJUST
 70
     0
  9
$CMLSCALE
 40
1.0
  9
$PROXYGRAPHICS
 70
     1
  9
$MEASUREMENT
 70
     0
  9
$CELWEIGHT
370
    -1
  9
$ENDCAPS
280
     0
  9
$JOINSTYLE
280
     0
  9
$LWDISPLAY
290
     0
  9
$INSUNITS
 70
     0
  9
$HYPERLINKBASE
  1

  9
$STYLESHEET
  1

  9
$XEDIT
290
     1
  9
$CEPSNTYPE
380
     0
  9
$PSTYLEMODE
290
     1
  9
$FINGERPRINTGUID
  2
{7A603B3A-1437-4730-A43F-DE11B1E82890}
  9
$VERSIONGUID
  2
{FAEB1C32-E019-11D5-929B-00C0DF256EC4}
  9
$EXTNAMES
290
     1
  9
$PSVPSCALE
 40
0.0
  9
$OLESTARTUP
290
     0
  0
ENDSEC
  0
SECTION
  2
CLASSES
  0
CLASS
  1
ACDBDICTIONARYWDFLT
  2
AcDbDictionaryWithDefault
  3
ObjectDBX Classes
 90
        0
280
     0
281
     0
  0
CLASS
  1
SCALE
  2
AcDbScale
  3
ObjectDBX Classes
 90
     1153
280
     0
281
     0
  0
CLASS
  1
VISUALSTYLE
  2
AcDbVisualStyle
  3
ObjectDBX Classes
 90
     4095
280
     0
281
     0
  0
CLASS
  1
MATERIAL
  2
AcDbMaterial
  3
ObjectDBX Classes
 90
     1153
280
     0
281
     0
  0
CLASS
  1
DICTIONARYVAR
  2
AcDbDictionaryVar
  3
ObjectDBX Classes
 90
        0
280
     0
281
     0
  0
CLASS
  1
ACDBPLACEHOLDER
  2
AcDbPlaceHolder
  3
ObjectDBX Classes
 90
        0
280
     0
281
     0
  0
CLASS
  1
LAYOUT
  2
AcDbLayout
  3
ObjectDBX Classes
 90
        0
280
     0
281
     0
  0
CLASS
  1
TABLESTYLE
  2
AcDbTableStyle
  3
ObjectDBX Classes
 90
     4095
280
     0
281
     0
  0
CLASS
  1
MLEADERSTYLE
  2
AcDbMLeaderStyle
  3
ACDB_MLEADERSTYLE_CLASS
 90
     4095
280
     0
281
     0
  0
CLASS
  1
SUN
  2
AcDbSun
  3
SCENEOE
 90
     1153
280
     0
281
     0
  0
CLASS
  1
CELLSTYLEMAP
  2
AcDbCellStyleMap
  3
ObjectDBX Classes
 90
     1152
280
     0
281
     0
  0
ENDSEC
  0
SECTION
  2
TABLES
  0
TABLE
  2
VPORT
  5
8
330
0
100
AcDbSymbolTable
 70
     1
  0
VPORT
  5
CB
330
8
100
AcDbSymbolTableRecord
100
AcDbViewportTableRecord
  2
*Active
 70
     0
 10
0.0
 20
0.0
 11
1.0
 21
1.0
 12
34.8373211252443
 22
-52.74962453385785
 13
0.0
 23
0.0
 14
0.5
 24
0.5
 15
0.5
 25
0.5
 16
0.0
 26
0.0
 36
1.0
 17
0.0
 27
0.0
 37
0.0
 40
290.4153914371713
 41
1.978589420654912
 42
50.0
 43
0.0
 44
0.0
 50
0.0
 51
0.0
 71
    16
 72
   100
 73
     1
 74
     3
 75
     0
 76
     0
 77
     0
 78
     0
281
     0
 65
     1
110
0.0
120
0.0
130
0.0
111
1.0
121
0.0
131
0.0
112
0.0
122
1.0
132
0.0
 79
     0
146
0.0
  0
ENDTAB
  0
TABLE
  2
LTYPE
  5
5
330
0
100
AcDbSymbolTable
 70
     8
  0
LTYPE
  5
14
330
5
100
AcDbSymbolTableRecord
100
AcDbLinetypeTableRecord
  2
ByBlock
 70
     0
  3

 72
    65
 73
     0
 40
0.0
  0
LTYPE
  5
15
330
5
100
AcDbSymbolTableRecord
100
AcDbLinetypeTableRecord
  2
ByLayer
 70
     0
  3

 72
    65
 73
     0
 40
0.0
  0
LTYPE
  5
16
330
5
100
AcDbSymbolTableRecord
100
AcDbLinetypeTableRecord
  2
Continuous
 70
     0
  3
Solid line
 72
    65
 73
     0
 40
0.0
  0
LTYPE
  5
20
330
5
100
AcDbSymbolTableRecord
100
AcDbLinetypeTableRecord
  2
PUNKT
 70
     0
  3
..............
 72
    65
 73
     2
 40
1.5
 49
0.7
 74
     0
 49
-0.8
 74
     0
  0
LTYPE
  5
21
330
5
100
AcDbSymbolTableRecord
100
AcDbLinetypeTableRecord
  2
GESTRICHELT
 70
     0
  3
-- -- -- -- --
 72
    65
 73
     7
 40
2.8
 49
0.9
 74
     0
 49
0.0
 74
     0
 49
0.9
 74
     0
 49
0.0
 74
     0
 49
0.2
 74
     0
 49
0.0
 74
     0
 49
-0.8
 74
     0
  0
LTYPE
  5
22
330
5
100
AcDbSymbolTableRecord
100
AcDbLinetypeTableRecord
  2
STRICHPUNKT
 70
     0
  3
--.--.--.--.--
 72
    65
 73
     4
 40
8.8
 49
5.5
 74
     0
 49
-1.3
 74
     0
 49
0.7
 74
     0
 49
-1.3
 74
     0
  0
LTYPE
  5
25
330
5
100
AcDbSymbolTableRecord
100
AcDbLinetypeTableRecord
  2
PHANTOM
 70
     0
  3
--..--..--..--
 72
    65
 73
     6
 40
14.2
 49
7.0
 74
     0
 49
-1.8
 74
     0
 49
0.9
 74
     0
 49
-1.8
 74
     0
 49
0.9
 74
     0
 49
-1.8
 74
     0
  0
LTYPE
  5
143
330
5
100
AcDbSymbolTableRecord
100
AcDbLinetypeTableRecord
  2
DASH
 70
     0
  3
DASH _ _ _ _ _
 72
    65
 73
     2
 40
0.75
 49
0.4
 74
     0
 49
-0.35
 74
     0
  0
LTYPE
  5
144
330
5
100
AcDbSymbolTableRecord
100
AcDbLinetypeTableRecord
  2
LONGDASH_DASH
 70
     0
  3
LONGDASH_DASH __ . __ . __
 72
    65
 73
     4
 40
0.85
 49
0.4
 74
     0
 49
-0.2
 74
     0
 49
0.05
 74
     0
 49
-0.2
 74
     0
  0
LTYPE
  5
145
330
5
100
AcDbSymbolTableRecord
100
AcDbLinetypeTableRecord
  2
LONGDASH_DASH_DASH
 70
     0
  3
LONGDASH_DASH_DASH __ . . __ . . __
 72
    65
 73
     6
 40
1.1
 49
0.4
 74
     0
 49
-0.2
 74
     0
 49
0.05
 74
     0
 49
-0.2
 74
     0
 49
0.05
 74
     0
 49
-0.2
 74
     0
  0
ENDTAB
  0
TABLE
  2
LAYER
  5
2
102
{ACAD_XDICTIONARY
360
162
102
}
330
0
100
AcDbSymbolTable
 70
    15
  0
LAYER
  5
10D
330
2
100
AcDbSymbolTableRecord
100
AcDbLayerTableRecord
  2
200
 70
     0
 62
     2
  6
Continuous
370
    50
390
F
  0
LAYER
  5
146
330
2
100
AcDbSymbolTableRecord
100
AcDbLayerTableRecord
  2
0
 70
     0
 62
     1
  6
Continuous
370
    -3
390
F
  0
LAYER
  5
147
330
2
100
AcDbSymbolTableRecord
100
AcDbLayerTableRecord
  2
1
 70
     0
 62
     4
  6
Continuous
370
    50
390
F
  0
LAYER
  5
148
330
2
100
AcDbSymbolTableRecord
100
AcDbLayerTableRecord
  2
2
 70
     0
 62
     7
  6
Continuous
370
    25
390
F
  0
LAYER
  5
149
330
2
100
AcDbSymbolTableRecord
100
AcDbLayerTableRecord
  2
3
 70
     0
 62
     1
  6
DASH
370
    35
390
F
  0
LAYER
  5
14A
330
2
100
AcDbSymbolTableRecord
100
AcDbLayerTableRecord
  2
4
 70
     0
 62
     2
  6
LONGDASH_DASH
370
    25
390
F
  0
LAYER
  5
14B
330
2
100
AcDbSymbolTableRecord
100
AcDbLayerTableRecord
  2
6
 70
     0
 62
     5
  6
Continuous
370
    -3
390
F
  0
LAYER
  5
14C
330
2
100
AcDbSymbolTableRecord
100
AcDbLayerTableRecord
  2
CUT
 70
     0
 62
     1
  6
Continuous
370
    25
390
F
  0
LAYER
  5
14D
330
2
100
AcDbSymbolTableRecord
100
AcDbLayerTableRecord
  2
NOCUT
 70
     0
 62
     7
  6
Continuous
370
    25
390
F
  0
LAYER
  5
14E
330
2
100
AcDbSymbolTableRecord
100
AcDbLayerTableRecord
  2
SK1
 70
     0
 62
     4
  6
Continuous
370
    50
390
F
  0
LAYER
  5
14F
330
2
100
AcDbSymbolTableRecord
100
AcDbLayerTableRecord
  2
SK2
 70
     0
 62
     7
  6
Continuous
370
    25
390
F
  0
LAYER
  5
150
330
2
100
AcDbSymbolTableRecord
100
AcDbLayerTableRecord
  2
SK3
 70
     0
 62
     1
  6
DASH
370
    35
390
F
  0
LAYER
  5
151
330
2
100
AcDbSymbolTableRecord
100
AcDbLayerTableRecord
  2
SK4
 70
     0
 62
     2
  6
LONGDASH_DASH
370
    25
390
F
  0
LAYER
  5
152
330
2
100
AcDbSymbolTableRecord
100
AcDbLayerTableRecord
  2
SK6
 70
     0
 62
     5
  6
Continuous
370
    -3
390
F
  0
LAYER
  5
153
330
2
100
AcDbSymbolTableRecord
100
AcDbLayerTableRecord
  2
INFTOTAL
 70
     0
 62
     9
  6
Continuous
370
    18
390
F
  0
ENDTAB
  0
TABLE
  2
STYLE
  5
3
330
0
100
AcDbSymbolTable
 70
     2
  0
STYLE
  5
11
330
3
100
AcDbSymbolTableRecord
100
AcDbTextStyleTableRecord
  2
Standard
 70
     0
 40
0.0
 41
1.0
 50
0.0
 71
     0
 42
0.2
  3
txt
  4

  0
STYLE
  5
10C
330
3
100
AcDbSymbolTableRecord
100
AcDbTextStyleTableRecord
  2
BMG_Text
 70
     0
 40
3.5
 41
1.0
 50
0.0
 71
     0
 42
0.2
  3
monos.ttf
  4

1001
ACAD
1000
Monospac821 BT
1071
       49
  0
ENDTAB
  0
TABLE
  2
VIEW
  5
6
330
0
100
AcDbSymbolTable
 70
     0
  0
ENDTAB
  0
TABLE
  2
UCS
  5
7
330
0
100
AcDbSymbolTable
 70
     0
  0
ENDTAB
  0
TABLE
  2
APPID
  5
9
330
0
100
AcDbSymbolTable
 70
     1
  0
APPID
  5
12
330
9
100
AcDbSymbolTableRecord
100
AcDbRegAppTableRecord
  2
ACAD
 70
     0
  0
ENDTAB
  0
TABLE
  2
DIMSTYLE
  5
A
330
0
100
AcDbSymbolTable
 70
     1
100
AcDbDimStyleTable
  0
DIMSTYLE
105
28
330
A
100
AcDbSymbolTableRecord
100
AcDbDimStyleTableRecord
  2
Standard
 70
     0
178
     0
340
11
  0
ENDTAB
  0
TABLE
  2
BLOCK_RECORD
  5
1
330
0
100
AcDbSymbolTable
 70
     0
  0
BLOCK_RECORD
  5
1D
330
1
100
AcDbSymbolTableRecord
100
AcDbBlockTableRecord
  2
*Model_Space
340
1E
  0
BLOCK_RECORD
  5
1B
330
1
100
AcDbSymbolTableRecord
100
AcDbBlockTableRecord
  2
*Paper_Space
340
1C
  0
ENDTAB
  0
ENDSEC
  0
SECTION
  2
BLOCKS
  0
BLOCK
  5
F5
330
1D
100
AcDbEntity
  8
0
100
AcDbBlockBegin
  2
*Model_Space
 70
     0
 10
0.0
 20
0.0
 30
0.0
  3
*Model_Space
  1

  0
ENDBLK
  5
F6
330
1D
100
AcDbEntity
  8
0
100
AcDbBlockEnd
  0
BLOCK
  5
F3
330
1B
100
AcDbEntity
 67
     1
  8
0
100
AcDbBlockBegin
  2
*Paper_Space
 70
     0
 10
0.0
 20
0.0
 30
0.0
  3
*Paper_Space
  1

  0
ENDBLK
  5
F4
330
1B
100
AcDbEntity
 67
     1
  8
0
100
AcDbBlockEnd
  0
ENDSEC
  0
SECTION
  2
ENTITIES
  0
LINE
  5
2A
330
1D
100
AcDbEntity
  8
SK1
100
AcDbLine
 10
-39.699985577
 20
17.300124235
 30
0.0
 11
-39.584515523
 21
17.500124235
 31
0.0
  0
ARC
  5
2B
330
1D
100
AcDbEntity
  8
SK1
100
AcDbCircle
 10
-38.718490119
 20
17.000124235
 30
0.0
 40
1.0
100
AcDbArc
 50
80.00000000499999
 51
150.0
  0
LINE
  5
2C
330
1D
100
AcDbEntity
  8
SK1
100
AcDbLine
 10
-38.544841942
 20
17.984931988
 30
0.0
 11
-36.887472369
 21
17.692693016
 31
0.0
  0
LINE
  5
2D
330
1D
100
AcDbEntity
  8
SK1
100
AcDbLine
 10
-36.887472369
 20
17.692693016
 30
0.0
 11
-34.699985577
 21
18.000124235
 31
0.0
  0
LINE
  5
2F
330
1D
100
AcDbEntity
  8
1
100
AcDbLine
 10
34.700014423
 20
18.000124235
 30
0.0
 11
34.700014423
 21
0.300124235
 31
0.0
  0
LINE
  5
30
330
1D
100
AcDbEntity
  8
1
100
AcDbLine
 10
34.700014423
 20
0.300124235
 30
0.0
 11
23.571769422
 21
0.300124235
 31
0.0
  0
ARC
  5
31
330
1D
100
AcDbEntity
  8
1
100
AcDbCircle
 10
17.18415776
 20
-0.599047524
 30
0.0
 40
6.450588547
100
AcDbArc
 50
8.012766991
 51
94.74983655300001
  0
LINE
  5
32
330
1D
100
AcDbEntity
  8
1
100
AcDbLine
 10
16.650014423
 20
5.829388016
 30
0.0
 11
15.150014423
 21
5.829388016
 31
0.0
  0
ARC
  5
33
330
1D
100
AcDbEntity
  8
1
100
AcDbCircle
 10
15.116621146
 20
0.580011486
 30
0.0
 40
5.249482742
100
AcDbArc
 50
89.635524706
 51
123.107973558
  0
ARC
  5
34
330
1D
100
AcDbEntity
  8
1
100
AcDbCircle
 10
14.844049666
 20
-0.042198825
 30
0.0
 40
5.65042842
100
AcDbArc
 50
117.336827656
 51
176.526690859
  0
LINE
  5
35
330
1D
100
AcDbEntity
  8
1
100
AcDbLine
 10
9.204000354
 20
0.300124235
 30
0.0
 11
4.300014423
 21
0.300124235
 31
0.0
  0
ARC
  5
36
330
1D
100
AcDbEntity
  8
1
100
AcDbCircle
 10
4.300014423
 20
0.000124235
 30
0.0
 40
0.3
100
AcDbArc
 50
90.0
 51
270.0
  0
LINE
  5
37
330
1D
100
AcDbEntity
  8
1
100
AcDbLine
 10
4.300014423
 20
-0.299875765
 30
0.0
 11
9.204000354
 21
-0.299875765
 31
0.0
  0
ARC
  5
38
330
1D
100
AcDbEntity
  8
1
100
AcDbCircle
 10
14.873084864
 20
0.061352177
 30
0.0
 40
5.680581379
100
AcDbArc
 50
183.645896282
 51
242.490585204
  0
ARC
  5
39
330
1D
100
AcDbEntity
  8
1
100
AcDbCircle
 10
15.116621146
 20
-0.579763016
 30
0.0
 40
5.249482742
100
AcDbArc
 50
236.892026442
 51
270.3644752950001
  0
LINE
  5
3A
330
1D
100
AcDbEntity
  8
1
100
AcDbLine
 10
15.150014423
 20
-5.829139545
 30
0.0
 11
16.650014423
 21
-5.829139545
 31
0.0
  0
ARC
  5
3B
330
1D
100
AcDbEntity
  8
1
100
AcDbCircle
 10
17.18415776
 20
0.599295995
 30
0.0
 40
6.450588547
100
AcDbArc
 50
265.2501634459999
 51
351.987233008
  0
LINE
  5
3C
330
1D
100
AcDbEntity
  8
1
100
AcDbLine
 10
23.571769422
 20
-0.299875765
 30
0.0
 11
34.700014423
 21
-0.299875765
 31
0.0
  0
LINE
  5
3D
330
1D
100
AcDbEntity
  8
1
100
AcDbLine
 10
34.700014423
 20
-0.299875765
 30
0.0
 11
34.700014423
 21
-17.999875765
 31
0.0
  0
LINE
  5
3F
330
1D
100
AcDbEntity
  8
SK1
100
AcDbLine
 10
-34.699985577
 20
-17.999875765
 30
0.0
 11
-36.887472369
 21
-17.692444545
 31
0.0
  0
LINE
  5
40
330
1D
100
AcDbEntity
  8
SK1
100
AcDbLine
 10
-36.887472369
 20
-17.692444545
 30
0.0
 11
-38.544841942
 21
-17.984683518
 31
0.0
  0
ARC
  5
41
330
1D
100
AcDbEntity
  8
SK1
100
AcDbCircle
 10
-38.718490119
 20
-16.999875765
 30
0.0
 40
1.0
100
AcDbArc
 50
210.0
 51
280.0
  0
LINE
  5
42
330
1D
100
AcDbEntity
  8
SK1
100
AcDbLine
 10
-39.584515523
 20
-17.499875765
 30
0.0
 11
-39.699985577
 21
-17.299875765
 31
0.0
  0
LINE
  5
43
330
1D
100
AcDbEntity
  8
SK1
100
AcDbLine
 10
-39.699985577
 20
-17.299875765
 30
0.0
 11
-39.699985577
 21
17.300124235
 31
0.0
  0
ARC
  5
44
330
1D
100
AcDbEntity
  8
SK1
100
AcDbCircle
 10
-16.049985577
 20
0.000124235
 30
0.0
 40
4.0
100
AcDbArc
 50
211.708911325
 51
238.291088675
  0
ARC
  5
45
330
1D
100
AcDbEntity
  8
SK1
100
AcDbCircle
 10
-16.049985577
 20
0.000296445
 30
0.0
 40
4.000146505
100
AcDbArc
 50
238.292385148
 51
301.6403567749999
  0
LINE
  5
46
330
1D
100
AcDbEntity
  8
SK1
100
AcDbLine
 10
-13.947569685
 20
-3.402793251
 30
0.0
 11
-13.199480775
 21
-4.325322144
 31
0.0
  0
ARC
  5
47
330
1D
100
AcDbEntity
  8
SK1
100
AcDbCircle
 10
-16.049985577
 20
-1.187285731
 30
0.0
 40
4.239416252
100
AcDbArc
 50
227.734225114
 51
312.251132582
  0
ARC
  5
48
330
1D
100
AcDbEntity
  8
SK1
100
AcDbCircle
 10
-16.049985577
 20
0.255161581
 30
0.0
 40
5.393649454
100
AcDbArc
 50
215.666250203
 51
238.096325412
  0
LINE
  5
49
330
1D
100
AcDbEntity
  8
SK1
100
AcDbLine
 10
-20.432229538
 20
-2.8898876
 30
0.0
 11
-19.452903063
 21
-2.102291657
 31
0.0
  0
ARC
  5
4A
330
1D
100
AcDbEntity
  8
SK1
100
AcDbCircle
 10
-16.049985577
 20
0.000124235
 30
0.0
 40
4.0
100
AcDbArc
 50
184.301222305
 51
211.708911325
  0
LINE
  5
4B
330
1D
100
AcDbEntity
  8
SK1
100
AcDbLine
 10
-20.038719712
 20
-0.299875765
 30
0.0
 11
-21.716017936
 21
-0.299313453
 31
0.0
  0
ARC
  5
4C
330
1D
100
AcDbEntity
  8
SK1
100
AcDbCircle
 10
-17.437816577
 20
0.203650183
 30
0.0
 40
4.307665179
100
AcDbArc
 50
186.705158291
 51
225.868826047
  0
ARC
  5
4D
330
1D
100
AcDbEntity
  8
SK1
100
AcDbCircle
 10
-14.662154577
 20
-0.203401712
 30
0.0
 40
4.305250596
100
AcDbArc
 50
6.72002231
 51
45.86882604699999
  0
LINE
  5
4E
330
1D
100
AcDbEntity
  8
SK1
100
AcDbLine
 10
-10.388730888
 20
0.300124235
 30
0.0
 11
-12.061251442
 21
0.300124235
 31
0.0
  0
ARC
  5
4F
330
1D
100
AcDbEntity
  8
SK1
100
AcDbCircle
 10
-16.049985577
 20
0.000124235
 30
0.0
 40
4.0
100
AcDbArc
 50
4.301222305
 51
31.708911326
  0
LINE
  5
50
330
1D
100
AcDbEntity
  8
SK1
100
AcDbLine
 10
-12.647068091
 20
2.102540128
 30
0.0
 11
-11.662842284
 21
2.886623845
 31
0.0
  0
ARC
  5
51
330
1D
100
AcDbEntity
  8
SK1
100
AcDbCircle
 10
-16.049985577
 20
-0.254913111
 30
0.0
 40
5.3959504
100
AcDbArc
 50
35.605619258
 51
58.10536656600001
  0
ARC
  5
52
330
1D
100
AcDbEntity
  8
SK1
100
AcDbCircle
 10
-16.049985577
 20
1.187534201
 30
0.0
 40
4.239416252
100
AcDbArc
 50
47.748867418
 51
132.265774887
  0
ARC
  5
53
330
1D
100
AcDbEntity
  8
SK1
100
AcDbCircle
 10
-16.049985577
 20
-0.254913111
 30
0.0
 40
5.393649454
100
AcDbArc
 50
121.903674588
 51
144.333749796
  0
LINE
  5
54
330
1D
100
AcDbEntity
  8
SK1
100
AcDbLine
 10
-20.432229538
 20
2.890136071
 30
0.0
 11
-20.39112152
 21
2.857205451
 31
0.0
  0
LINE
  5
55
330
1D
100
AcDbEntity
  8
SK1
100
AcDbLine
 10
-20.39112152
 20
2.857205451
 30
0.0
 11
-19.452903063
 21
2.102540127
 31
0.0
  0
ARC
  5
56
330
1D
100
AcDbEntity
  8
SK1
100
AcDbCircle
 10
-16.049985577
 20
0.000124235
 30
0.0
 40
4.0
100
AcDbArc
 50
121.59517052
 51
148.291088675
  0
ARC
  5
57
330
1D
100
AcDbEntity
  8
SK1
100
AcDbCircle
 10
-16.049985577
 20
0.000124235
 30
0.0
 40
4.0
100
AcDbArc
 50
31.708911325
 51
58.291088675
  0
LINE
  5
58
330
1D
100
AcDbEntity
  8
SK1
100
AcDbLine
 10
-34.699985577
 20
-17.999875765
 30
0.0
 11
-34.699985577
 21
-0.299875765
 31
0.0
  0
LINE
  5
59
330
1D
100
AcDbEntity
  8
SK1
100
AcDbLine
 10
-34.699985577
 20
-0.299875765
 30
0.0
 11
-23.571740576
 21
-0.299875765
 31
0.0
  0
ARC
  5
5A
330
1D
100
AcDbEntity
  8
SK1
100
AcDbCircle
 10
-17.201710437
 20
0.577286736
 30
0.0
 40
6.430139813
100
AcDbArc
 50
187.840405268
 51
274.922198277
  0
LINE
  5
5B
330
1D
100
AcDbEntity
  8
SK1
100
AcDbLine
 10
-16.649985577
 20
-5.829139545
 30
0.0
 11
-15.449985577
 21
-5.829139545
 31
0.0
  0
ARC
  5
5C
330
1D
100
AcDbEntity
  8
SK1
100
AcDbCircle
 10
-14.918130902
 20
0.602161033
 30
0.0
 40
6.453254724
100
AcDbArc
 50
265.2725201019999
 51
351.964876353
  0
LINE
  5
5D
330
1D
100
AcDbEntity
  8
SK1
100
AcDbLine
 10
-8.528230578
 20
-0.299875765
 30
0.0
 11
-4.299985577
 21
-0.299875765
 31
0.0
  0
ARC
  5
5E
330
1D
100
AcDbEntity
  8
SK1
100
AcDbCircle
 10
-4.299985577
 20
0.000124235
 30
0.0
 40
0.3
100
AcDbArc
 50
270.0
 51
90.0
  0
LINE
  5
5F
330
1D
100
AcDbEntity
  8
SK1
100
AcDbLine
 10
-4.299985577
 20
0.300124235
 30
0.0
 11
-8.528230578
 21
0.300124235
 31
0.0
  0
ARC
  5
60
330
1D
100
AcDbEntity
  8
SK1
100
AcDbCircle
 10
-14.918130902
 20
-0.601912563
 30
0.0
 40
6.453254724
100
AcDbArc
 50
8.035123646999999
 51
94.72747989799998
  0
LINE
  5
61
330
1D
100
AcDbEntity
  8
SK1
100
AcDbLine
 10
-15.449985577
 20
5.829388016
 30
0.0
 11
-16.649985577
 21
5.829388016
 31
0.0
  0
ARC
  5
62
330
1D
100
AcDbEntity
  8
SK1
100
AcDbCircle
 10
-17.201710437
 20
-0.577038265
 30
0.0
 40
6.430139813
100
AcDbArc
 50
85.077801724
 51
172.159594732
  0
LINE
  5
63
330
1D
100
AcDbEntity
  8
SK1
100
AcDbLine
 10
-23.571740576
 20
0.300124235
 30
0.0
 11
-34.699985577
 21
0.300124235
 31
0.0
  0
LINE
  5
64
330
1D
100
AcDbEntity
  8
SK1
100
AcDbLine
 10
-34.699985577
 20
0.300124235
 30
0.0
 11
-34.699985577
 21
18.000124235
 31
0.0
  0
LINE
  5
65
330
1D
100
AcDbEntity
  8
1
100
AcDbLine
 10
9.204000354
 20
-0.299875765
 30
0.0
 11
10.648925559
 21
-0.299875765
 31
0.0
  0
ARC
  5
66
330
1D
100
AcDbEntity
  8
1
100
AcDbCircle
 10
15.138914423
 20
0.000124235
 30
0.0
 40
4.5
100
AcDbArc
 50
183.822553729
 51
311.913548252
  0
LINE
  5
67
330
1D
100
AcDbEntity
  8
1
100
AcDbLine
 10
18.144952844
 20
-3.348567004
 30
0.0
 11
18.625833098
 21
-3.986775527
 31
0.0
  0
LINE
  5
68
330
1D
100
AcDbEntity
  8
1
100
AcDbLine
 10
18.625833098
 20
-3.986775527
 30
0.0
 11
18.891324629
 21
-4.329403077
 31
0.0
  0
ARC
  5
69
330
1D
100
AcDbEntity
  8
1
100
AcDbCircle
 10
16.050014423
 20
0.255161304
 30
0.0
 40
5.39363275
100
AcDbArc
 50
301.788803639
 51
324.38377303
  0
ARC
  5
6A
330
1D
100
AcDbEntity
  8
1
100
AcDbCircle
 10
17.437814423
 20
0.203651391
 30
0.0
 40
4.305276107
100
AcDbArc
 50
314.1308050129999
 51
353.28000155
  0
LINE
  5
6B
330
1D
100
AcDbEntity
  8
1
100
AcDbLine
 10
21.711263674
 20
-0.299875765
 30
0.0
 11
23.490980078
 21
-0.299875765
 31
0.0
  0
ARC
  5
6C
330
1D
100
AcDbEntity
  8
1
100
AcDbCircle
 10
16.688238429
 20
1.242970786
 30
0.0
 40
6.975504958
100
AcDbArc
 50
269.686032026
 51
347.2216137250001
  0
LINE
  5
6D
330
1D
100
AcDbEntity
  8
1
100
AcDbLine
 10
16.650014423
 20
-5.732429442
 30
0.0
 11
15.150014423
 21
-5.732429442
 31
0.0
  0
ARC
  5
6E
330
1D
100
AcDbEntity
  8
1
100
AcDbCircle
 10
15.1494889
 20
-1.170086031
 30
0.0
 40
4.562343442
100
AcDbArc
 50
250.6586933029999
 51
270.00659974
  0
ARC
  5
6F
330
1D
100
AcDbEntity
  8
1
100
AcDbCircle
 10
15.138914423
 20
0.281205109
 30
0.0
 40
5.942998605
100
AcDbArc
 50
255.394265407
 51
309.148709194
  0
LINE
  5
70
330
1D
100
AcDbEntity
  8
1
100
AcDbLine
 10
12.249256364
 20
4.977202438
 30
0.0
 11
12.933022387
 21
5.266752102
 31
0.0
  0
LINE
  5
71
330
1D
100
AcDbEntity
  8
1
100
AcDbLine
 10
12.933022387
 20
5.266752102
 30
0.0
 11
13.640290973
 21
5.469987647
 31
0.0
  0
ARC
  5
72
330
1D
100
AcDbEntity
  8
1
100
AcDbCircle
 10
15.138914423
 20
-0.280956639
 30
0.0
 40
5.942998605
100
AcDbArc
 50
50.913966474
 51
104.605734593
  0
LINE
  5
73
330
1D
100
AcDbEntity
  8
1
100
AcDbLine
 10
18.888151602
 20
4.334777073
 30
0.0
 11
18.625833098
 21
3.987023997
 31
0.0
  0
LINE
  5
74
330
1D
100
AcDbEntity
  8
1
100
AcDbLine
 10
18.625833098
 20
3.987023997
 30
0.0
 11
18.144952844
 21
3.348815474
 31
0.0
  0
ARC
  5
75
330
1D
100
AcDbEntity
  8
1
100
AcDbCircle
 10
15.138914423
 20
0.000124235
 30
0.0
 40
4.5
100
AcDbArc
 50
48.086451747
 51
176.177446271
  0
LINE
  5
76
330
1D
100
AcDbEntity
  8
1
100
AcDbLine
 10
10.648925559
 20
0.300124235
 30
0.0
 11
9.204000354
 21
0.300124235
 31
0.0
  0
LINE
  5
77
330
1D
100
AcDbEntity
  8
SK1
100
AcDbLine
 10
-34.699985577
 20
0.300124235
 30
0.0
 11
-35.699985577
 21
0.300124235
 31
0.0
  0
ARC
  5
78
330
1D
100
AcDbEntity
  8
SK1
100
AcDbCircle
 10
-35.699985577
 20
0.000124235
 30
0.0
 40
0.3
100
AcDbArc
 50
90.0
 51
270.0
  0
LINE
  5
79
330
1D
100
AcDbEntity
  8
SK1
100
AcDbLine
 10
-35.699985577
 20
-0.299875765
 30
0.0
 11
-34.699985577
 21
-0.299875765
 31
0.0
  0
ARC
  5
7A
330
1D
100
AcDbEntity
  8
SK1
100
AcDbCircle
 10
-16.049985577
 20
0.255161581
 30
0.0
 40
5.393649454
100
AcDbArc
 50
301.903674588
 51
324.384289898
  0
ARC
  5
7B
330
1D
100
AcDbEntity
  8
SK1
100
AcDbCircle
 10
-14.662154577
 20
0.203650183
 30
0.0
 40
4.305250596
100
AcDbArc
 50
314.131173953
 51
353.279977688
  0
LINE
  5
7C
330
1D
100
AcDbEntity
  8
SK1
100
AcDbLine
 10
-10.388730888
 20
-0.299875765
 30
0.0
 11
-8.609019922
 21
-0.299875765
 31
0.0
  0
ARC
  5
7D
330
1D
100
AcDbEntity
  8
SK1
100
AcDbCircle
 10
-15.411761571
 20
1.242970786
 30
0.0
 40
6.975504958
100
AcDbArc
 50
269.686032026
 51
347.2216137250001
  0
LINE
  5
7E
330
1D
100
AcDbEntity
  8
SK1
100
AcDbLine
 10
-15.449985577
 20
-5.732429442
 30
0.0
 11
-16.649985577
 21
-5.732429443
 31
0.0
  0
ARC
  5
7F
330
1D
100
AcDbEntity
  8
SK1
100
AcDbCircle
 10
-16.688209583
 20
1.242970786
 30
0.0
 40
6.975504958
100
AcDbArc
 50
192.778386275
 51
270.313967974
  0
LINE
  5
80
330
1D
100
AcDbEntity
  8
SK1
100
AcDbLine
 10
-23.490951232
 20
-0.299875765
 30
0.0
 11
-23.571740576
 21
-0.299875765
 31
0.0
  0
LINE
  5
81
330
1D
100
AcDbEntity
  8
SK1
100
AcDbLine
 10
-11.667741616
 20
-2.8898876
 30
0.0
 11
-11.708849634
 21
-2.856956981
 31
0.0
  0
LINE
  5
82
330
1D
100
AcDbEntity
  8
SK1
100
AcDbLine
 10
-11.708849634
 20
-2.856956981
 30
0.0
 11
-12.647068091
 21
-2.102291657
 31
0.0
  0
ARC
  5
83
330
1D
100
AcDbEntity
  8
SK1
100
AcDbCircle
 10
-16.049985577
 20
0.000124235
 30
0.0
 40
4.0
100
AcDbArc
 50
328.291088675
 51
355.698777695
  0
LINE
  5
84
330
1D
100
AcDbEntity
  8
SK1
100
AcDbLine
 10
-12.061251442
 20
-0.299875765
 30
0.0
 11
-10.388730888
 21
-0.299875765
 31
0.0
  0
ARC
  5
85
330
1D
100
AcDbEntity
  8
SK1
100
AcDbCircle
 10
-16.049985577
 20
0.000124235
 30
0.0
 40
4.0
100
AcDbArc
 50
148.291088675
 51
175.698777695
  0
LINE
  5
86
330
1D
100
AcDbEntity
  8
SK1
100
AcDbLine
 10
-20.038719712
 20
0.300124235
 30
0.0
 11
-21.716017936
 21
0.299561924
 31
0.0
  0
ARC
  5
87
330
1D
100
AcDbEntity
  8
SK1
100
AcDbCircle
 10
-17.437816577
 20
-0.203401712
 30
0.0
 40
4.307665179
100
AcDbArc
 50
134.131173953
 51
173.294841709
  0
LINE
  5
88
330
1D
100
AcDbEntity
  8
1
100
AcDbLine
 10
20.432225252
 20
-2.889924049
 30
0.0
 11
19.213997777
 21
-1.908722446
 31
0.0
  0
ARC
  5
89
330
1D
100
AcDbEntity
  8
1
100
AcDbCircle
 10
15.144312135
 20
-0.001267781
 30
0.0
 40
4.494521613
100
AcDbArc
 50
334.887594614
 51
356.19056479
  0
LINE
  5
8A
330
1D
100
AcDbEntity
  8
1
100
AcDbLine
 10
19.628903287
 20
-0.299875765
 30
0.0
 11
21.711263674
 21
-0.299875765
 31
0.0
  0
LINE
  5
8B
330
1D
100
AcDbEntity
  8
1
100
AcDbLine
 10
34.700014423
 20
-17.999875765
 30
0.0
 11
36.887501215
 21
-17.692444545
 31
0.0
  0
LINE
  5
8C
330
1D
100
AcDbEntity
  8
1
100
AcDbLine
 10
36.887501215
 20
-17.692444545
 30
0.0
 11
38.544870788
 21
-17.984683518
 31
0.0
  0
ARC
  5
8D
330
1D
100
AcDbEntity
  8
1
100
AcDbCircle
 10
38.718518965
 20
-16.999875765
 30
0.0
 40
1.0
100
AcDbArc
 50
260.0
 51
330.0
  0
LINE
  5
8E
330
1D
100
AcDbEntity
  8
1
100
AcDbLine
 10
39.584544369
 20
-17.499875765
 30
0.0
 11
39.700014423
 21
-17.299875765
 31
0.0
  0
LINE
  5
8F
330
1D
100
AcDbEntity
  8
1
100
AcDbLine
 10
39.700014423
 20
-17.299875765
 30
0.0
 11
39.700014423
 21
17.300124235
 31
0.0
  0
LINE
  5
90
330
1D
100
AcDbEntity
  8
1
100
AcDbLine
 10
39.700014423
 20
17.300124235
 30
0.0
 11
39.584544369
 21
17.500124235
 31
0.0
  0
ARC
  5
91
330
1D
100
AcDbEntity
  8
1
100
AcDbCircle
 10
38.718518965
 20
17.000124235
 30
0.0
 40
1.0
100
AcDbArc
 50
30.0
 51
99.99999999499998
  0
LINE
  5
92
330
1D
100
AcDbEntity
  8
1
100
AcDbLine
 10
38.544870788
 20
17.984931988
 30
0.0
 11
36.887501215
 21
17.692693016
 31
0.0
  0
LINE
  5
93
330
1D
100
AcDbEntity
  8
1
100
AcDbLine
 10
36.887501215
 20
17.692693016
 30
0.0
 11
34.700014423
 21
18.000124235
 31
0.0
  0
LINE
  5
94
330
1D
100
AcDbEntity
  8
SK1
100
AcDbLine
 10
-8.528230578
 20
0.300124235
 30
0.0
 11
-8.609019922
 21
0.300124235
 31
0.0
  0
ARC
  5
95
330
1D
100
AcDbEntity
  8
SK1
100
AcDbCircle
 10
-15.411761571
 20
-1.242722315
 30
0.0
 40
6.975504958
100
AcDbArc
 50
12.778386275
 51
90.313967974
  0
LINE
  5
96
330
1D
100
AcDbEntity
  8
SK1
100
AcDbLine
 10
-15.449985577
 20
5.732677913
 30
0.0
 11
-16.649985577
 21
5.732677913
 31
0.0
  0
ARC
  5
97
330
1D
100
AcDbEntity
  8
SK1
100
AcDbCircle
 10
-16.688209583
 20
-1.242722315
 30
0.0
 40
6.975504958
100
AcDbArc
 50
89.686032025
 51
167.221613726
  0
LINE
  5
98
330
1D
100
AcDbEntity
  8
SK1
100
AcDbLine
 10
-23.490951232
 20
0.300124235
 30
0.0
 11
-23.571740576
 21
0.300124235
 31
0.0
  0
LINE
  5
99
330
1D
100
AcDbEntity
  8
1
100
AcDbLine
 10
23.571769422
 20
0.300124235
 30
0.0
 11
23.490980078
 21
0.300124235
 31
0.0
  0
ARC
  5
9A
330
1D
100
AcDbEntity
  8
1
100
AcDbCircle
 10
16.688238429
 20
-1.242722315
 30
0.0
 40
6.975504958
100
AcDbArc
 50
12.778386275
 51
90.313967974
  0
LINE
  5
9B
330
1D
100
AcDbEntity
  8
1
100
AcDbLine
 10
16.650014423
 20
5.732677913
 30
0.0
 11
15.150014423
 21
5.732677913
 31
0.0
  0
ARC
  5
9C
330
1D
100
AcDbEntity
  8
1
100
AcDbCircle
 10
15.1494889
 20
1.170334502
 30
0.0
 40
4.562343442
100
AcDbArc
 50
89.99340026
 51
109.294733092
  0
LINE
  5
9D
330
1D
100
AcDbEntity
  8
1
100
AcDbLine
 10
34.700014423
 20
-0.299875765
 30
0.0
 11
35.700014423
 21
-0.299875765
 31
0.0
  0
ARC
  5
9E
330
1D
100
AcDbEntity
  8
1
100
AcDbCircle
 10
35.700014423
 20
0.000124235
 30
0.0
 40
0.3
100
AcDbArc
 50
270.0
 51
90.0
  0
LINE
  5
9F
330
1D
100
AcDbEntity
  8
1
100
AcDbLine
 10
35.700014423
 20
0.300124235
 30
0.0
 11
34.700014423
 21
0.300124235
 31
0.0
  0
ARC
  5
A0
330
1D
100
AcDbEntity
  8
1
100
AcDbCircle
 10
15.143522948
 20
0.001312728
 30
0.0
 40
4.49532258
100
AcDbArc
 50
3.811355233
 51
25.110485363
  0
LINE
  5
A1
330
1D
100
AcDbEntity
  8
1
100
AcDbLine
 10
19.213997777
 20
1.908970917
 30
0.0
 11
20.435572992
 21
2.886717777
 31
0.0
  0
ARC
  5
A2
330
1D
100
AcDbEntity
  8
1
100
AcDbCircle
 10
17.437814423
 20
-0.20340292
 30
0.0
 40
4.305276107
100
AcDbArc
 50
6.719998448000001
 51
45.86919498699999
  0
LINE
  5
A3
330
1D
100
AcDbEntity
  8
1
100
AcDbLine
 10
21.711263674
 20
0.300124235
 30
0.0
 11
19.628903287
 21
0.300124235
 31
0.0
  0
ARC
  5
A4
330
1D
100
AcDbEntity
  8
1
100
AcDbCircle
 10
16.050014423
 20
-0.254912833
 30
0.0
 40
5.395944467
100
AcDbArc
 50
35.606136225
 51
58.211196361
  0
ARC
  5
A5
330
1D
100
AcDbEntity
  8
1
100
AcDbCircle
 10
15.138914423
 20
0.000124235
 30
0.0
 40
4.5
100
AcDbArc
 50
311.913548252
 51
334.9007131339999
  0
LINE
  5
A6
330
1D
100
AcDbEntity
  8
SK1
100
AcDbLine
 10
-13.20266407
 20
4.329078927
 30
0.0
 11
-13.947569685
 21
3.403041721
 31
0.0
  0
ARC
  5
A7
330
1D
100
AcDbEntity
  8
SK1
100
AcDbCircle
 10
-16.049985577
 20
-0.000047974
 30
0.0
 40
4.000146505
100
AcDbArc
 50
58.29238514799999
 51
121.707614853
  0
LINE
  5
A8
330
1D
100
AcDbEntity
  8
SK1
100
AcDbLine
 10
-18.152401469
 20
3.403041721
 30
0.0
 11
-18.897307084
 21
4.329078927
 31
0.0
  0
ARC
  5
A9
330
1D
100
AcDbEntity
  8
1
100
AcDbCircle
 10
15.138914423
 20
0.000124235
 30
0.0
 40
4.5
100
AcDbArc
 50
25.099286866
 51
48.086451747
  0
ARC
  5
AA
330
1D
100
AcDbEntity
  8
SK1
100
AcDbCircle
 10
-16.049985577
 20
0.000124235
 30
0.0
 40
4.0
100
AcDbArc
 50
301.708911325
 51
328.291088675
  0
LINE
  5
AB
330
1D
100
AcDbEntity
  8
1
100
AcDbLine
 10
13.641964557
 20
-5.47616871
 30
0.0
 11
12.933022387
 21
-5.266503632
 31
0.0
  0
LINE
  5
AC
330
1D
100
AcDbEntity
  8
1
100
AcDbLine
 10
12.933022387
 20
-5.266503632
 30
0.0
 11
12.249256364
 21
-4.976953968
 31
0.0
  0
LINE
  5
AD
330
1D
100
AcDbEntity
  8
SK1
100
AcDbLine
 10
-8.609019922
 20
-0.299875765
 30
0.0
 11
-8.528230578
 21
-0.299875765
 31
0.0
  0
LINE
  5
AE
330
1D
100
AcDbEntity
  8
1
100
AcDbLine
 10
23.571769422
 20
-0.299875765
 30
0.0
 11
23.490980078
 21
-0.299875765
 31
0.0
  0
LINE
  5
AF
330
1D
100
AcDbEntity
  8
SK1
100
AcDbLine
 10
-36.887472369
 20
-17.692444545
 30
0.0
 11
-36.887472369
 21
17.692693016
 31
0.0
  0
LINE
  5
B0
330
1D
100
AcDbEntity
  8
1
100
AcDbLine
 10
36.887501215
 20
-17.692444545
 30
0.0
 11
36.887501215
 21
17.692693016
 31
0.0
  0
LINE
  5
B1
330
1D
100
AcDbEntity
  8
SK1
100
AcDbLine
 10
-23.490951232
 20
0.300124235
 30
0.0
 11
-21.711240265
 21
0.300124235
 31
0.0
  0
LINE
  5
B2
330
1D
100
AcDbEntity
  8
SK1
100
AcDbLine
 10
-10.388730888
 20
0.300124235
 30
0.0
 11
-8.609019922
 21
0.300124235
 31
0.0
  0
LINE
  5
B3
330
1D
100
AcDbEntity
  8
SK1
100
AcDbLine
 10
-21.711240265
 20
-0.299875765
 30
0.0
 11
-23.490951232
 21
-0.299875765
 31
0.0
  0
LINE
  5
B4
330
1D
100
AcDbEntity
  8
1
100
AcDbLine
 10
23.490980078
 20
0.300124235
 30
0.0
 11
21.711263674
 21
0.300124235
 31
0.0
  0
LINE
  5
B5
330
1D
100
AcDbEntity
  8
SK1
100
AcDbLine
 10
-18.152401469
 20
-3.402793251
 30
0.0
 11
-18.897307084
 21
-4.328830456
 31
0.0
  0
LINE
  5
B6
330
1D
100
AcDbEntity
  8
1
100
AcDbLine
 10
39.690014423
 20
-10.09819471
 30
0.0
 11
39.700014423
 21
-10.09819471
 31
0.0
  0
LINE
  5
B7
330
1D
100
AcDbEntity
  8
SK3
100
AcDbLine
 10
-39.699985577
 20
-8.049875765
 30
0.0
 11
0.0000144230000032
 21
-8.049875765
 31
0.0
  0
LINE
  5
B8
330
1D
100
AcDbEntity
  8
SK3
100
AcDbLine
 10
0.0000144229999961
 20
8.050124235
 30
0.0
 11
-39.699985577
 21
8.050124235
 31
0.0
  0
LINE
  5
BA
330
1D
100
AcDbEntity
  8
SK4
100
AcDbLine
 10
-41.778229906
 20
0.000124235
 30
0.0
 11
41.260174293
 21
0.000124235
 31
0.0
  0
LINE
  5
BB
330
1D
100
AcDbEntity
  8
1
100
AcDbLine
 10
0.0
 20
-4.280123829
 30
0.0
 11
0.0
 21
3.850312108
 31
0.0
  0
LINE
  5
BC
330
1D
100
AcDbEntity
  8
SK4
100
AcDbLine
 10
-16.049985577
 20
-6.448913503
 30
0.0
 11
-16.049985577
 21
6.394973417
 31
0.0
  0
LINE
  5
BD
330
1D
100
AcDbEntity
  8
SK4
100
AcDbLine
 10
15.138914423
 20
-6.607649983
 30
0.0
 11
15.138914423
 21
6.472721897
 31
0.0
  0
LINE
  5
BE
330
1D
100
AcDbEntity
  8
2
100
AcDbLine
 10
51.487261127
 20
-17.999875765
 30
0.0
 11
34.700014423
 21
-17.999875765
 31
0.0
  0
LINE
  5
BF
330
1D
100
AcDbEntity
  8
2
100
AcDbLine
 10
49.487261127
 20
-17.999875765
 30
0.0
 11
49.037261127
 21
-14.499875765
 31
0.0
  0
LINE
  5
C0
330
1D
100
AcDbEntity
  8
2
100
AcDbLine
 10
49.037261127
 20
-14.499875765
 30
0.0
 11
49.937261127
 21
-14.499875765
 31
0.0
  0
LINE
  5
C1
330
1D
100
AcDbEntity
  8
2
100
AcDbLine
 10
49.937261127
 20
-14.499875765
 30
0.0
 11
49.487261127
 21
-17.999875765
 31
0.0
  0
LINE
  5
C2
330
1D
100
AcDbEntity
  8
2
100
AcDbLine
 10
51.487261127
 20
18.000124235
 30
0.0
 11
34.700014423
 21
18.000124235
 31
0.0
  0
LINE
  5
C3
330
1D
100
AcDbEntity
  8
2
100
AcDbLine
 10
49.487261127
 20
18.000124235
 30
0.0
 11
49.937261127
 21
14.500124235
 31
0.0
  0
LINE
  5
C4
330
1D
100
AcDbEntity
  8
2
100
AcDbLine
 10
49.937261127
 20
14.500124235
 30
0.0
 11
49.037261127
 21
14.500124235
 31
0.0
  0
LINE
  5
C5
330
1D
100
AcDbEntity
  8
2
100
AcDbLine
 10
49.037261127
 20
14.500124235
 30
0.0
 11
49.487261127
 21
18.000124235
 31
0.0
  0
LINE
  5
C6
330
1D
100
AcDbEntity
  8
2
100
AcDbLine
 10
49.487261127
 20
-14.499875765
 30
0.0
 11
49.487261127
 21
14.500124235
 31
0.0
  0
TEXT
  5
C7
330
1D
100
AcDbEntity
  8
2
100
AcDbText
 10
47.987261127
 20
0.331530083
 30
0.0
 40
3.5
  1
36
 50
90.0
  7
BMG_Text
100
AcDbText
  0
CIRCLE
  5
C8
330
1D
100
AcDbEntity
  8
2
100
AcDbCircle
 10
46.737261127
 20
-1.918469917
 30
0.0
 40
1.25
  0
LINE
  5
C9
330
1D
100
AcDbEntity
  8
2
100
AcDbLine
 10
47.987261127
 20
-3.168469917
 30
0.0
 11
45.487261127
 21
-0.668469917
 31
0.0
  0
TEXT
  5
CA
330
1D
100
AcDbEntity
  8
SK6
100
AcDbText
 10
7.233420773
 20
-15.057312803
 30
0.0
 40
3.5
  1
331.864N
  7
BMG_Text
100
AcDbText
  0
LINE
  5
174
330
1D
100
AcDbEntity
  8
1
100
AcDbLine
 10
0.0
 20
0.0
 30
0.0
 11
0.0000000000000011
 21
18.000124235
 31
0.0
  0
LINE
  5
175
330
1D
100
AcDbEntity
  8
1
100
AcDbLine
 10
0.0
 20
0.0
 30
0.0
 11
-0.0000000000000033
 21
-17.999875765
 31
0.0
  0
LINE
  5
176
330
1D
100
AcDbEntity
  8
1
100
AcDbLine
 10
34.700014423
 20
18.000124235
 30
0.0
 11
0.0000000000000011
 21
18.000124235
 31
0.0
  0
LINE
  5
177
330
1D
100
AcDbEntity
  8
1
100
AcDbLine
 10
34.700014423
 20
-17.999875765
 30
0.0
 11
-0.0000000000000033
 21
-17.999875765
 31
0.0
  0
ARC
  5
17B
330
1D
100
AcDbEntity
  8
SK1
100
AcDbCircle
 10
-0.0000000000000003
 20
0.0000000000000004
 30
0.0
 40
2.499875765
100
AcDbArc
 50
89.99999999999999
 51
270.0
  0
ARC
  5
17D
330
1D
100
AcDbEntity
  8
1
100
AcDbCircle
 10
0.0000000000000006
 20
0.0000000000000004
 30
0.0
 40
2.499875765
100
AcDbArc
 50
269.9999999999999
 51
90.00000000000001
  0
LINE
  5
185
330
1D
100
AcDbEntity
  8
SK1
100
AcDbLine
 10
0.0000000000000011
 20
18.000124235
 30
0.0
 11
-34.699985577
 21
18.000124235
 31
0.0
  0
LINE
  5
186
330
1D
100
AcDbEntity
  8
SK1
100
AcDbLine
 10
-0.0000000000000033
 20
-17.999875765
 30
0.0
 11
-34.699985577
 21
-17.999875765
 31
0.0
  0
LWPOLYLINE
  5
194
330
1D
100
AcDbEntity
  8
INFTOTAL
100
AcDbPolyline
 90
        4
 70
     1
 43
0.0
 10
-79.27982746615419
 20
37.13428574798869
 10
-79.27982746615419
 20
-28.34933277966218
 10
87.56104408690396
 20
-28.34933277966218
 10
87.56104408690396
 20
37.13428574798869
  0
LINE
  5
1A4
330
1D
100
AcDbEntity
  8
SK1
100
AcDbLine
 10
0.0000000000000011
 20
18.000124235
 30
0.0
 11
-0.0000000000000033
 21
-17.999875765
 31
0.0
  0
LINE
  5
1A8
330
1D
100
AcDbEntity
  8
3
100
AcDbLine
 10
39.700014423
 20
8.050124235
 30
0.0
 11
0.0000144229999961
 21
8.050124235
 31
0.0
  0
LINE
  5
1A9
330
1D
100
AcDbEntity
  8
3
100
AcDbLine
 10
39.700014423
 20
-8.049875765
 30
0.0
 11
0.0000144230000032
 21
-8.049875765
 31
0.0
  0
LINE
  5
1B9
330
1D
100
AcDbEntity
  8
4
100
AcDbLine
 10
41.260174293
 20
0.000124235
 30
0.0
 11
-0.0000000000000011
 21
0.0001242350000048
 31
0.0
  0
LINE
  5
1BA
330
1D
100
AcDbEntity
  8
4
100
AcDbLine
 10
15.138914423
 20
6.472721897
 30
0.0
 11
15.138914423
 21
-6.607649983
 31
0.0
  0
LINE
  5
1CE
330
1D
100
AcDbEntity
  8
NOCUT
100
AcDbLine
 10
0.0000000000000011
 20
18.000124235
 30
0.0
 11
34.700014423
 21
18.000124235
 31
0.0
  0
LINE
  5
1CF
330
1D
100
AcDbEntity
  8
NOCUT
100
AcDbLine
 10
39.700014423
 20
17.300124235
 30
0.0
 11
39.584544369
 21
17.500124235
 31
0.0
  0
ARC
  5
1D0
330
1D
100
AcDbEntity
  8
NOCUT
100
AcDbCircle
 10
38.718518965
 20
17.000124235
 30
0.0
 40
1.0
100
AcDbArc
 50
29.99999999999993
 51
99.99999999499983
  0
LINE
  5
1D1
330
1D
100
AcDbEntity
  8
NOCUT
100
AcDbLine
 10
38.544870788
 20
17.984931988
 30
0.0
 11
36.887501215
 21
17.692693016
 31
0.0
  0
LINE
  5
1D2
330
1D
100
AcDbEntity
  8
NOCUT
100
AcDbLine
 10
36.887501215
 20
17.692693016
 30
0.0
 11
34.700014423
 21
18.000124235
 31
0.0
  0
LINE
  5
1D4
330
1D
100
AcDbEntity
  8
NOCUT
100
AcDbLine
 10
39.700014423
 20
17.300124235
 30
0.0
 11
39.700014423
 21
0.0001242349999977
 31
0.0
  0
LINE
  5
1D5
330
1D
100
AcDbEntity
  8
NOCUT
100
AcDbLine
 10
39.700014423
 20
0.0001242349999977
 30
0.0
 11
-0.0000000000000011
 21
0.0001242350000048
 31
0.0
  0
LINE
  5
1DA
330
1D
100
AcDbEntity
  8
NOCUT
100
AcDbLine
 10
0.0000000000000011
 20
18.000124235
 30
0.0
 11
0.0
 21
0.0
 31
0.0
  0
ENDSEC
  0
SECTION
  2
OBJECTS
  0
DICTIONARY
  5
C
330
0
100
AcDbDictionary
281
     1
  3
ACAD_DETAILVIEWSTYLE
350
16E
  3
ACAD_GROUP
350
D
  3
ACAD_LAYOUT
350
1A
  3
ACAD_MLINESTYLE
350
17
  3
ACAD_PLOTSETTINGS
350
19
  3
ACAD_PLOTSTYLENAME
350
E
  3
ACAD_SCALELIST
350
D1
  3
ACAD_SECTIONVIEWSTYLE
350
16F
  3
AcDbVariableDictionary
350
113
  3
APPDATA
350
161
  3
DWGPROPS
350
1F8
  0
DICTIONARY
  5
162
330
2
100
AcDbDictionary
280
     1
281
     1
  3
ACAD_LAYERSTATES
360
163
  0
DICTIONARY
  5
16E
102
{ACAD_REACTORS
330
C
102
}
330
C
100
AcDbDictionary
281
     1
  0
DICTIONARY
  5
D
102
{ACAD_REACTORS
330
C
102
}
330
C
100
AcDbDictionary
281
     1
  0
DICTIONARY
  5
1A
102
{ACAD_REACTORS
330
C
102
}
330
C
100
AcDbDictionary
281
     1
  3
Layout1
350
1C
  3
Model
350
1E
  0
DICTIONARY
  5
17
102
{ACAD_REACTORS
330
C
102
}
330
C
100
AcDbDictionary
281
     1
  3
Standard
350
18
  0
DICTIONARY
  5
19
102
{ACAD_REACTORS
330
C
102
}
330
C
100
AcDbDictionary
281
     1
  0
ACDBDICTIONARYWDFLT
  5
E
102
{ACAD_REACTORS
330
C
102
}
330
C
100
AcDbDictionary
281
     1
  3
Normal
350
F
100
AcDbDictionaryWithDefault
340
F
  0
DICTIONARY
  5
D1
102
{ACAD_REACTORS
330
C
102
}
330
C
100
AcDbDictionary
281
     1
  3
A0
350
D2
  3
A1
350
D3
  3
A2
350
D4
  3
A3
350
D5
  3
A4
350
D6
  3
A5
350
D7
  3
A6
350
D8
  3
A7
350
D9
  3
A8
350
DA
  3
A9
350
DB
  3
B0
350
DC
  3
B1
350
DD
  3
B2
350
DE
  3
B3
350
DF
  3
B4
350
E0
  3
B5
350
E1
  3
B6
350
E2
  3
B7
350
E3
  3
B8
350
E4
  3
B9
350
E5
  3
C0
350
E6
  3
C1
350
E7
  3
C2
350
E8
  3
C3
350
E9
  3
C4
350
EA
  3
C5
350
EB
  3
C6
350
EC
  3
C7
350
ED
  3
C8
350
EE
  3
C9
350
EF
  3
D0
350
F0
  3
D1
350
F1
  3
D2
350
F2
  0
DICTIONARY
  5
16F
102
{ACAD_REACTORS
330
C
102
}
330
C
100
AcDbDictionary
281
     1
  0
DICTIONARY
  5
113
102
{ACAD_REACTORS
330
C
102
}
330
C
100
AcDbDictionary
281
     1
  3
DIMASSOC
350
117
  3
HIDETEXT
350
118
  0
DICTIONARY
  5
161
102
{ACAD_REACTORS
330
C
102
}
330
C
100
AcDbDictionary
281
     1
  0
XRECORD
  5
1F8
102
{ACAD_REACTORS
330
C
102
}
330
C
100
AcDbXrecord
280
     1
  1
DWGPROPS COOKIE
  2

  3

  4

  6

  7

  8
matthias.ochs
  9

300
=
301
=
302
=
303
=
304
=
305
=
306
=
307
=
308
=
309
=
 40
0.0
 41
2458327.46607919
 42
2458589.564980475
  1

 90
        0
  0
DICTIONARY
  5
163
102
{ACAD_REACTORS
330
162
102
}
330
162
100
AcDbDictionary
281
     1
  0
LAYOUT
  5
1C
102
{ACAD_REACTORS
330
1A
102
}
330
1A
100
AcDbPlotSettings
  1

  2
none_device
  4

  6

 40
0.0
 41
0.0
 42
0.0
 43
0.0
 44
0.0
 45
0.0
 46
0.0
 47
0.0
 48
0.0
 49
0.0
140
0.0
141
0.0
142
1.0
143
1.0
 70
   688
 72
     0
 73
     0
 74
     5
  7

 75
    16
147
1.0
148
0.0
149
0.0
100
AcDbLayout
  1
Layout1
 70
     1
 71
     1
 10
0.0
 20
0.0
 11
12.0
 21
9.0
 12
0.0
 22
0.0
 32
0.0
 14
1.000000000000000E+20
 24
1.000000000000000E+20
 34
1.000000000000000E+20
 15
-1.000000000000000E+20
 25
-1.000000000000000E+20
 35
-1.000000000000000E+20
146
0.0
 13
0.0
 23
0.0
 33
0.0
 16
1.0
 26
0.0
 36
0.0
 17
0.0
 27
1.0
 37
0.0
 76
     0
330
1B
  0
LAYOUT
  5
1E
102
{ACAD_REACTORS
330
1A
102
}
330
1A
100
AcDbPlotSettings
  1

  2
none_device
  4

  6

 40
0.0
 41
0.0
 42
0.0
 43
0.0
 44
0.0
 45
0.0
 46
0.0
 47
0.0
 48
0.0
 49
0.0
140
0.0
141
0.0
142
1.0
143
1.0
 70
  1712
 72
     0
 73
     0
 74
     0
  7

 75
     0
147
1.0
148
0.0
149
0.0
100
AcDbLayout
  1
Model
 70
     1
 71
     0
 10
0.0
 20
0.0
 11
12.0
 21
9.0
 12
0.0
 22
0.0
 32
0.0
 14
-79.27982746615419
 24
-28.34933277966218
 34
0.0
 15
87.56104408690396
 25
37.13428574798869
 35
0.0
146
0.0
 13
0.0
 23
0.0
 33
0.0
 16
1.0
 26
0.0
 36
0.0
 17
0.0
 27
1.0
 37
0.0
 76
     0
330
1D
331
CB
  0
MLINESTYLE
  5
18
102
{ACAD_REACTORS
330
17
102
}
330
17
100
AcDbMlineStyle
  2
Standard
 70
     0
  3

 62
   256
 51
90.0
 52
90.0
 71
     2
 49
0.5
 62
   256
  6
BYLAYER
 49
-0.5
 62
   256
  6
BYLAYER
  0
ACDBPLACEHOLDER
  5
F
102
{ACAD_REACTORS
330
E
102
}
330
E
  0
SCALE
  5
D2
102
{ACAD_REACTORS
330
D1
102
}
330
D1
100
AcDbScale
 70
     0
300
1:1
140
1.0
141
1.0
290
     1
  0
SCALE
  5
D3
102
{ACAD_REACTORS
330
D1
102
}
330
D1
100
AcDbScale
 70
     0
300
1:2
140
1.0
141
2.0
290
     0
  0
SCALE
  5
D4
102
{ACAD_REACTORS
330
D1
102
}
330
D1
100
AcDbScale
 70
     0
300
1:4
140
1.0
141
4.0
290
     0
  0
SCALE
  5
D5
102
{ACAD_REACTORS
330
D1
102
}
330
D1
100
AcDbScale
 70
     0
300
1:5
140
1.0
141
5.0
290
     0
  0
SCALE
  5
D6
102
{ACAD_REACTORS
330
D1
102
}
330
D1
100
AcDbScale
 70
     0
300
1:8
140
1.0
141
8.0
290
     0
  0
SCALE
  5
D7
102
{ACAD_REACTORS
330
D1
102
}
330
D1
100
AcDbScale
 70
     0
300
1:10
140
1.0
141
10.0
290
     0
  0
SCALE
  5
D8
102
{ACAD_REACTORS
330
D1
102
}
330
D1
100
AcDbScale
 70
     0
300
1:16
140
1.0
141
16.0
290
     0
  0
SCALE
  5
D9
102
{ACAD_REACTORS
330
D1
102
}
330
D1
100
AcDbScale
 70
     0
300
1:20
140
1.0
141
20.0
290
     0
  0
SCALE
  5
DA
102
{ACAD_REACTORS
330
D1
102
}
330
D1
100
AcDbScale
 70
     0
300
1:30
140
1.0
141
30.0
290
     0
  0
SCALE
  5
DB
102
{ACAD_REACTORS
330
D1
102
}
330
D1
100
AcDbScale
 70
     0
300
1:40
140
1.0
141
40.0
290
     0
  0
SCALE
  5
DC
102
{ACAD_REACTORS
330
D1
102
}
330
D1
100
AcDbScale
 70
     0
300
1:50
140
1.0
141
50.0
290
     0
  0
SCALE
  5
DD
102
{ACAD_REACTORS
330
D1
102
}
330
D1
100
AcDbScale
 70
     0
300
1:100
140
1.0
141
100.0
290
     0
  0
SCALE
  5
DE
102
{ACAD_REACTORS
330
D1
102
}
330
D1
100
AcDbScale
 70
     0
300
2:1
140
2.0
141
1.0
290
     0
  0
SCALE
  5
DF
102
{ACAD_REACTORS
330
D1
102
}
330
D1
100
AcDbScale
 70
     0
300
4:1
140
4.0
141
1.0
290
     0
  0
SCALE
  5
E0
102
{ACAD_REACTORS
330
D1
102
}
330
D1
100
AcDbScale
 70
     0
300
8:1
140
8.0
141
1.0
290
     0
  0
SCALE
  5
E1
102
{ACAD_REACTORS
330
D1
102
}
330
D1
100
AcDbScale
 70
     0
300
10:1
140
10.0
141
1.0
290
     0
  0
SCALE
  5
E2
102
{ACAD_REACTORS
330
D1
102
}
330
D1
100
AcDbScale
 70
     0
300
100:1
140
100.0
141
1.0
290
     0
  0
SCALE
  5
E3
102
{ACAD_REACTORS
330
D1
102
}
330
D1
100
AcDbScale
 70
     0
300
1/128" = 1'-0"
140
0.0078125
141
12.0
290
     0
  0
SCALE
  5
E4
102
{ACAD_REACTORS
330
D1
102
}
330
D1
100
AcDbScale
 70
     0
300
1/64" = 1'-0"
140
0.015625
141
12.0
290
     0
  0
SCALE
  5
E5
102
{ACAD_REACTORS
330
D1
102
}
330
D1
100
AcDbScale
 70
     0
300
1/32" = 1'-0"
140
0.03125
141
12.0
290
     0
  0
SCALE
  5
E6
102
{ACAD_REACTORS
330
D1
102
}
330
D1
100
AcDbScale
 70
     0
300
1/16" = 1'-0"
140
0.0625
141
12.0
290
     0
  0
SCALE
  5
E7
102
{ACAD_REACTORS
330
D1
102
}
330
D1
100
AcDbScale
 70
     0
300
3/32" = 1'-0"
140
0.09375
141
12.0
290
     0
  0
SCALE
  5
E8
102
{ACAD_REACTORS
330
D1
102
}
330
D1
100
AcDbScale
 70
     0
300
1/8" = 1'-0"
140
0.125
141
12.0
290
     0
  0
SCALE
  5
E9
102
{ACAD_REACTORS
330
D1
102
}
330
D1
100
AcDbScale
 70
     0
300
3/16" = 1'-0"
140
0.1875
141
12.0
290
     0
  0
SCALE
  5
EA
102
{ACAD_REACTORS
330
D1
102
}
330
D1
100
AcDbScale
 70
     0
300
1/4" = 1'-0"
140
0.25
141
12.0
290
     0
  0
SCALE
  5
EB
102
{ACAD_REACTORS
330
D1
102
}
330
D1
100
AcDbScale
 70
     0
300
3/8" = 1'-0"
140
0.375
141
12.0
290
     0
  0
SCALE
  5
EC
102
{ACAD_REACTORS
330
D1
102
}
330
D1
100
AcDbScale
 70
     0
300
1/2" = 1'-0"
140
0.5
141
12.0
290
     0
  0
SCALE
  5
ED
102
{ACAD_REACTORS
330
D1
102
}
330
D1
100
AcDbScale
 70
     0
300
3/4" = 1'-0"
140
0.75
141
12.0
290
     0
  0
SCALE
  5
EE
102
{ACAD_REACTORS
330
D1
102
}
330
D1
100
AcDbScale
 70
     0
300
1" = 1'-0"
140
1.0
141
12.0
290
     0
  0
SCALE
  5
EF
102
{ACAD_REACTORS
330
D1
102
}
330
D1
100
AcDbScale
 70
     0
300
1-1/2" = 1'-0"
140
1.5
141
12.0
290
     0
  0
SCALE
  5
F0
102
{ACAD_REACTORS
330
D1
102
}
330
D1
100
AcDbScale
 70
     0
300
3" = 1'-0"
140
3.0
141
12.0
290
     0
  0
SCALE
  5
F1
102
{ACAD_REACTORS
330
D1
102
}
330
D1
100
AcDbScale
 70
     0
300
6" = 1'-0"
140
6.0
141
12.0
290
     0
  0
SCALE
  5
F2
102
{ACAD_REACTORS
330
D1
102
}
330
D1
100
AcDbScale
 70
     0
300
1'-0" = 1'-0"
140
12.0
141
12.0
290
     0
  0
DICTIONARYVAR
  5
117
102
{ACAD_REACTORS
330
113
102
}
330
113
100
DictionaryVariables
280
     0
  1
2
  0
DICTIONARYVAR
  5
118
102
{ACAD_REACTORS
330
113
102
}
330
113
100
DictionaryVariables
280
     0
  1
1
  0
ENDSEC
  0
EOF
