  0
SECTION
  2
HEADER
  9
$ACADVER
  1
AC1015
  9
$ACADMAINTVER
 70
     6
  9
$DWGCODEPAGE
  3
ANSI_1252
  9
$INSBASE
 10
0.0
 20
0.0
 30
0.0
  9
$EXTMIN
 10
-21.65519136817094
 20
-55.32446083343578
 30
0.0
  9
$EXTMAX
 10
129.0520350403935
 20
47.5512529114533
 30
0.0
  9
$LIMMIN
 10
-52.994834425
 20
-49.342026088
  9
$LIMMAX
 10
148.043283158
 20
41.552332824
  9
$ORTHOMODE
 70
     0
  9
$REGENMODE
 70
     1
  9
$FILLMODE
 70
     1
  9
$QTEXTMODE
 70
     0
  9
$MIRRTEXT
 70
     1
  9
$LTSCALE
 40
1.0
  9
$ATTMODE
 70
     1
  9
$TEXTSIZE
 40
0.2
  9
$TRACEWID
 40
0.05
  9
$TEXTSTYLE
  7
Standard
  9
$CLAYER
  8
1
  9
$CELTYPE
  6
ByLayer
  9
$CECOLOR
 62
   256
  9
$CELTSCALE
 40
1.0
  9
$DISPSILH
 70
     0
  9
$DIMSCALE
 40
1.0
  9
$DIMASZ
 40
0.18
  9
$DIMEXO
 40
0.0625
  9
$DIMDLI
 40
0.38
  9
$DIMRND
 40
0.0
  9
$DIMDLE
 40
0.0
  9
$DIMEXE
 40
0.18
  9
$DIMTP
 40
0.0
  9
$DIMTM
 40
0.0
  9
$DIMTXT
 40
0.18
  9
$DIMCEN
 40
0.09
  9
$DIMTSZ
 40
0.0
  9
$DIMTOL
 70
     0
  9
$DIMLIM
 70
     0
  9
$DIMTIH
 70
     1
  9
$DIMTOH
 70
     1
  9
$DIMSE1
 70
     0
  9
$DIMSE2
 70
     0
  9
$DIMTAD
 70
     0
  9
$DIMZIN
 70
     0
  9
$DIMBLK
  1

  9
$DIMASO
 70
     1
  9
$DIMSHO
 70
     1
  9
$DIMPOST
  1

  9
$DIMAPOST
  1

  9
$DIMALT
 70
     0
  9
$DIMALTD
 70
     2
  9
$DIMALTF
 40
25.4
  9
$DIMLFAC
 40
1.0
  9
$DIMTOFL
 70
     0
  9
$DIMTVP
 40
0.0
  9
$DIMTIX
 70
     0
  9
$DIMSOXD
 70
     0
  9
$DIMSAH
 70
     0
  9
$DIMBLK1
  1

  9
$DIMBLK2
  1

  9
$DIMSTYLE
  2
Standard
  9
$DIMCLRD
 70
     0
  9
$DIMCLRE
 70
     0
  9
$DIMCLRT
 70
     0
  9
$DIMTFAC
 40
1.0
  9
$DIMGAP
 40
0.09
  9
$DIMJUST
 70
     0
  9
$DIMSD1
 70
     0
  9
$DIMSD2
 70
     0
  9
$DIMTOLJ
 70
     1
  9
$DIMTZIN
 70
     0
  9
$DIMALTZ
 70
     0
  9
$DIMALTTZ
 70
     0
  9
$DIMUPT
 70
     0
  9
$DIMDEC
 70
     4
  9
$DIMTDEC
 70
     4
  9
$DIMALTU
 70
     2
  9
$DIMALTTD
 70
     2
  9
$DIMTXSTY
  7
Standard
  9
$DIMAUNIT
 70
     0
  9
$DIMADEC
 70
     0
  9
$DIMALTRND
 40
0.0
  9
$DIMAZIN
 70
     0
  9
$DIMDSEP
 70
    46
  9
$DIMATFIT
 70
     3
  9
$DIMFRAC
 70
     0
  9
$DIMLDRBLK
  1

  9
$DIMLUNIT
 70
     2
  9
$DIMLWD
 70
    -2
  9
$DIMLWE
 70
    -2
  9
$DIMTMOVE
 70
     2
  9
$LUNITS
 70
     2
  9
$LUPREC
 70
     4
  9
$SKETCHINC
 40
0.1
  9
$FILLETRAD
 40
0.5
  9
$AUNITS
 70
     2
  9
$AUPREC
 70
     0
  9
$MENU
  1
.
  9
$ELEVATION
 40
0.0
  9
$PELEVATION
 40
0.0
  9
$THICKNESS
 40
0.0
  9
$LIMCHECK
 70
     0
  9
$CHAMFERA
 40
0.5
  9
$CHAMFERB
 40
0.5
  9
$CHAMFERC
 40
1.0
  9
$CHAMFERD
 40
0.0
  9
$SKPOLY
 70
     0
  9
$TDCREATE
 40
2458327.549411759
  9
$TDUCREATE
 40
2458327.466078426
  9
$TDUPDATE
 40
2458589.64716721
  9
$TDUUPDATE
 40
2458589.563833877
  9
$TDINDWG
 40
0.0035202083
  9
$TDUSRTIMER
 40
0.0001043519
  9
$USRTIMER
 70
     1
  9
$ANGBASE
 50
0.0
  9
$ANGDIR
 70
     0
  9
$PDMODE
 70
     0
  9
$PDSIZE
 40
0.0
  9
$PLINEWID
 40
0.0
  9
$SPLFRAME
 70
     0
  9
$SPLINETYPE
 70
     6
  9
$SPLINESEGS
 70
     8
  9
$HANDSEED
  5
149
  9
$SURFTAB1
 70
     6
  9
$SURFTAB2
 70
     6
  9
$SURFTYPE
 70
     6
  9
$SURFU
 70
     6
  9
$SURFV
 70
     6
  9
$UCSBASE
  2

  9
$UCSNAME
  2

  9
$UCSORG
 10
0.0
 20
0.0
 30
0.0
  9
$UCSXDIR
 10
1.0
 20
0.0
 30
0.0
  9
$UCSYDIR
 10
0.0
 20
1.0
 30
0.0
  9
$UCSORTHOREF
  2

  9
$UCSORTHOVIEW
 70
     0
  9
$UCSORGTOP
 10
0.0
 20
0.0
 30
0.0
  9
$UCSORGBOTTOM
 10
0.0
 20
0.0
 30
0.0
  9
$UCSORGLEFT
 10
0.0
 20
0.0
 30
0.0
  9
$UCSORGRIGHT
 10
0.0
 20
0.0
 30
0.0
  9
$UCSORGFRONT
 10
0.0
 20
0.0
 30
0.0
  9
$UCSORGBACK
 10
0.0
 20
0.0
 30
0.0
  9
$PUCSBASE
  2

  9
$PUCSNAME
  2

  9
$PUCSORG
 10
0.0
 20
0.0
 30
0.0
  9
$PUCSXDIR
 10
1.0
 20
0.0
 30
0.0
  9
$PUCSYDIR
 10
0.0
 20
1.0
 30
0.0
  9
$PUCSORTHOREF
  2

  9
$PUCSORTHOVIEW
 70
     0
  9
$PUCSORGTOP
 10
0.0
 20
0.0
 30
0.0
  9
$PUCSORGBOTTOM
 10
0.0
 20
0.0
 30
0.0
  9
$PUCSORGLEFT
 10
0.0
 20
0.0
 30
0.0
  9
$PUCSORGRIGHT
 10
0.0
 20
0.0
 30
0.0
  9
$PUCSORGFRONT
 10
0.0
 20
0.0
 30
0.0
  9
$PUCSORGBACK
 10
0.0
 20
0.0
 30
0.0
  9
$USERI1
 70
     0
  9
$USERI2
 70
     0
  9
$USERI3
 70
     0
  9
$USERI4
 70
     0
  9
$USERI5
 70
     0
  9
$USERR1
 40
0.0
  9
$USERR2
 40
0.0
  9
$USERR3
 40
0.0
  9
$USERR4
 40
0.0
  9
$USERR5
 40
0.0
  9
$WORLDVIEW
 70
     1
  9
$SHADEDGE
 70
     3
  9
$SHADEDIF
 70
    70
  9
$TILEMODE
 70
     1
  9
$MAXACTVP
 70
    64
  9
$PINSBASE
 10
0.0
 20
0.0
 30
0.0
  9
$PLIMCHECK
 70
     0
  9
$PEXTMIN
 10
1.000000000000000E+20
 20
1.000000000000000E+20
 30
1.000000000000000E+20
  9
$PEXTMAX
 10
-1.000000000000000E+20
 20
-1.000000000000000E+20
 30
-1.000000000000000E+20
  9
$PLIMMIN
 10
0.0
 20
0.0
  9
$PLIMMAX
 10
0.0
 20
0.0
  9
$UNITMODE
 70
     0
  9
$VISRETAIN
 70
     1
  9
$PLINEGEN
 70
     0
  9
$PSLTSCALE
 70
     1
  9
$TREEDEPTH
 70
  3020
  9
$CMLSTYLE
  2
Standard
  9
$CMLJUST
 70
     0
  9
$CMLSCALE
 40
1.0
  9
$PROXYGRAPHICS
 70
     1
  9
$MEASUREMENT
 70
     0
  9
$CELWEIGHT
370
    -1
  9
$ENDCAPS
280
     0
  9
$JOINSTYLE
280
     0
  9
$LWDISPLAY
290
     0
  9
$INSUNITS
 70
     0
  9
$HYPERLINKBASE
  1

  9
$STYLESHEET
  1

  9
$XEDIT
290
     1
  9
$CEPSNTYPE
380
     0
  9
$PSTYLEMODE
290
     1
  9
$FINGERPRINTGUID
  2
{302021B7-C548-4A35-90E0-A2525836F790}
  9
$VERSIONGUID
  2
{FAEB1C32-E019-11D5-929B-00C0DF256EC4}
  9
$EXTNAMES
290
     1
  9
$PSVPSCALE
 40
0.0
  9
$OLESTARTUP
290
     0
  0
ENDSEC
  0
SECTION
  2
CLASSES
  0
CLASS
  1
ACDBDICTIONARYWDFLT
  2
AcDbDictionaryWithDefault
  3
ObjectDBX Classes
 90
        0
280
     0
281
     0
  0
CLASS
  1
SCALE
  2
AcDbScale
  3
ObjectDBX Classes
 90
     1153
280
     0
281
     0
  0
CLASS
  1
VISUALSTYLE
  2
AcDbVisualStyle
  3
ObjectDBX Classes
 90
     4095
280
     0
281
     0
  0
CLASS
  1
MATERIAL
  2
AcDbMaterial
  3
ObjectDBX Classes
 90
     1153
280
     0
281
     0
  0
CLASS
  1
DICTIONARYVAR
  2
AcDbDictionaryVar
  3
ObjectDBX Classes
 90
        0
280
     0
281
     0
  0
CLASS
  1
ACDBPLACEHOLDER
  2
AcDbPlaceHolder
  3
ObjectDBX Classes
 90
        0
280
     0
281
     0
  0
CLASS
  1
LAYOUT
  2
AcDbLayout
  3
ObjectDBX Classes
 90
        0
280
     0
281
     0
  0
CLASS
  1
TABLESTYLE
  2
AcDbTableStyle
  3
ObjectDBX Classes
 90
     4095
280
     0
281
     0
  0
CLASS
  1
MLEADERSTYLE
  2
AcDbMLeaderStyle
  3
ACDB_MLEADERSTYLE_CLASS
 90
     4095
280
     0
281
     0
  0
CLASS
  1
SUN
  2
AcDbSun
  3
SCENEOE
 90
     1153
280
     0
281
     0
  0
CLASS
  1
CELLSTYLEMAP
  2
AcDbCellStyleMap
  3
ObjectDBX Classes
 90
     1152
280
     0
281
     0
  0
ENDSEC
  0
SECTION
  2
TABLES
  0
TABLE
  2
VPORT
  5
8
330
0
100
AcDbSymbolTable
 70
     1
  0
VPORT
  5
71
330
8
100
AcDbSymbolTableRecord
100
AcDbViewportTableRecord
  2
*Active
 70
     0
 10
0.0
 20
0.0
 11
1.0
 21
1.0
 12
34.07324507818737
 22
-41.27421651739533
 13
0.0
 23
0.0
 14
0.5
 24
0.5
 15
0.5
 25
0.5
 16
0.0
 26
0.0
 36
1.0
 17
0.0
 27
0.0
 37
0.0
 40
363.0192392964667
 41
1.978589420654912
 42
50.0
 43
0.0
 44
0.0
 50
0.0
 51
0.0
 71
    16
 72
   100
 73
     1
 74
     3
 75
     0
 76
     0
 77
     0
 78
     0
281
     0
 65
     1
110
0.0
120
0.0
130
0.0
111
1.0
121
0.0
131
0.0
112
0.0
122
1.0
132
0.0
 79
     0
146
0.0
  0
ENDTAB
  0
TABLE
  2
LTYPE
  5
5
330
0
100
AcDbSymbolTable
 70
     8
  0
LTYPE
  5
14
330
5
100
AcDbSymbolTableRecord
100
AcDbLinetypeTableRecord
  2
ByBlock
 70
     0
  3

 72
    65
 73
     0
 40
0.0
  0
LTYPE
  5
15
330
5
100
AcDbSymbolTableRecord
100
AcDbLinetypeTableRecord
  2
ByLayer
 70
     0
  3

 72
    65
 73
     0
 40
0.0
  0
LTYPE
  5
16
330
5
100
AcDbSymbolTableRecord
100
AcDbLinetypeTableRecord
  2
Continuous
 70
     0
  3
Solid line
 72
    65
 73
     0
 40
0.0
  0
LTYPE
  5
20
330
5
100
AcDbSymbolTableRecord
100
AcDbLinetypeTableRecord
  2
PUNKT
 70
     0
  3
..............
 72
    65
 73
     2
 40
1.5
 49
0.7
 74
     0
 49
-0.8
 74
     0
  0
LTYPE
  5
21
330
5
100
AcDbSymbolTableRecord
100
AcDbLinetypeTableRecord
  2
GESTRICHELT
 70
     0
  3
-- -- -- -- --
 72
    65
 73
     7
 40
2.8
 49
0.9
 74
     0
 49
0.0
 74
     0
 49
0.9
 74
     0
 49
0.0
 74
     0
 49
0.2
 74
     0
 49
0.0
 74
     0
 49
-0.8
 74
     0
  0
LTYPE
  5
22
330
5
100
AcDbSymbolTableRecord
100
AcDbLinetypeTableRecord
  2
STRICHPUNKT
 70
     0
  3
--.--.--.--.--
 72
    65
 73
     4
 40
8.8
 49
5.5
 74
     0
 49
-1.3
 74
     0
 49
0.7
 74
     0
 49
-1.3
 74
     0
  0
LTYPE
  5
25
330
5
100
AcDbSymbolTableRecord
100
AcDbLinetypeTableRecord
  2
PHANTOM
 70
     0
  3
--..--..--..--
 72
    65
 73
     6
 40
14.2
 49
7.0
 74
     0
 49
-1.8
 74
     0
 49
0.9
 74
     0
 49
-1.8
 74
     0
 49
0.9
 74
     0
 49
-1.8
 74
     0
  0
LTYPE
  5
E9
330
5
100
AcDbSymbolTableRecord
100
AcDbLinetypeTableRecord
  2
DASH
 70
     0
  3
DASH _ _ _ _ _
 72
    65
 73
     2
 40
0.75
 49
0.4
 74
     0
 49
-0.35
 74
     0
  0
LTYPE
  5
EA
330
5
100
AcDbSymbolTableRecord
100
AcDbLinetypeTableRecord
  2
LONGDASH_DASH
 70
     0
  3
LONGDASH_DASH __ . __ . __
 72
    65
 73
     4
 40
0.85
 49
0.4
 74
     0
 49
-0.2
 74
     0
 49
0.05
 74
     0
 49
-0.2
 74
     0
  0
LTYPE
  5
EB
330
5
100
AcDbSymbolTableRecord
100
AcDbLinetypeTableRecord
  2
LONGDASH_DASH_DASH
 70
     0
  3
LONGDASH_DASH_DASH __ . . __ . . __
 72
    65
 73
     6
 40
1.1
 49
0.4
 74
     0
 49
-0.2
 74
     0
 49
0.05
 74
     0
 49
-0.2
 74
     0
 49
0.05
 74
     0
 49
-0.2
 74
     0
  0
ENDTAB
  0
TABLE
  2
LAYER
  5
2
102
{ACAD_XDICTIONARY
360
108
102
}
330
0
100
AcDbSymbolTable
 70
    15
  0
LAYER
  5
B3
330
2
100
AcDbSymbolTableRecord
100
AcDbLayerTableRecord
  2
200
 70
     0
 62
     2
  6
Continuous
370
    50
390
F
  0
LAYER
  5
EC
330
2
100
AcDbSymbolTableRecord
100
AcDbLayerTableRecord
  2
0
 70
     0
 62
    -1
  6
Continuous
370
    -3
390
F
  0
LAYER
  5
ED
330
2
100
AcDbSymbolTableRecord
100
AcDbLayerTableRecord
  2
1
 70
     0
 62
     4
  6
Continuous
370
    50
390
F
  0
LAYER
  5
EE
330
2
100
AcDbSymbolTableRecord
100
AcDbLayerTableRecord
  2
2
 70
     0
 62
     7
  6
Continuous
370
    25
390
F
  0
LAYER
  5
EF
330
2
100
AcDbSymbolTableRecord
100
AcDbLayerTableRecord
  2
3
 70
     0
 62
     1
  6
DASH
370
    35
390
F
  0
LAYER
  5
F0
330
2
100
AcDbSymbolTableRecord
100
AcDbLayerTableRecord
  2
4
 70
     0
 62
     2
  6
LONGDASH_DASH
370
    25
390
F
  0
LAYER
  5
F1
330
2
100
AcDbSymbolTableRecord
100
AcDbLayerTableRecord
  2
6
 70
     0
 62
     5
  6
Continuous
370
    -3
390
F
  0
LAYER
  5
F2
330
2
100
AcDbSymbolTableRecord
100
AcDbLayerTableRecord
  2
CUT
 70
     0
 62
     1
  6
Continuous
370
    25
390
F
  0
LAYER
  5
F3
330
2
100
AcDbSymbolTableRecord
100
AcDbLayerTableRecord
  2
NOCUT
 70
     0
 62
     7
  6
Continuous
370
    25
390
F
  0
LAYER
  5
F4
330
2
100
AcDbSymbolTableRecord
100
AcDbLayerTableRecord
  2
SK1
 70
     0
 62
     4
  6
Continuous
370
    50
390
F
  0
LAYER
  5
F5
330
2
100
AcDbSymbolTableRecord
100
AcDbLayerTableRecord
  2
SK2
 70
     0
 62
     7
  6
Continuous
370
    25
390
F
  0
LAYER
  5
F6
330
2
100
AcDbSymbolTableRecord
100
AcDbLayerTableRecord
  2
SK3
 70
     0
 62
     1
  6
DASH
370
    35
390
F
  0
LAYER
  5
F7
330
2
100
AcDbSymbolTableRecord
100
AcDbLayerTableRecord
  2
SK4
 70
     0
 62
     2
  6
LONGDASH_DASH
370
    25
390
F
  0
LAYER
  5
F8
330
2
100
AcDbSymbolTableRecord
100
AcDbLayerTableRecord
  2
SK6
 70
     0
 62
     5
  6
Continuous
370
    -3
390
F
  0
LAYER
  5
F9
330
2
100
AcDbSymbolTableRecord
100
AcDbLayerTableRecord
  2
INFTOTAL
 70
     0
 62
     9
  6
Continuous
370
    18
390
F
  0
ENDTAB
  0
TABLE
  2
STYLE
  5
3
330
0
100
AcDbSymbolTable
 70
     2
  0
STYLE
  5
11
330
3
100
AcDbSymbolTableRecord
100
AcDbTextStyleTableRecord
  2
Standard
 70
     0
 40
0.0
 41
1.0
 50
0.0
 71
     0
 42
0.2
  3
txt
  4

  0
STYLE
  5
B2
330
3
100
AcDbSymbolTableRecord
100
AcDbTextStyleTableRecord
  2
BMG_Text
 70
     0
 40
3.5
 41
1.0
 50
0.0
 71
     0
 42
0.2
  3
monos.ttf
  4

1001
ACAD
1000
Monospac821 BT
1071
       49
  0
ENDTAB
  0
TABLE
  2
VIEW
  5
6
330
0
100
AcDbSymbolTable
 70
     0
  0
ENDTAB
  0
TABLE
  2
UCS
  5
7
330
0
100
AcDbSymbolTable
 70
     0
  0
ENDTAB
  0
TABLE
  2
APPID
  5
9
330
0
100
AcDbSymbolTable
 70
     1
  0
APPID
  5
12
330
9
100
AcDbSymbolTableRecord
100
AcDbRegAppTableRecord
  2
ACAD
 70
     0
  0
ENDTAB
  0
TABLE
  2
DIMSTYLE
  5
A
330
0
100
AcDbSymbolTable
 70
     1
100
AcDbDimStyleTable
  0
DIMSTYLE
105
28
330
A
100
AcDbSymbolTableRecord
100
AcDbDimStyleTableRecord
  2
Standard
 70
     0
178
     0
340
11
  0
ENDTAB
  0
TABLE
  2
BLOCK_RECORD
  5
1
330
0
100
AcDbSymbolTable
 70
     0
  0
BLOCK_RECORD
  5
1D
330
1
100
AcDbSymbolTableRecord
100
AcDbBlockTableRecord
  2
*Model_Space
340
1E
  0
BLOCK_RECORD
  5
1B
330
1
100
AcDbSymbolTableRecord
100
AcDbBlockTableRecord
  2
*Paper_Space
340
1C
  0
ENDTAB
  0
ENDSEC
  0
SECTION
  2
BLOCKS
  0
BLOCK
  5
9B
330
1D
100
AcDbEntity
  8
0
100
AcDbBlockBegin
  2
*Model_Space
 70
     0
 10
0.0
 20
0.0
 30
0.0
  3
*Model_Space
  1

  0
ENDBLK
  5
9C
330
1D
100
AcDbEntity
  8
0
100
AcDbBlockEnd
  0
BLOCK
  5
99
330
1B
100
AcDbEntity
 67
     1
  8
0
100
AcDbBlockBegin
  2
*Paper_Space
 70
     0
 10
0.0
 20
0.0
 30
0.0
  3
*Paper_Space
  1

  0
ENDBLK
  5
9A
330
1B
100
AcDbEntity
 67
     1
  8
0
100
AcDbBlockEnd
  0
ENDSEC
  0
SECTION
  2
ENTITIES
  0
ARC
  5
29
330
1D
100
AcDbEntity
  8
1
100
AcDbCircle
 10
0.75
 20
30.95
 30
0.0
 40
0.8
100
AcDbArc
 50
90.0
 51
159.635865194
  0
ARC
  5
2A
330
1D
100
AcDbEntity
  8
1
100
AcDbCircle
 10
0.75
 20
-30.95
 30
0.0
 40
0.8
100
AcDbArc
 50
200.364134806
 51
270.0
  0
ARC
  5
2B
330
1D
100
AcDbEntity
  8
1
100
AcDbCircle
 10
79.25
 20
-30.95
 30
0.0
 40
0.8
100
AcDbArc
 50
270.0
 51
339.635865194
  0
ARC
  5
2C
330
1D
100
AcDbEntity
  8
1
100
AcDbCircle
 10
79.25
 20
30.95
 30
0.0
 40
0.8
100
AcDbArc
 50
20.364134806
 51
90.0
  0
LINE
  5
2D
330
1D
100
AcDbEntity
  8
1
100
AcDbLine
 10
79.25
 20
31.75
 30
0.0
 11
0.75
 21
31.75
 31
0.0
  0
LINE
  5
2E
330
1D
100
AcDbEntity
  8
1
100
AcDbLine
 10
0.75
 20
-31.75
 30
0.0
 11
79.25
 21
-31.75
 31
0.0
  0
LINE
  5
2F
330
1D
100
AcDbEntity
  8
1
100
AcDbLine
 10
63.95
 20
-3.464101615
 30
0.0
 11
66.95
 21
-1.732050808
 31
0.0
  0
LINE
  5
30
330
1D
100
AcDbEntity
  8
1
100
AcDbLine
 10
66.95
 20
-1.732050808
 30
0.0
 11
66.95
 21
1.732050808
 31
0.0
  0
LINE
  5
31
330
1D
100
AcDbEntity
  8
1
100
AcDbLine
 10
66.95
 20
1.732050808
 30
0.0
 11
63.95
 21
3.464101615
 31
0.0
  0
LINE
  5
32
330
1D
100
AcDbEntity
  8
1
100
AcDbLine
 10
63.95
 20
3.464101615
 30
0.0
 11
60.95
 21
1.732050808
 31
0.0
  0
LINE
  5
33
330
1D
100
AcDbEntity
  8
1
100
AcDbLine
 10
60.95
 20
1.732050808
 30
0.0
 11
60.95
 21
-1.732050808
 31
0.0
  0
LINE
  5
34
330
1D
100
AcDbEntity
  8
1
100
AcDbLine
 10
60.95
 20
-1.732050808
 30
0.0
 11
63.95
 21
-3.464101615
 31
0.0
  0
CIRCLE
  5
35
330
1D
100
AcDbEntity
  8
1
100
AcDbCircle
 10
63.95
 20
0.0
 30
0.0
 40
6.0
  0
LINE
  5
36
330
1D
100
AcDbEntity
  8
1
100
AcDbLine
 10
16.05
 20
-3.464101615
 30
0.0
 11
19.05
 21
-1.732050808
 31
0.0
  0
LINE
  5
37
330
1D
100
AcDbEntity
  8
1
100
AcDbLine
 10
19.05
 20
-1.732050808
 30
0.0
 11
19.05
 21
1.732050808
 31
0.0
  0
LINE
  5
38
330
1D
100
AcDbEntity
  8
1
100
AcDbLine
 10
19.05
 20
1.732050808
 30
0.0
 11
16.05
 21
3.464101615
 31
0.0
  0
LINE
  5
39
330
1D
100
AcDbEntity
  8
1
100
AcDbLine
 10
16.05
 20
3.464101615
 30
0.0
 11
13.05
 21
1.732050808
 31
0.0
  0
LINE
  5
3A
330
1D
100
AcDbEntity
  8
1
100
AcDbLine
 10
13.05
 20
1.732050808
 30
0.0
 11
13.05
 21
-1.732050808
 31
0.0
  0
LINE
  5
3B
330
1D
100
AcDbEntity
  8
1
100
AcDbLine
 10
13.05
 20
-1.732050808
 30
0.0
 11
16.05
 21
-3.464101615
 31
0.0
  0
CIRCLE
  5
3C
330
1D
100
AcDbEntity
  8
1
100
AcDbCircle
 10
16.05
 20
0.0
 30
0.0
 40
6.0
  0
LINE
  5
3D
330
1D
100
AcDbEntity
  8
1
100
AcDbLine
 10
0.0
 20
-31.228388218
 30
0.0
 11
0.0
 21
31.228388218
 31
0.0
  0
LINE
  5
3E
330
1D
100
AcDbEntity
  8
1
100
AcDbLine
 10
80.0
 20
31.228388218
 30
0.0
 11
80.0
 21
-31.228388218
 31
0.0
  0
LINE
  5
3F
330
1D
100
AcDbEntity
  8
3
100
AcDbLine
 10
43.0
 20
18.0
 30
0.0
 11
43.0
 21
-18.0
 31
0.0
  0
LINE
  5
40
330
1D
100
AcDbEntity
  8
3
100
AcDbLine
 10
37.0
 20
-18.0
 30
0.0
 11
37.0
 21
18.0
 31
0.0
  0
LINE
  5
41
330
1D
100
AcDbEntity
  8
3
100
AcDbLine
 10
42.566987298
 20
-18.25
 30
0.0
 11
43.0
 21
-18.0
 31
0.0
  0
LINE
  5
42
330
1D
100
AcDbEntity
  8
3
100
AcDbLine
 10
43.0
 20
18.0
 30
0.0
 11
42.566987298
 21
18.25
 31
0.0
  0
LINE
  5
43
330
1D
100
AcDbEntity
  8
3
100
AcDbLine
 10
37.433012702
 20
18.25
 30
0.0
 11
37.0
 21
18.0
 31
0.0
  0
LINE
  5
44
330
1D
100
AcDbEntity
  8
3
100
AcDbLine
 10
37.0
 20
-18.0
 30
0.0
 11
37.433012702
 21
-18.25
 31
0.0
  0
LINE
  5
45
330
1D
100
AcDbEntity
  8
3
100
AcDbLine
 10
37.433012702
 20
-18.25
 30
0.0
 11
42.566987298
 21
-18.25
 31
0.0
  0
LINE
  5
46
330
1D
100
AcDbEntity
  8
3
100
AcDbLine
 10
42.566987298
 20
18.25
 30
0.0
 11
37.433012702
 21
18.25
 31
0.0
  0
LINE
  5
47
330
1D
100
AcDbEntity
  8
3
100
AcDbLine
 10
80.0
 20
18.0
 30
0.0
 11
43.0
 21
18.0
 31
0.0
  0
LINE
  5
48
330
1D
100
AcDbEntity
  8
3
100
AcDbLine
 10
43.0
 20
-18.0
 30
0.0
 11
80.0
 21
-18.0
 31
0.0
  0
LINE
  5
49
330
1D
100
AcDbEntity
  8
3
100
AcDbLine
 10
0.0
 20
-18.0
 30
0.0
 11
37.0
 21
-18.0
 31
0.0
  0
LINE
  5
4A
330
1D
100
AcDbEntity
  8
3
100
AcDbLine
 10
37.0
 20
18.0
 30
0.0
 11
0.0
 21
18.0
 31
0.0
  0
LINE
  5
4B
330
1D
100
AcDbEntity
  8
SK4
100
AcDbLine
 10
-2.057910749
 20
0.0
 30
0.0
 11
82.417563974
 21
0.0
 31
0.0
  0
LINE
  5
4C
330
1D
100
AcDbEntity
  8
SK4
100
AcDbLine
 10
16.05
 20
-7.585643731
 30
0.0
 11
16.05
 21
7.165204045
 31
0.0
  0
LINE
  5
4D
330
1D
100
AcDbEntity
  8
SK4
100
AcDbLine
 10
63.95
 20
-7.332366812
 30
0.0
 11
63.95
 21
7.165204045
 31
0.0
  0
LINE
  5
4E
330
1D
100
AcDbEntity
  8
2
100
AcDbLine
 10
91.986111641
 20
-18.0
 30
0.0
 11
80.0
 21
-18.0
 31
0.0
  0
LINE
  5
4F
330
1D
100
AcDbEntity
  8
2
100
AcDbLine
 10
89.986111641
 20
-18.0
 30
0.0
 11
89.536111641
 21
-14.5
 31
0.0
  0
LINE
  5
50
330
1D
100
AcDbEntity
  8
2
100
AcDbLine
 10
89.536111641
 20
-14.5
 30
0.0
 11
90.436111641
 21
-14.5
 31
0.0
  0
LINE
  5
51
330
1D
100
AcDbEntity
  8
2
100
AcDbLine
 10
90.436111641
 20
-14.5
 30
0.0
 11
89.986111641
 21
-18.0
 31
0.0
  0
LINE
  5
52
330
1D
100
AcDbEntity
  8
2
100
AcDbLine
 10
91.986111641
 20
18.0
 30
0.0
 11
80.0
 21
18.0
 31
0.0
  0
LINE
  5
53
330
1D
100
AcDbEntity
  8
2
100
AcDbLine
 10
89.986111641
 20
18.0
 30
0.0
 11
90.436111641
 21
14.5
 31
0.0
  0
LINE
  5
54
330
1D
100
AcDbEntity
  8
2
100
AcDbLine
 10
90.436111641
 20
14.5
 30
0.0
 11
89.536111641
 21
14.5
 31
0.0
  0
LINE
  5
55
330
1D
100
AcDbEntity
  8
2
100
AcDbLine
 10
89.536111641
 20
14.5
 30
0.0
 11
89.986111641
 21
18.0
 31
0.0
  0
LINE
  5
56
330
1D
100
AcDbEntity
  8
2
100
AcDbLine
 10
89.986111641
 20
-14.5
 30
0.0
 11
89.986111641
 21
14.5
 31
0.0
  0
TEXT
  5
57
330
1D
100
AcDbEntity
  8
2
100
AcDbText
 10
88.486111641
 20
0.331405848
 30
0.0
 40
3.5
  1
36
 50
90.0
  7
BMG_Text
100
AcDbText
  0
CIRCLE
  5
58
330
1D
100
AcDbEntity
  8
2
100
AcDbCircle
 10
87.236111641
 20
-1.918594152
 30
0.0
 40
1.25
  0
LINE
  5
59
330
1D
100
AcDbEntity
  8
2
100
AcDbLine
 10
88.486111641
 20
-3.168594152
 30
0.0
 11
85.986111641
 21
-0.668594152
 31
0.0
  0
LINE
  5
5A
330
1D
100
AcDbEntity
  8
2
100
AcDbLine
 10
99.106359482
 20
-31.75
 30
0.0
 11
79.25
 21
-31.75
 31
0.0
  0
LINE
  5
5B
330
1D
100
AcDbEntity
  8
2
100
AcDbLine
 10
97.106359482
 20
-31.75
 30
0.0
 11
96.656359482
 21
-28.25
 31
0.0
  0
LINE
  5
5C
330
1D
100
AcDbEntity
  8
2
100
AcDbLine
 10
96.656359482
 20
-28.25
 30
0.0
 11
97.556359482
 21
-28.25
 31
0.0
  0
LINE
  5
5D
330
1D
100
AcDbEntity
  8
2
100
AcDbLine
 10
97.556359482
 20
-28.25
 30
0.0
 11
97.106359482
 21
-31.75
 31
0.0
  0
LINE
  5
5E
330
1D
100
AcDbEntity
  8
2
100
AcDbLine
 10
99.106359482
 20
31.75
 30
0.0
 11
79.25
 21
31.75
 31
0.0
  0
LINE
  5
5F
330
1D
100
AcDbEntity
  8
2
100
AcDbLine
 10
97.106359482
 20
31.75
 30
0.0
 11
97.556359482
 21
28.25
 31
0.0
  0
LINE
  5
60
330
1D
100
AcDbEntity
  8
2
100
AcDbLine
 10
97.556359482
 20
28.25
 30
0.0
 11
96.656359482
 21
28.25
 31
0.0
  0
LINE
  5
61
330
1D
100
AcDbEntity
  8
2
100
AcDbLine
 10
96.656359482
 20
28.25
 30
0.0
 11
97.106359482
 21
31.75
 31
0.0
  0
LINE
  5
62
330
1D
100
AcDbEntity
  8
2
100
AcDbLine
 10
97.106359482
 20
-28.25
 30
0.0
 11
97.106359482
 21
28.25
 31
0.0
  0
TEXT
  5
63
330
1D
100
AcDbEntity
  8
2
100
AcDbText
 10
95.606359482
 20
-1.17250071
 30
0.0
 40
3.5
  1
63.5
 50
90.0
  7
BMG_Text
100
AcDbText
  0
CIRCLE
  5
64
330
1D
100
AcDbEntity
  8
2
100
AcDbCircle
 10
94.356359482
 20
-3.42250071
 30
0.0
 40
1.25
  0
LINE
  5
65
330
1D
100
AcDbEntity
  8
2
100
AcDbLine
 10
95.606359482
 20
-4.67250071
 30
0.0
 11
93.106359482
 21
-2.17250071
 31
0.0
  0
LINE
  5
66
330
1D
100
AcDbEntity
  8
2
100
AcDbLine
 10
0.0
 20
-41.539693264
 30
0.0
 11
0.0
 21
-31.228388218
 31
0.0
  0
LINE
  5
67
330
1D
100
AcDbEntity
  8
2
100
AcDbLine
 10
0.0
 20
-39.539693264
 30
0.0
 11
3.5
 21
-39.089693264
 31
0.0
  0
LINE
  5
68
330
1D
100
AcDbEntity
  8
2
100
AcDbLine
 10
3.5
 20
-39.089693264
 30
0.0
 11
3.5
 21
-39.989693264
 31
0.0
  0
LINE
  5
69
330
1D
100
AcDbEntity
  8
2
100
AcDbLine
 10
3.5
 20
-39.989693264
 30
0.0
 11
0.0
 21
-39.539693264
 31
0.0
  0
LINE
  5
6A
330
1D
100
AcDbEntity
  8
2
100
AcDbLine
 10
80.0
 20
-41.539693264
 30
0.0
 11
80.0
 21
-31.228388218
 31
0.0
  0
LINE
  5
6B
330
1D
100
AcDbEntity
  8
2
100
AcDbLine
 10
80.0
 20
-39.539693264
 30
0.0
 11
76.5
 21
-39.989693264
 31
0.0
  0
LINE
  5
6C
330
1D
100
AcDbEntity
  8
2
100
AcDbLine
 10
76.5
 20
-39.989693264
 30
0.0
 11
76.5
 21
-39.089693264
 31
0.0
  0
LINE
  5
6D
330
1D
100
AcDbEntity
  8
2
100
AcDbLine
 10
76.5
 20
-39.089693264
 30
0.0
 11
80.0
 21
-39.539693264
 31
0.0
  0
LINE
  5
6E
330
1D
100
AcDbEntity
  8
2
100
AcDbLine
 10
3.5
 20
-39.539693264
 30
0.0
 11
76.5
 21
-39.539693264
 31
0.0
  0
TEXT
  5
6F
330
1D
100
AcDbEntity
  8
2
100
AcDbText
 10
38.335311606
 20
-38.039693264
 30
0.0
 40
3.5
  1
80
  7
BMG_Text
100
AcDbText
  0
TEXT
  5
70
330
1D
100
AcDbEntity
  8
SK6
100
AcDbText
 10
53.27876937665478
 20
-27.518394584
 30
0.0
 40
3.5
  1
331.860N
  7
BMG_Text
100
AcDbText
  0
LINE
  5
10B
330
1D
100
AcDbEntity
  8
NOCUT
100
AcDbLine
 10
0.0
 20
0.0
 30
0.0
 11
0.0
 21
31.228388218
 31
0.0
  0
LINE
  5
10C
330
1D
100
AcDbEntity
  8
NOCUT
100
AcDbLine
 10
0.75
 20
31.75
 30
0.0
 11
79.25
 21
31.75
 31
0.0
  0
LINE
  5
10D
330
1D
100
AcDbEntity
  8
NOCUT
100
AcDbLine
 10
80.0
 20
31.228388218
 30
0.0
 11
80.0
 21
0.0
 31
0.0
  0
LINE
  5
10E
330
1D
100
AcDbEntity
  8
NOCUT
100
AcDbLine
 10
80.0
 20
0.0
 30
0.0
 11
0.0
 21
0.0
 31
0.0
  0
ARC
  5
10F
330
1D
100
AcDbEntity
  8
NOCUT
100
AcDbCircle
 10
0.749999999956883
 20
30.95000000013752
 30
0.0
 40
0.7999999998624835
100
AcDbArc
 50
89.99999999691197
 51
159.635865211342
  0
ARC
  5
110
330
1D
100
AcDbEntity
  8
NOCUT
100
AcDbCircle
 10
79.25000000004312
 20
30.95000000013752
 30
0.0
 40
0.7999999998624757
100
AcDbArc
 50
20.36413478865753
 51
90.00000000308793
  0
LWPOLYLINE
  5
132
330
1D
100
AcDbEntity
  8
INFTOTAL
100
AcDbPolyline
 90
        4
 70
     1
 43
0.0
 10
-21.65519136817093
 20
47.5512529114533
 10
-21.65519136817093
 20
-55.32446083343578
 10
129.0520350403935
 20
-55.32446083343578
 10
129.0520350403935
 20
47.5512529114533
  0
LINE
  5
13E
330
1D
100
AcDbEntity
  8
4
100
AcDbLine
 10
82.417563974
 20
0.0
 30
0.0
 11
0.0
 21
0.0
 31
0.0
  0
LINE
  5
13F
330
1D
100
AcDbEntity
  8
4
100
AcDbLine
 10
16.05
 20
7.165204045
 30
0.0
 11
16.05
 21
-7.585643731
 31
0.0
  0
LINE
  5
140
330
1D
100
AcDbEntity
  8
4
100
AcDbLine
 10
63.95
 20
7.165204045
 30
0.0
 11
63.95
 21
-7.332366812
 31
0.0
  0
ENDSEC
  0
SECTION
  2
OBJECTS
  0
DICTIONARY
  5
C
330
0
100
AcDbDictionary
281
     1
  3
ACAD_DETAILVIEWSTYLE
350
136
  3
ACAD_GROUP
350
D
  3
ACAD_LAYOUT
350
1A
  3
ACAD_MLINESTYLE
350
17
  3
ACAD_PLOTSETTINGS
350
19
  3
ACAD_PLOTSTYLENAME
350
E
  3
ACAD_SCALELIST
350
77
  3
ACAD_SECTIONVIEWSTYLE
350
137
  3
AcDbVariableDictionary
350
B9
  3
APPDATA
350
107
  3
DWGPROPS
350
148
  0
DICTIONARY
  5
108
330
2
100
AcDbDictionary
280
     1
281
     1
  3
ACAD_LAYERSTATES
360
109
  0
DICTIONARY
  5
136
102
{ACAD_REACTORS
330
C
102
}
330
C
100
AcDbDictionary
281
     1
  0
DICTIONARY
  5
D
102
{ACAD_REACTORS
330
C
102
}
330
C
100
AcDbDictionary
281
     1
  0
DICTIONARY
  5
1A
102
{ACAD_REACTORS
330
C
102
}
330
C
100
AcDbDictionary
281
     1
  3
Layout1
350
1C
  3
Model
350
1E
  0
DICTIONARY
  5
17
102
{ACAD_REACTORS
330
C
102
}
330
C
100
AcDbDictionary
281
     1
  3
Standard
350
18
  0
DICTIONARY
  5
19
102
{ACAD_REACTORS
330
C
102
}
330
C
100
AcDbDictionary
281
     1
  0
ACDBDICTIONARYWDFLT
  5
E
102
{ACAD_REACTORS
330
C
102
}
330
C
100
AcDbDictionary
281
     1
  3
Normal
350
F
100
AcDbDictionaryWithDefault
340
F
  0
DICTIONARY
  5
77
102
{ACAD_REACTORS
330
C
102
}
330
C
100
AcDbDictionary
281
     1
  3
A0
350
78
  3
A1
350
79
  3
A2
350
7A
  3
A3
350
7B
  3
A4
350
7C
  3
A5
350
7D
  3
A6
350
7E
  3
A7
350
7F
  3
A8
350
80
  3
A9
350
81
  3
B0
350
82
  3
B1
350
83
  3
B2
350
84
  3
B3
350
85
  3
B4
350
86
  3
B5
350
87
  3
B6
350
88
  3
B7
350
89
  3
B8
350
8A
  3
B9
350
8B
  3
C0
350
8C
  3
C1
350
8D
  3
C2
350
8E
  3
C3
350
8F
  3
C4
350
90
  3
C5
350
91
  3
C6
350
92
  3
C7
350
93
  3
C8
350
94
  3
C9
350
95
  3
D0
350
96
  3
D1
350
97
  3
D2
350
98
  0
DICTIONARY
  5
137
102
{ACAD_REACTORS
330
C
102
}
330
C
100
AcDbDictionary
281
     1
  0
DICTIONARY
  5
B9
102
{ACAD_REACTORS
330
C
102
}
330
C
100
AcDbDictionary
281
     1
  3
DIMASSOC
350
BD
  3
HIDETEXT
350
BE
  0
DICTIONARY
  5
107
102
{ACAD_REACTORS
330
C
102
}
330
C
100
AcDbDictionary
281
     1
  0
XRECORD
  5
148
102
{ACAD_REACTORS
330
C
102
}
330
C
100
AcDbXrecord
280
     1
  1
DWGPROPS COOKIE
  2

  3

  4

  6

  7

  8
matthias.ochs
  9

300
=
301
=
302
=
303
=
304
=
305
=
306
=
307
=
308
=
309
=
 40
0.0
 41
2458327.466078426
 42
2458589.563833877
  1

 90
        0
  0
DICTIONARY
  5
109
102
{ACAD_REACTORS
330
108
102
}
330
108
100
AcDbDictionary
281
     1
  0
LAYOUT
  5
1C
102
{ACAD_REACTORS
330
1A
102
}
330
1A
100
AcDbPlotSettings
  1

  2
none_device
  4

  6

 40
0.0
 41
0.0
 42
0.0
 43
0.0
 44
0.0
 45
0.0
 46
0.0
 47
0.0
 48
0.0
 49
0.0
140
0.0
141
0.0
142
1.0
143
1.0
 70
   688
 72
     0
 73
     0
 74
     5
  7

 75
    16
147
1.0
148
0.0
149
0.0
100
AcDbLayout
  1
Layout1
 70
     1
 71
     1
 10
0.0
 20
0.0
 11
12.0
 21
9.0
 12
0.0
 22
0.0
 32
0.0
 14
1.000000000000000E+20
 24
1.000000000000000E+20
 34
1.000000000000000E+20
 15
-1.000000000000000E+20
 25
-1.000000000000000E+20
 35
-1.000000000000000E+20
146
0.0
 13
0.0
 23
0.0
 33
0.0
 16
1.0
 26
0.0
 36
0.0
 17
0.0
 27
1.0
 37
0.0
 76
     0
330
1B
  0
LAYOUT
  5
1E
102
{ACAD_REACTORS
330
1A
102
}
330
1A
100
AcDbPlotSettings
  1

  2
none_device
  4

  6

 40
0.0
 41
0.0
 42
0.0
 43
0.0
 44
0.0
 45
0.0
 46
0.0
 47
0.0
 48
0.0
 49
0.0
140
0.0
141
0.0
142
1.0
143
1.0
 70
  1712
 72
     0
 73
     0
 74
     0
  7

 75
     0
147
1.0
148
0.0
149
0.0
100
AcDbLayout
  1
Model
 70
     1
 71
     0
 10
0.0
 20
0.0
 11
12.0
 21
9.0
 12
0.0
 22
0.0
 32
0.0
 14
-21.65519136817094
 24
-55.32446083343578
 34
0.0
 15
129.0520350403935
 25
47.5512529114533
 35
0.0
146
0.0
 13
0.0
 23
0.0
 33
0.0
 16
1.0
 26
0.0
 36
0.0
 17
0.0
 27
1.0
 37
0.0
 76
     0
330
1D
331
71
  0
MLINESTYLE
  5
18
102
{ACAD_REACTORS
330
17
102
}
330
17
100
AcDbMlineStyle
  2
Standard
 70
     0
  3

 62
   256
 51
90.0
 52
90.0
 71
     2
 49
0.5
 62
   256
  6
BYLAYER
 49
-0.5
 62
   256
  6
BYLAYER
  0
ACDBPLACEHOLDER
  5
F
102
{ACAD_REACTORS
330
E
102
}
330
E
  0
SCALE
  5
78
102
{ACAD_REACTORS
330
77
102
}
330
77
100
AcDbScale
 70
     0
300
1:1
140
1.0
141
1.0
290
     1
  0
SCALE
  5
79
102
{ACAD_REACTORS
330
77
102
}
330
77
100
AcDbScale
 70
     0
300
1:2
140
1.0
141
2.0
290
     0
  0
SCALE
  5
7A
102
{ACAD_REACTORS
330
77
102
}
330
77
100
AcDbScale
 70
     0
300
1:4
140
1.0
141
4.0
290
     0
  0
SCALE
  5
7B
102
{ACAD_REACTORS
330
77
102
}
330
77
100
AcDbScale
 70
     0
300
1:5
140
1.0
141
5.0
290
     0
  0
SCALE
  5
7C
102
{ACAD_REACTORS
330
77
102
}
330
77
100
AcDbScale
 70
     0
300
1:8
140
1.0
141
8.0
290
     0
  0
SCALE
  5
7D
102
{ACAD_REACTORS
330
77
102
}
330
77
100
AcDbScale
 70
     0
300
1:10
140
1.0
141
10.0
290
     0
  0
SCALE
  5
7E
102
{ACAD_REACTORS
330
77
102
}
330
77
100
AcDbScale
 70
     0
300
1:16
140
1.0
141
16.0
290
     0
  0
SCALE
  5
7F
102
{ACAD_REACTORS
330
77
102
}
330
77
100
AcDbScale
 70
     0
300
1:20
140
1.0
141
20.0
290
     0
  0
SCALE
  5
80
102
{ACAD_REACTORS
330
77
102
}
330
77
100
AcDbScale
 70
     0
300
1:30
140
1.0
141
30.0
290
     0
  0
SCALE
  5
81
102
{ACAD_REACTORS
330
77
102
}
330
77
100
AcDbScale
 70
     0
300
1:40
140
1.0
141
40.0
290
     0
  0
SCALE
  5
82
102
{ACAD_REACTORS
330
77
102
}
330
77
100
AcDbScale
 70
     0
300
1:50
140
1.0
141
50.0
290
     0
  0
SCALE
  5
83
102
{ACAD_REACTORS
330
77
102
}
330
77
100
AcDbScale
 70
     0
300
1:100
140
1.0
141
100.0
290
     0
  0
SCALE
  5
84
102
{ACAD_REACTORS
330
77
102
}
330
77
100
AcDbScale
 70
     0
300
2:1
140
2.0
141
1.0
290
     0
  0
SCALE
  5
85
102
{ACAD_REACTORS
330
77
102
}
330
77
100
AcDbScale
 70
     0
300
4:1
140
4.0
141
1.0
290
     0
  0
SCALE
  5
86
102
{ACAD_REACTORS
330
77
102
}
330
77
100
AcDbScale
 70
     0
300
8:1
140
8.0
141
1.0
290
     0
  0
SCALE
  5
87
102
{ACAD_REACTORS
330
77
102
}
330
77
100
AcDbScale
 70
     0
300
10:1
140
10.0
141
1.0
290
     0
  0
SCALE
  5
88
102
{ACAD_REACTORS
330
77
102
}
330
77
100
AcDbScale
 70
     0
300
100:1
140
100.0
141
1.0
290
     0
  0
SCALE
  5
89
102
{ACAD_REACTORS
330
77
102
}
330
77
100
AcDbScale
 70
     0
300
1/128" = 1'-0"
140
0.0078125
141
12.0
290
     0
  0
SCALE
  5
8A
102
{ACAD_REACTORS
330
77
102
}
330
77
100
AcDbScale
 70
     0
300
1/64" = 1'-0"
140
0.015625
141
12.0
290
     0
  0
SCALE
  5
8B
102
{ACAD_REACTORS
330
77
102
}
330
77
100
AcDbScale
 70
     0
300
1/32" = 1'-0"
140
0.03125
141
12.0
290
     0
  0
SCALE
  5
8C
102
{ACAD_REACTORS
330
77
102
}
330
77
100
AcDbScale
 70
     0
300
1/16" = 1'-0"
140
0.0625
141
12.0
290
     0
  0
SCALE
  5
8D
102
{ACAD_REACTORS
330
77
102
}
330
77
100
AcDbScale
 70
     0
300
3/32" = 1'-0"
140
0.09375
141
12.0
290
     0
  0
SCALE
  5
8E
102
{ACAD_REACTORS
330
77
102
}
330
77
100
AcDbScale
 70
     0
300
1/8" = 1'-0"
140
0.125
141
12.0
290
     0
  0
SCALE
  5
8F
102
{ACAD_REACTORS
330
77
102
}
330
77
100
AcDbScale
 70
     0
300
3/16" = 1'-0"
140
0.1875
141
12.0
290
     0
  0
SCALE
  5
90
102
{ACAD_REACTORS
330
77
102
}
330
77
100
AcDbScale
 70
     0
300
1/4" = 1'-0"
140
0.25
141
12.0
290
     0
  0
SCALE
  5
91
102
{ACAD_REACTORS
330
77
102
}
330
77
100
AcDbScale
 70
     0
300
3/8" = 1'-0"
140
0.375
141
12.0
290
     0
  0
SCALE
  5
92
102
{ACAD_REACTORS
330
77
102
}
330
77
100
AcDbScale
 70
     0
300
1/2" = 1'-0"
140
0.5
141
12.0
290
     0
  0
SCALE
  5
93
102
{ACAD_REACTORS
330
77
102
}
330
77
100
AcDbScale
 70
     0
300
3/4" = 1'-0"
140
0.75
141
12.0
290
     0
  0
SCALE
  5
94
102
{ACAD_REACTORS
330
77
102
}
330
77
100
AcDbScale
 70
     0
300
1" = 1'-0"
140
1.0
141
12.0
290
     0
  0
SCALE
  5
95
102
{ACAD_REACTORS
330
77
102
}
330
77
100
AcDbScale
 70
     0
300
1-1/2" = 1'-0"
140
1.5
141
12.0
290
     0
  0
SCALE
  5
96
102
{ACAD_REACTORS
330
77
102
}
330
77
100
AcDbScale
 70
     0
300
3" = 1'-0"
140
3.0
141
12.0
290
     0
  0
SCALE
  5
97
102
{ACAD_REACTORS
330
77
102
}
330
77
100
AcDbScale
 70
     0
300
6" = 1'-0"
140
6.0
141
12.0
290
     0
  0
SCALE
  5
98
102
{ACAD_REACTORS
330
77
102
}
330
77
100
AcDbScale
 70
     0
300
1'-0" = 1'-0"
140
12.0
141
12.0
290
     0
  0
DICTIONARYVAR
  5
BD
102
{ACAD_REACTORS
330
B9
102
}
330
B9
100
DictionaryVariables
280
     0
  1
2
  0
DICTIONARYVAR
  5
BE
102
{ACAD_REACTORS
330
B9
102
}
330
B9
100
DictionaryVariables
280
     0
  1
1
  0
ENDSEC
  0
EOF
