  0
SECTION
  2
HEADER
  9
$ACADVER
  1
AC1027
  9
$ACADMAINTVER
 70
   105
  9
$DWGCODEPAGE
  3
ANSI_1252
  9
$REQUIREDVERSIONS
160
                 0
  9
$LASTSAVEDBY
  1
christoph.stuessi
  9
$INSBASE
 10
0.0
 20
0.0
 30
0.0
  9
$EXTMIN
 10
-111.8611774999336
 20
-89.51627871666795
 30
0.0
  9
$EXTMAX
 10
153.4338548191905
 20
77.30679837483376
 30
0.0
  9
$LIMMIN
 10
-99.472648056
 20
-73.568373378
  9
$LIMMAX
 10
174.472648056
 20
47.79795359
  9
$ORTHOMODE
 70
     0
  9
$REGENMODE
 70
     1
  9
$FILLMODE
 70
     1
  9
$QTEXTMODE
 70
     0
  9
$MIRRTEXT
 70
     1
  9
$LTSCALE
 40
1.0
  9
$ATTMODE
 70
     1
  9
$TEXTSIZE
 40
0.2
  9
$TRACEWID
 40
0.05
  9
$TEXTSTYLE
  7
Standard
  9
$CLAYER
  8
1
  9
$CELTYPE
  6
ByLayer
  9
$CECOLOR
 62
   256
  9
$CELTSCALE
 40
1.0
  9
$DISPSILH
 70
     0
  9
$DIMSCALE
 40
1.0
  9
$DIMASZ
 40
0.18
  9
$DIMEXO
 40
0.0625
  9
$DIMDLI
 40
0.38
  9
$DIMRND
 40
0.0
  9
$DIMDLE
 40
0.0
  9
$DIMEXE
 40
0.18
  9
$DIMTP
 40
0.0
  9
$DIMTM
 40
0.0
  9
$DIMTXT
 40
0.18
  9
$DIMCEN
 40
0.09
  9
$DIMTSZ
 40
0.0
  9
$DIMTOL
 70
     0
  9
$DIMLIM
 70
     0
  9
$DIMTIH
 70
     1
  9
$DIMTOH
 70
     1
  9
$DIMSE1
 70
     0
  9
$DIMSE2
 70
     0
  9
$DIMTAD
 70
     0
  9
$DIMZIN
 70
     0
  9
$DIMBLK
  1

  9
$DIMASO
 70
     1
  9
$DIMSHO
 70
     1
  9
$DIMPOST
  1

  9
$DIMAPOST
  1

  9
$DIMALT
 70
     0
  9
$DIMALTD
 70
     2
  9
$DIMALTF
 40
25.4
  9
$DIMLFAC
 40
1.0
  9
$DIMTOFL
 70
     0
  9
$DIMTVP
 40
0.0
  9
$DIMTIX
 70
     0
  9
$DIMSOXD
 70
     0
  9
$DIMSAH
 70
     0
  9
$DIMBLK1
  1

  9
$DIMBLK2
  1

  9
$DIMSTYLE
  2
Standard
  9
$DIMCLRD
 70
     0
  9
$DIMCLRE
 70
     0
  9
$DIMCLRT
 70
     0
  9
$DIMTFAC
 40
1.0
  9
$DIMGAP
 40
0.09
  9
$DIMJUST
 70
     0
  9
$DIMSD1
 70
     0
  9
$DIMSD2
 70
     0
  9
$DIMTOLJ
 70
     1
  9
$DIMTZIN
 70
     0
  9
$DIMALTZ
 70
     0
  9
$DIMALTTZ
 70
     0
  9
$DIMUPT
 70
     0
  9
$DIMDEC
 70
     4
  9
$DIMTDEC
 70
     4
  9
$DIMALTU
 70
     2
  9
$DIMALTTD
 70
     2
  9
$DIMTXSTY
  7
Standard
  9
$DIMAUNIT
 70
     0
  9
$DIMADEC
 70
     0
  9
$DIMALTRND
 40
0.0
  9
$DIMAZIN
 70
     0
  9
$DIMDSEP
 70
    46
  9
$DIMATFIT
 70
     3
  9
$DIMFRAC
 70
     0
  9
$DIMLDRBLK
  1

  9
$DIMLUNIT
 70
     2
  9
$DIMLWD
 70
    -2
  9
$DIMLWE
 70
    -2
  9
$DIMTMOVE
 70
     2
  9
$DIMFXL
 40
1.0
  9
$DIMFXLON
 70
     0
  9
$DIMJOGANG
 40
0.7853981633974483
  9
$DIMTFILL
 70
     0
  9
$DIMTFILLCLR
 70
     0
  9
$DIMARCSYM
 70
     0
  9
$DIMLTYPE
  6

  9
$DIMLTEX1
  6

  9
$DIMLTEX2
  6

  9
$DIMTXTDIRECTION
 70
     0
  9
$LUNITS
 70
     2
  9
$LUPREC
 70
     4
  9
$SKETCHINC
 40
0.1
  9
$FILLETRAD
 40
0.5
  9
$AUNITS
 70
     2
  9
$AUPREC
 70
     0
  9
$MENU
  1
.
  9
$ELEVATION
 40
0.0
  9
$PELEVATION
 40
0.0
  9
$THICKNESS
 40
0.0
  9
$LIMCHECK
 70
     0
  9
$CHAMFERA
 40
0.5
  9
$CHAMFERB
 40
0.5
  9
$CHAMFERC
 40
1.0
  9
$CHAMFERD
 40
0.0
  9
$SKPOLY
 70
     0
  9
$TDCREATE
 40
2458327.549376991
  9
$TDUCREATE
 40
2458327.466043658
  9
$TDUPDATE
 40
2458358.46439941
  9
$TDUUPDATE
 40
2458358.381066076
  9
$TDINDWG
 40
0.0026185417
  9
$TDUSRTIMER
 40
0.0060816782
  9
$USRTIMER
 70
     1
  9
$ANGBASE
 50
0.0
  9
$ANGDIR
 70
     0
  9
$PDMODE
 70
     0
  9
$PDSIZE
 40
0.0
  9
$PLINEWID
 40
0.0
  9
$SPLFRAME
 70
     0
  9
$SPLINETYPE
 70
     6
  9
$SPLINESEGS
 70
     8
  9
$HANDSEED
  5
25C
  9
$SURFTAB1
 70
     6
  9
$SURFTAB2
 70
     6
  9
$SURFTYPE
 70
     6
  9
$SURFU
 70
     6
  9
$SURFV
 70
     6
  9
$UCSBASE
  2

  9
$UCSNAME
  2

  9
$UCSORG
 10
0.0
 20
0.0
 30
0.0
  9
$UCSXDIR
 10
1.0
 20
0.0
 30
0.0
  9
$UCSYDIR
 10
0.0
 20
1.0
 30
0.0
  9
$UCSORTHOREF
  2

  9
$UCSORTHOVIEW
 70
     0
  9
$UCSORGTOP
 10
0.0
 20
0.0
 30
0.0
  9
$UCSORGBOTTOM
 10
0.0
 20
0.0
 30
0.0
  9
$UCSORGLEFT
 10
0.0
 20
0.0
 30
0.0
  9
$UCSORGRIGHT
 10
0.0
 20
0.0
 30
0.0
  9
$UCSORGFRONT
 10
0.0
 20
0.0
 30
0.0
  9
$UCSORGBACK
 10
0.0
 20
0.0
 30
0.0
  9
$PUCSBASE
  2

  9
$PUCSNAME
  2

  9
$PUCSORG
 10
0.0
 20
0.0
 30
0.0
  9
$PUCSXDIR
 10
1.0
 20
0.0
 30
0.0
  9
$PUCSYDIR
 10
0.0
 20
1.0
 30
0.0
  9
$PUCSORTHOREF
  2

  9
$PUCSORTHOVIEW
 70
     0
  9
$PUCSORGTOP
 10
0.0
 20
0.0
 30
0.0
  9
$PUCSORGBOTTOM
 10
0.0
 20
0.0
 30
0.0
  9
$PUCSORGLEFT
 10
0.0
 20
0.0
 30
0.0
  9
$PUCSORGRIGHT
 10
0.0
 20
0.0
 30
0.0
  9
$PUCSORGFRONT
 10
0.0
 20
0.0
 30
0.0
  9
$PUCSORGBACK
 10
0.0
 20
0.0
 30
0.0
  9
$USERI1
 70
     0
  9
$USERI2
 70
     0
  9
$USERI3
 70
     0
  9
$USERI4
 70
     0
  9
$USERI5
 70
     0
  9
$USERR1
 40
0.0
  9
$USERR2
 40
0.0
  9
$USERR3
 40
0.0
  9
$USERR4
 40
0.0
  9
$USERR5
 40
0.0
  9
$WORLDVIEW
 70
     1
  9
$SHADEDGE
 70
     3
  9
$SHADEDIF
 70
    70
  9
$TILEMODE
 70
     1
  9
$MAXACTVP
 70
    64
  9
$PINSBASE
 10
0.0
 20
0.0
 30
0.0
  9
$PLIMCHECK
 70
     0
  9
$PEXTMIN
 10
1.000000000000000E+20
 20
1.000000000000000E+20
 30
1.000000000000000E+20
  9
$PEXTMAX
 10
-1.000000000000000E+20
 20
-1.000000000000000E+20
 30
-1.000000000000000E+20
  9
$PLIMMIN
 10
0.0
 20
0.0
  9
$PLIMMAX
 10
0.0
 20
0.0
  9
$UNITMODE
 70
     0
  9
$VISRETAIN
 70
     1
  9
$PLINEGEN
 70
     0
  9
$PSLTSCALE
 70
     1
  9
$TREEDEPTH
 70
  3020
  9
$CMLSTYLE
  2
Standard
  9
$CMLJUST
 70
     0
  9
$CMLSCALE
 40
1.0
  9
$PROXYGRAPHICS
 70
     1
  9
$MEASUREMENT
 70
     0
  9
$CELWEIGHT
370
    -1
  9
$ENDCAPS
280
     0
  9
$JOINSTYLE
280
     0
  9
$LWDISPLAY
290
     0
  9
$INSUNITS
 70
     0
  9
$HYPERLINKBASE
  1

  9
$STYLESHEET
  1

  9
$XEDIT
290
     1
  9
$CEPSNTYPE
380
     0
  9
$PSTYLEMODE
290
     1
  9
$FINGERPRINTGUID
  2
{2AB9FC17-0D35-4FC3-84A6-51A5AD66F929}
  9
$VERSIONGUID
  2
{FAEB1C32-E019-11D5-929B-00C0DF256EC4}
  9
$EXTNAMES
290
     1
  9
$PSVPSCALE
 40
0.0
  9
$OLESTARTUP
290
     0
  9
$SORTENTS
280
   127
  9
$INDEXCTL
280
     0
  9
$HIDETEXT
280
     1
  9
$XCLIPFRAME
280
     2
  9
$HALOGAP
280
     0
  9
$OBSCOLOR
 70
   257
  9
$OBSLTYPE
280
     0
  9
$INTERSECTIONDISPLAY
280
     0
  9
$INTERSECTIONCOLOR
 70
   257
  9
$DIMASSOC
280
     2
  9
$PROJECTNAME
  1

  9
$CAMERADISPLAY
290
     0
  9
$LENSLENGTH
 40
50.0
  9
$CAMERAHEIGHT
 40
0.0
  9
$STEPSPERSEC
 40
2.0
  9
$STEPSIZE
 40
6.0
  9
$3DDWFPREC
 40
2.0
  9
$PSOLWIDTH
 40
0.25
  9
$PSOLHEIGHT
 40
4.0
  9
$LOFTANG1
 40
1.570796326794897
  9
$LOFTANG2
 40
1.570796326794897
  9
$LOFTMAG1
 40
0.0
  9
$LOFTMAG2
 40
0.0
  9
$LOFTPARAM
 70
     7
  9
$LOFTNORMALS
280
     1
  9
$LATITUDE
 40
37.795
  9
$LONGITUDE
 40
-122.394
  9
$NORTHDIRECTION
 40
0.0
  9
$TIMEZONE
 70
 -8000
  9
$LIGHTGLYPHDISPLAY
280
     1
  9
$TILEMODELIGHTSYNCH
280
     1
  9
$SOLIDHIST
280
     0
  9
$SHOWHIST
280
     1
  9
$DWFFRAME
280
     2
  9
$DGNFRAME
280
     2
  9
$REALWORLDSCALE
290
     1
  9
$INTERFERECOLOR
 62
   256
  9
$CSHADOW
280
     0
  9
$SHADOWPLANELOCATION
 40
0.0
  0
ENDSEC
  0
SECTION
  2
CLASSES
  0
CLASS
  1
ACDBDICTIONARYWDFLT
  2
AcDbDictionaryWithDefault
  3
ObjectDBX Classes
 90
        0
 91
        5
280
     0
281
     0
  0
CLASS
  1
SCALE
  2
AcDbScale
  3
ObjectDBX Classes
 90
     1153
 91
        5
280
     0
281
     0
  0
CLASS
  1
VISUALSTYLE
  2
AcDbVisualStyle
  3
ObjectDBX Classes
 90
     4095
 91
        5
280
     0
281
     0
  0
CLASS
  1
MATERIAL
  2
AcDbMaterial
  3
ObjectDBX Classes
 90
     1153
 91
        5
280
     0
281
     0
  0
CLASS
  1
DICTIONARYVAR
  2
AcDbDictionaryVar
  3
ObjectDBX Classes
 90
        0
 91
        5
280
     0
281
     0
  0
CLASS
  1
ACDBPLACEHOLDER
  2
AcDbPlaceHolder
  3
ObjectDBX Classes
 90
        0
 91
        1
280
     0
281
     0
  0
CLASS
  1
LAYOUT
  2
AcDbLayout
  3
ObjectDBX Classes
 90
        0
 91
        1
280
     0
281
     0
  0
CLASS
  1
TABLESTYLE
  2
AcDbTableStyle
  3
ObjectDBX Classes
 90
     4095
 91
        5
280
     0
281
     0
  0
CLASS
  1
MLEADERSTYLE
  2
AcDbMLeaderStyle
  3
ACDB_MLEADERSTYLE_CLASS
 90
     4095
 91
        5
280
     0
281
     0
  0
CLASS
  1
CELLSTYLEMAP
  2
AcDbCellStyleMap
  3
ObjectDBX Classes
 90
     1152
 91
        5
280
     0
281
     0
  0
ENDSEC
  0
SECTION
  2
TABLES
  0
TABLE
  2
VPORT
  5
8
330
0
100
AcDbSymbolTable
 70
     1
  0
VPORT
  5
16E
330
8
100
AcDbSymbolTableRecord
100
AcDbViewportTableRecord
  2
*Active
 70
     0
 10
0.0
 20
0.0
 11
1.0
 21
1.0
 12
135.0975889801654
 22
-50.45446985671827
 13
0.0
 23
0.0
 14
0.5
 24
0.5
 15
0.5
 25
0.5
 16
0.0
 26
0.0
 36
1.0
 17
0.0
 27
0.0
 37
0.0
 40
319.7442310920448
 41
2.246376811594203
 42
50.0
 43
0.0
 44
0.0
 50
0.0
 51
0.0
 71
    16
 72
   100
 73
     1
 74
     3
 75
     0
 76
     0
 77
     0
 78
     0
281
     0
 65
     1
110
0.0
120
0.0
130
0.0
111
1.0
121
0.0
131
0.0
112
0.0
122
1.0
132
0.0
 79
     0
146
0.0
348
19F
 60
     3
 61
     5
292
     1
282
     1
141
0.0
142
0.0
 63
   256
  0
ENDTAB
  0
TABLE
  2
LTYPE
  5
5
330
0
100
AcDbSymbolTable
 70
     8
  0
LTYPE
  5
14
330
5
100
AcDbSymbolTableRecord
100
AcDbLinetypeTableRecord
  2
ByBlock
 70
     0
  3

 72
    65
 73
     0
 40
0.0
  0
LTYPE
  5
15
330
5
100
AcDbSymbolTableRecord
100
AcDbLinetypeTableRecord
  2
ByLayer
 70
     0
  3

 72
    65
 73
     0
 40
0.0
  0
LTYPE
  5
16
330
5
100
AcDbSymbolTableRecord
100
AcDbLinetypeTableRecord
  2
Continuous
 70
     0
  3
Solid line
 72
    65
 73
     0
 40
0.0
  0
LTYPE
  5
20
330
5
100
AcDbSymbolTableRecord
100
AcDbLinetypeTableRecord
  2
PUNKT
 70
     0
  3
..............
 72
    65
 73
     2
 40
1.5
 49
0.7
 74
     0
 49
-0.8
 74
     0
  0
LTYPE
  5
21
330
5
100
AcDbSymbolTableRecord
100
AcDbLinetypeTableRecord
  2
GESTRICHELT
 70
     0
  3
-- -- -- -- --
 72
    65
 73
     7
 40
2.8
 49
0.9
 74
     0
 49
0.0
 74
     0
 49
0.9
 74
     0
 49
0.0
 74
     0
 49
0.2
 74
     0
 49
0.0
 74
     0
 49
-0.8
 74
     0
  0
LTYPE
  5
22
330
5
100
AcDbSymbolTableRecord
100
AcDbLinetypeTableRecord
  2
STRICHPUNKT
 70
     0
  3
--.--.--.--.--
 72
    65
 73
     4
 40
8.8
 49
5.5
 74
     0
 49
-1.3
 74
     0
 49
0.7
 74
     0
 49
-1.3
 74
     0
  0
LTYPE
  5
25
330
5
100
AcDbSymbolTableRecord
100
AcDbLinetypeTableRecord
  2
PHANTOM
 70
     0
  3
--..--..--..--
 72
    65
 73
     6
 40
14.2
 49
7.0
 74
     0
 49
-1.8
 74
     0
 49
0.9
 74
     0
 49
-1.8
 74
     0
 49
0.9
 74
     0
 49
-1.8
 74
     0
  0
LTYPE
  5
1E6
330
5
100
AcDbSymbolTableRecord
100
AcDbLinetypeTableRecord
  2
DASH
 70
     0
  3
DASH _ _ _ _ _
 72
    65
 73
     2
 40
0.75
 49
0.4
 74
     0
 49
-0.35
 74
     0
  0
LTYPE
  5
1E7
330
5
100
AcDbSymbolTableRecord
100
AcDbLinetypeTableRecord
  2
LONGDASH_DASH
 70
     0
  3
LONGDASH_DASH __ . __ . __
 72
    65
 73
     4
 40
0.85
 49
0.4
 74
     0
 49
-0.2
 74
     0
 49
0.05
 74
     0
 49
-0.2
 74
     0
  0
LTYPE
  5
1E8
330
5
100
AcDbSymbolTableRecord
100
AcDbLinetypeTableRecord
  2
LONGDASH_DASH_DASH
 70
     0
  3
LONGDASH_DASH_DASH __ . . __ . . __
 72
    65
 73
     6
 40
1.1
 49
0.4
 74
     0
 49
-0.2
 74
     0
 49
0.05
 74
     0
 49
-0.2
 74
     0
 49
0.05
 74
     0
 49
-0.2
 74
     0
  0
ENDTAB
  0
TABLE
  2
LAYER
  5
2
102
{ACAD_XDICTIONARY
360
205
102
}
330
0
100
AcDbSymbolTable
 70
    15
  0
LAYER
  5
1B0
330
2
100
AcDbSymbolTableRecord
100
AcDbLayerTableRecord
  2
200
 70
     0
 62
     2
  6
Continuous
370
    50
390
F
347
1AE
348
0
  0
LAYER
  5
1E9
330
2
100
AcDbSymbolTableRecord
100
AcDbLayerTableRecord
  2
0
 70
     0
 62
    -1
  6
Continuous
370
    -3
390
F
347
1AE
348
0
  0
LAYER
  5
1EA
330
2
100
AcDbSymbolTableRecord
100
AcDbLayerTableRecord
  2
1
 70
     0
 62
     4
  6
Continuous
370
    50
390
F
347
1AE
348
0
  0
LAYER
  5
1EB
330
2
100
AcDbSymbolTableRecord
100
AcDbLayerTableRecord
  2
2
 70
     0
 62
     7
  6
Continuous
370
    25
390
F
347
1AE
348
0
  0
LAYER
  5
1EC
330
2
100
AcDbSymbolTableRecord
100
AcDbLayerTableRecord
  2
3
 70
     0
 62
     1
  6
DASH
370
    35
390
F
347
1AE
348
0
  0
LAYER
  5
1ED
330
2
100
AcDbSymbolTableRecord
100
AcDbLayerTableRecord
  2
4
 70
     0
 62
     2
  6
LONGDASH_DASH
370
    25
390
F
347
1AE
348
0
  0
LAYER
  5
1EE
330
2
100
AcDbSymbolTableRecord
100
AcDbLayerTableRecord
  2
6
 70
     0
 62
     5
  6
Continuous
370
    -3
390
F
347
1AE
348
0
  0
LAYER
  5
1EF
330
2
100
AcDbSymbolTableRecord
100
AcDbLayerTableRecord
  2
CUT
 70
     0
 62
     1
  6
Continuous
370
    25
390
F
347
1AE
348
0
  0
LAYER
  5
1F0
330
2
100
AcDbSymbolTableRecord
100
AcDbLayerTableRecord
  2
NOCUT
 70
     0
 62
     7
  6
Continuous
370
    25
390
F
347
1AE
348
0
  0
LAYER
  5
1F1
330
2
100
AcDbSymbolTableRecord
100
AcDbLayerTableRecord
  2
SK1
 70
     0
 62
     4
  6
Continuous
370
    50
390
F
347
1AE
348
0
  0
LAYER
  5
1F2
330
2
100
AcDbSymbolTableRecord
100
AcDbLayerTableRecord
  2
SK2
 70
     0
 62
     7
  6
Continuous
370
    25
390
F
347
1AE
348
0
  0
LAYER
  5
1F3
330
2
100
AcDbSymbolTableRecord
100
AcDbLayerTableRecord
  2
SK3
 70
     0
 62
     1
  6
DASH
370
    35
390
F
347
1AE
348
0
  0
LAYER
  5
1F4
330
2
100
AcDbSymbolTableRecord
100
AcDbLayerTableRecord
  2
SK4
 70
     0
 62
     2
  6
LONGDASH_DASH
370
    25
390
F
347
1AE
348
0
  0
LAYER
  5
1F5
330
2
100
AcDbSymbolTableRecord
100
AcDbLayerTableRecord
  2
SK6
 70
     0
 62
     5
  6
Continuous
370
    -3
390
F
347
1AE
348
0
  0
LAYER
  5
1F6
330
2
100
AcDbSymbolTableRecord
100
AcDbLayerTableRecord
  2
INFTOTAL
 70
     0
 62
     9
  6
Continuous
370
    18
390
F
347
1AE
348
0
  0
ENDTAB
  0
TABLE
  2
STYLE
  5
3
330
0
100
AcDbSymbolTable
 70
     2
  0
STYLE
  5
11
330
3
100
AcDbSymbolTableRecord
100
AcDbTextStyleTableRecord
  2
Standard
 70
     0
 40
0.0
 41
1.0
 50
0.0
 71
     0
 42
0.2
  3
txt
  4

  0
STYLE
  5
1AF
330
3
100
AcDbSymbolTableRecord
100
AcDbTextStyleTableRecord
  2
BMG_Text
 70
     0
 40
3.5
 41
1.0
 50
0.0
 71
     0
 42
0.2
  3
monos.ttf
  4

1001
ACAD
1000
Monospac821 BT
1071
       49
  0
ENDTAB
  0
TABLE
  2
VIEW
  5
6
330
0
100
AcDbSymbolTable
 70
     0
  0
ENDTAB
  0
TABLE
  2
UCS
  5
7
330
0
100
AcDbSymbolTable
 70
     0
  0
ENDTAB
  0
TABLE
  2
APPID
  5
9
330
0
100
AcDbSymbolTable
 70
     1
  0
APPID
  5
12
330
9
100
AcDbSymbolTableRecord
100
AcDbRegAppTableRecord
  2
ACAD
 70
     0
  0
ENDTAB
  0
TABLE
  2
DIMSTYLE
  5
A
330
0
100
AcDbSymbolTable
 70
     1
100
AcDbDimStyleTable
  0
DIMSTYLE
105
28
330
A
100
AcDbSymbolTableRecord
100
AcDbDimStyleTableRecord
  2
Standard
 70
     0
178
     0
340
11
  0
ENDTAB
  0
TABLE
  2
BLOCK_RECORD
  5
1
330
0
100
AcDbSymbolTable
 70
     0
  0
BLOCK_RECORD
  5
1D
330
1
100
AcDbSymbolTableRecord
100
AcDbBlockTableRecord
  2
*Model_Space
340
1E
 70
     0
280
     1
281
     0
  0
BLOCK_RECORD
  5
1B
330
1
100
AcDbSymbolTableRecord
100
AcDbBlockTableRecord
  2
*Paper_Space
340
1C
 70
     0
280
     1
281
     0
  0
ENDTAB
  0
ENDSEC
  0
SECTION
  2
BLOCKS
  0
BLOCK
  5
198
330
1D
100
AcDbEntity
  8
0
100
AcDbBlockBegin
  2
*Model_Space
 70
     0
 10
0.0
 20
0.0
 30
0.0
  3
*Model_Space
  1

  0
ENDBLK
  5
199
330
1D
100
AcDbEntity
  8
0
100
AcDbBlockEnd
  0
BLOCK
  5
196
330
1B
100
AcDbEntity
 67
     1
  8
0
100
AcDbBlockBegin
  2
*Paper_Space
 70
     0
 10
0.0
 20
0.0
 30
0.0
  3
*Paper_Space
  1

  0
ENDBLK
  5
197
330
1B
100
AcDbEntity
 67
     1
  8
0
100
AcDbBlockEnd
  0
ENDSEC
  0
SECTION
  2
ENTITIES
  0
LINE
  5
29
330
1D
100
AcDbEntity
  8
SK1
100
AcDbLine
 10
-31.89999877
 20
-0.000022888
 30
0.0
 11
-31.90000243
 21
-21.573539734
 31
0.0
  0
ARC
  5
2A
330
1D
100
AcDbEntity
  8
SK1
100
AcDbCircle
 10
-30.700003052
 20
-21.573539734
 30
0.0
 40
1.199999378
100
AcDbArc
 50
180.0
 51
267.137594774
  0
LINE
  5
2B
330
1D
100
AcDbEntity
  8
SK1
100
AcDbLine
 10
-30.760176014
 20
-22.776998981
 30
0.0
 11
-2.369644165
 21
-24.196525574
 31
0.0
  0
ARC
  5
2C
330
1D
100
AcDbEntity
  8
SK1
100
AcDbCircle
 10
-0.600006104
 20
-24.835029602
 30
0.0
 40
0.999999924
100
AcDbArc
 50
53.129396736
 51
90.0
  0
LINE
  5
2D
330
1D
100
AcDbEntity
  8
SK1
100
AcDbLine
 10
-0.600006104
 20
-23.835014343
 30
0.0
 11
-1.600006104
 21
-23.835029721
 31
0.0
  0
ARC
  5
2E
330
1D
100
AcDbEntity
  8
SK1
100
AcDbCircle
 10
-1.600006104
 20
-24.835029602
 30
0.0
 40
0.999999881
100
AcDbArc
 50
90.0
 51
140.320357431
  0
LINE
  5
2F
330
1D
100
AcDbEntity
  8
SK1
100
AcDbLine
 10
-2.369644165
 20
-24.196525574
 30
0.0
 11
-2.369644165
 21
-0.000008735
 31
0.0
  0
LINE
  5
30
330
1D
100
AcDbEntity
  8
1
  6
Continuous
370
    50
100
AcDbLine
 10
14.622467041
 20
-31.500007629
 30
0.0
 11
0.3
 21
-31.500007629
 31
0.0
  0
LINE
  5
31
330
1D
100
AcDbEntity
  8
1
  6
Continuous
370
    50
100
AcDbLine
 10
0.3
 20
-31.500007629
 30
0.0
 11
0.0
 21
-31.200007629
 31
0.0
  0
LINE
  5
32
330
1D
100
AcDbEntity
  8
1
  6
Continuous
370
    50
100
AcDbLine
 10
0.0
 20
-31.200007629
 30
0.0
 11
0.0
 21
0.0
 31
0.0
  0
LINE
  5
33
330
1D
100
AcDbEntity
  8
1
  6
Continuous
370
    50
100
AcDbLine
 10
0.0
 20
17.224998474
 30
0.0
 11
0.145500183
 21
17.224998474
 31
0.0
  0
LINE
  5
34
330
1D
100
AcDbEntity
  8
1
  6
Continuous
370
    50
100
AcDbLine
 10
99.999908447
 20
-0.000022888
 30
0.0
 11
99.999908447
 21
-31.000022888
 31
0.0
  0
LINE
  5
35
330
1D
100
AcDbEntity
  8
1
  6
Continuous
370
    50
100
AcDbLine
 10
99.999908447
 20
-31.000022888
 30
0.0
 11
99.599914551
 21
-31.400016785
 31
0.0
  0
LINE
  5
36
330
1D
100
AcDbEntity
  8
1
  6
Continuous
370
    50
100
AcDbLine
 10
99.599914551
 20
-31.400016785
 30
0.0
 11
97.999908447
 21
-31.400016785
 31
0.0
  0
LINE
  5
37
330
1D
100
AcDbEntity
  8
1
  6
Continuous
370
    50
100
AcDbLine
 10
97.999908447
 20
-31.400016785
 30
0.0
 11
97.797851562
 21
-31.749992371
 31
0.0
  0
LINE
  5
38
330
1D
100
AcDbEntity
  8
1
  6
Continuous
370
    50
100
AcDbLine
 10
97.797851562
 20
-31.749992371
 30
0.0
 11
43.499969482
 21
-31.749992371
 31
0.0
  0
LINE
  5
39
330
1D
100
AcDbEntity
  8
1
  6
Continuous
370
    50
100
AcDbLine
 10
43.499969482
 20
-31.749992371
 30
0.0
 11
42.499969482
 21
-30.749992371
 31
0.0
  0
LINE
  5
3A
330
1D
100
AcDbEntity
  8
1
  6
Continuous
370
    50
100
AcDbLine
 10
42.499969482
 20
-30.749992371
 30
0.0
 11
42.499969482
 21
-0.000022888
 31
0.0
  0
ARC
  5
3B
330
1D
100
AcDbEntity
  8
1
  6
Continuous
370
    50
100
AcDbCircle
 10
41.499908447
 20
-27.200022888
 30
0.0
 40
0.99999994
100
AcDbArc
 50
0.0
 51
90.0
  0
LINE
  5
3C
330
1D
100
AcDbEntity
  8
1
  6
Continuous
370
    50
100
AcDbLine
 10
41.499908447
 20
-26.200022888
 30
0.0
 11
26.949938965
 21
-26.200022888
 31
0.0
  0
ARC
  5
3D
330
1D
100
AcDbEntity
  8
1
  6
Continuous
370
    50
100
AcDbCircle
 10
26.949938965
 20
-27.200022888
 30
0.0
 40
1.0
100
AcDbArc
 50
90.0
 51
180.0
  0
ARC
  5
3E
330
1D
100
AcDbEntity
  8
1
  6
Continuous
370
    50
100
AcDbCircle
 10
18.875
 20
-28.500022888
 30
0.0
 40
1.0
100
AcDbArc
 50
0.0
 51
90.000874251
  0
LINE
  5
3F
330
1D
100
AcDbEntity
  8
1
  6
Continuous
370
    50
100
AcDbLine
 10
18.874984741
 20
-27.500007629
 30
0.0
 11
17.125
 21
-27.500023007
 31
0.0
  0
ARC
  5
40
330
1D
100
AcDbEntity
  8
1
  6
Continuous
370
    50
100
AcDbCircle
 10
17.125
 20
-28.500022888
 30
0.0
 40
0.999999881
100
AcDbArc
 50
90.0
 51
180.0
  0
LINE
  5
41
330
1D
100
AcDbEntity
  8
1
  6
Continuous
370
    50
100
AcDbLine
 10
25.949984741
 20
-0.000021027
 30
0.0
 11
25.949984741
 21
-31.200007629
 31
0.0
  0
LINE
  5
42
330
1D
100
AcDbEntity
  8
1
  6
Continuous
370
    50
100
AcDbLine
 10
25.949984741
 20
-31.200007629
 30
0.0
 11
25.649984741
 21
-31.500007629
 31
0.0
  0
LINE
  5
43
330
1D
100
AcDbEntity
  8
1
  6
Continuous
370
    50
100
AcDbLine
 10
25.649984741
 20
-31.500007629
 30
0.0
 11
21.377487183
 21
-31.500007629
 31
0.0
  0
LINE
  5
44
330
1D
100
AcDbEntity
  8
1
  6
Continuous
370
    50
100
AcDbLine
 10
19.874984741
 20
-28.897590637
 30
0.0
 11
21.377487183
 21
-31.500007629
 31
0.0
  0
LINE
  5
45
330
1D
100
AcDbEntity
  8
1
  6
Continuous
370
    50
100
AcDbLine
 10
16.124984741
 20
-28.897590637
 30
0.0
 11
14.6224823
 21
-31.500007629
 31
0.0
  0
LINE
  5
46
330
1D
100
AcDbEntity
  8
1
  6
Continuous
370
    50
100
AcDbLine
 10
97.999908447
 20
-31.400016785
 30
0.0
 11
97.999908447
 21
-0.000022888
 31
0.0
  0
LINE
  5
47
330
1D
100
AcDbEntity
  8
4
  6
LONGDASH_DASH
370
    25
100
AcDbLine
 10
-35.302846213
 20
-0.000022888
 30
0.0
 11
28.544492835
 21
-0.000022888
 31
0.0
  0
LINE
  5
48
330
1D
100
AcDbEntity
  8
4
  6
LONGDASH_DASH
370
    25
100
AcDbLine
 10
36.577049745
 20
-0.000022888
 30
0.0
 11
101.999908447
 21
-0.000022888
 31
0.0
  0
LINE
  5
49
330
1D
100
AcDbEntity
  8
1
  6
Continuous
370
    50
100
AcDbLine
 10
43.499969482
 20
-31.749992371
 30
0.0
 11
43.499969482
 21
-0.000022888
 31
0.0
  0
LINE
  5
4A
330
1D
100
AcDbEntity
  8
1
  6
Continuous
370
    50
100
AcDbLine
 10
0.3
 20
-31.500007629
 30
0.0
 11
0.3
 21
-0.000022888
 31
0.0
  0
LINE
  5
4B
330
1D
100
AcDbEntity
  8
SK3
  6
DASH
370
    35
100
AcDbLine
 10
99.999908447
 20
18.249624299
 30
0.0
 11
99.572538679
 21
18.002874299
 31
0.0
  0
LINE
  5
4C
330
1D
100
AcDbEntity
  8
1
  6
Continuous
370
    50
100
AcDbLine
 10
0.145500183
 20
17.224998474
 30
0.0
 11
-0.000000855
 21
17.224996808
 31
0.0
  0
LINE
  5
4D
330
1D
100
AcDbEntity
  8
SK3
  6
DASH
370
    35
100
AcDbLine
 10
-18.996017456
 20
16.999992371
 30
0.0
 11
-30.9
 21
16.999992371
 31
0.0
  0
LINE
  5
4E
330
1D
100
AcDbEntity
  8
SK3
  6
DASH
370
    35
100
AcDbLine
 10
-18.996017456
 20
16.999992371
 30
0.0
 11
-18.996017456
 21
0.0
 31
0.0
  0
LINE
  5
4F
330
1D
100
AcDbEntity
  8
SK3
  6
DASH
370
    35
100
AcDbLine
 10
-17.263977051
 20
19.889884949
 30
0.0
 11
-17.263977051
 21
0.0
 31
0.0
  0
LINE
  5
50
330
1D
100
AcDbEntity
  8
SK3
  6
DASH
370
    35
100
AcDbLine
 10
-17.437187195
 20
19.699989319
 30
0.0
 11
-18.996017456
 21
16.999992371
 31
0.0
  0
LINE
  5
51
330
1D
100
AcDbEntity
  8
SK3
  6
DASH
370
    35
100
AcDbLine
 10
-30.9
 20
16.999992371
 30
0.0
 11
-31.9
 21
17.577339172
 31
0.0
  0
LINE
  5
52
330
1D
100
AcDbEntity
  8
SK3
  6
DASH
370
    35
100
AcDbLine
 10
-30.9
 20
-0.000022888
 30
0.0
 11
-30.9
 21
16.999992371
 31
0.0
  0
LINE
  5
53
330
1D
100
AcDbEntity
  8
SK3
  6
DASH
370
    35
100
AcDbLine
 10
-6.057998657
 20
19.999992371
 30
0.0
 11
-16.917564392
 21
19.999992364
 31
0.0
  0
ARC
  5
54
330
1D
100
AcDbEntity
  8
SK3
  6
DASH
370
    35
100
AcDbCircle
 10
-6.057998657
 20
11.999992371
 30
0.0
 40
8.000000547
100
AcDbArc
 50
40.777668555
 51
90.0
  0
LINE
  5
55
330
1D
100
AcDbEntity
  8
SK3
  6
DASH
370
    35
100
AcDbLine
 10
0.0
 20
0.0
 30
0.0
 11
0.0
 21
17.224998474
 31
0.0
  0
LINE
  5
56
330
1D
100
AcDbEntity
  8
SK3
  6
DASH
370
    35
100
AcDbLine
 10
8.5
 20
17.224998474
 30
0.0
 11
0.0
 21
17.224998474
 31
0.0
  0
ARC
  5
57
330
1D
100
AcDbEntity
  8
SK3
  6
DASH
370
    35
100
AcDbCircle
 10
8.5
 20
15.724998474
 30
0.0
 40
1.5
100
AcDbArc
 50
0.0
 51
90.0
  0
LINE
  5
58
330
1D
100
AcDbEntity
  8
SK3
  6
DASH
370
    35
100
AcDbLine
 10
10.0
 20
9.249992371
 30
0.0
 11
10.0
 21
15.724998474
 31
0.0
  0
LINE
  5
59
330
1D
100
AcDbEntity
  8
SK3
  6
DASH
370
    35
100
AcDbLine
 10
25.499923706
 20
-0.000022888
 30
0.0
 11
25.499923706
 21
13.049624299
 31
0.0
  0
LINE
  5
5A
330
1D
100
AcDbEntity
  8
SK3
  6
DASH
370
    35
100
AcDbLine
 10
23.560675984
 20
4.649977112
 30
0.0
 11
23.560675984
 21
-0.000022888
 31
0.0
  0
LINE
  5
5B
330
1D
100
AcDbEntity
  8
SK3
  6
DASH
370
    35
100
AcDbLine
 10
10.25
 20
8.999992371
 30
0.0
 11
20.5
 21
8.999992371
 31
0.0
  0
LINE
  5
5C
330
1D
100
AcDbEntity
  8
SK3
  6
DASH
370
    35
100
AcDbLine
 10
11.25
 20
7.999992371
 30
0.0
 11
11.25
 21
0.0
 31
0.0
  0
LINE
  5
5D
330
1D
100
AcDbEntity
  8
SK3
  6
DASH
370
    35
100
AcDbLine
 10
20.5
 20
7.999992371
 30
0.0
 11
20.5
 21
0.0
 31
0.0
  0
LINE
  5
5E
330
1D
100
AcDbEntity
  8
SK3
  6
DASH
370
    35
100
AcDbLine
 10
22.0
 20
4.649977112
 30
0.0
 11
22.0
 21
0.0
 31
0.0
  0
LINE
  5
5F
330
1D
100
AcDbEntity
  8
SK3
  6
DASH
370
    35
100
AcDbLine
 10
10.0
 20
9.249992371
 30
0.0
 11
10.0
 21
0.0
 31
0.0
  0
LINE
  5
60
330
1D
100
AcDbEntity
  8
SK3
  6
DASH
370
    35
100
AcDbLine
 10
38.999923706
 20
-0.000022888
 30
0.0
 11
38.999923706
 21
13.999624299
 31
0.0
  0
LINE
  5
61
330
1D
100
AcDbEntity
  8
SK3
  6
DASH
370
    35
100
AcDbLine
 10
54.999923706
 20
13.049624299
 30
0.0
 11
54.999908666
 21
-0.000022888
 31
0.0
  0
LINE
  5
62
330
1D
100
AcDbEntity
  8
SK3
  6
DASH
370
    35
100
AcDbLine
 10
57.999923706
 20
16.499624299
 30
0.0
 11
57.999923706
 21
-0.000022888
 31
0.0
  0
LINE
  5
63
330
1D
100
AcDbEntity
  8
SK3
  6
DASH
370
    35
100
AcDbLine
 10
61.694279068
 20
18.002874299
 30
0.0
 11
61.694279068
 21
-0.000022888
 31
0.0
  0
LINE
  5
64
330
1D
100
AcDbEntity
  8
SK3
  6
DASH
370
    35
100
AcDbLine
 10
99.572538679
 20
18.002874299
 30
0.0
 11
61.694279068
 21
18.002874299
 31
0.0
  0
LINE
  5
65
330
1D
100
AcDbEntity
  8
SK3
  6
DASH
370
    35
100
AcDbLine
 10
61.694279068
 20
18.002874299
 30
0.0
 11
61.266879272
 21
18.249624299
 31
0.0
  0
LINE
  5
66
330
1D
100
AcDbEntity
  8
SK3
  6
DASH
370
    35
100
AcDbLine
 10
61.266879272
 20
18.249624299
 30
0.0
 11
57.999923706
 21
18.249624299
 31
0.0
  0
LINE
  5
67
330
1D
100
AcDbEntity
  8
SK3
  6
DASH
370
    35
100
AcDbLine
 10
57.999923706
 20
18.249624299
 30
0.0
 11
57.999923706
 21
16.499624299
 31
0.0
  0
LINE
  5
68
330
1D
100
AcDbEntity
  8
SK3
  6
DASH
370
    35
100
AcDbLine
 10
57.999923706
 20
16.499624299
 30
0.0
 11
55.399887085
 21
16.499654769
 31
0.0
  0
ARC
  5
69
330
1D
100
AcDbEntity
  8
SK3
  6
DASH
370
    35
100
AcDbCircle
 10
55.399887085
 20
16.09966092
 30
0.0
 40
0.399993849
100
AcDbArc
 50
90.0
 51
180.004371721
  0
LINE
  5
6A
330
1D
100
AcDbEntity
  8
SK3
  6
DASH
370
    35
100
AcDbLine
 10
54.999923706
 20
16.099630403
 30
0.0
 11
54.999923706
 21
13.049624299
 31
0.0
  0
LINE
  5
6B
330
1D
100
AcDbEntity
  8
SK3
  6
DASH
370
    35
100
AcDbLine
 10
54.999923706
 20
13.049624299
 30
0.0
 11
25.499923706
 21
13.049624299
 31
0.0
  0
LINE
  5
6C
330
1D
100
AcDbEntity
  8
SK3
  6
DASH
370
    35
100
AcDbLine
 10
25.499923706
 20
13.049624299
 30
0.0
 11
23.560675984
 21
4.649977112
 31
0.0
  0
LINE
  5
6D
330
1D
100
AcDbEntity
  8
SK3
  6
DASH
370
    35
100
AcDbLine
 10
23.560675984
 20
4.649977112
 30
0.0
 11
22.0
 21
4.649977112
 31
0.0
  0
LINE
  5
6E
330
1D
100
AcDbEntity
  8
SK3
  6
DASH
370
    35
100
AcDbLine
 10
22.0
 20
4.649977112
 30
0.0
 11
22.0
 21
9.249992371
 31
0.0
  0
LINE
  5
6F
330
1D
100
AcDbEntity
  8
SK3
  6
DASH
370
    35
100
AcDbLine
 10
22.0
 20
9.249992371
 30
0.0
 11
20.5
 21
9.249992371
 31
0.0
  0
LINE
  5
70
330
1D
100
AcDbEntity
  8
SK3
  6
DASH
370
    35
100
AcDbLine
 10
20.5
 20
9.249992371
 30
0.0
 11
20.5
 21
7.999992371
 31
0.0
  0
LINE
  5
71
330
1D
100
AcDbEntity
  8
SK3
  6
DASH
370
    35
100
AcDbLine
 10
11.25
 20
7.999992371
 30
0.0
 11
10.0
 21
9.249992371
 31
0.0
  0
LINE
  5
72
330
1D
100
AcDbEntity
  8
SK3
  6
DASH
370
    35
100
AcDbLine
 10
38.999923706
 20
13.999624299
 30
0.0
 11
54.999923706
 21
13.999624299
 31
0.0
  0
LINE
  5
73
330
1D
100
AcDbEntity
  8
SK3
  6
DASH
370
    35
100
AcDbLine
 10
10.25
 20
8.999992371
 30
0.0
 11
20.5
 21
8.999992371
 31
0.0
  0
ARC
  5
74
330
1D
100
AcDbEntity
  8
SK3
  6
DASH
370
    35
100
AcDbCircle
 10
-16.917564392
 20
19.399986267
 30
0.0
 40
0.600006097
100
AcDbArc
 50
90.0
 51
150.000108606
  0
LINE
  5
75
330
1D
100
AcDbEntity
  8
SK1
100
AcDbLine
 10
-31.89999877
 20
-0.000022888
 30
0.0
 11
-31.90000243
 21
21.573493958
 31
0.0
  0
ARC
  5
76
330
1D
100
AcDbEntity
  8
SK1
100
AcDbCircle
 10
-30.700003052
 20
21.573493958
 30
0.0
 40
1.199999378
100
AcDbArc
 50
92.86240522599999
 51
180.0
  0
LINE
  5
77
330
1D
100
AcDbEntity
  8
SK1
100
AcDbLine
 10
-30.760176014
 20
22.776953205
 30
0.0
 11
-2.369644165
 21
24.196479797
 31
0.0
  0
ARC
  5
78
330
1D
100
AcDbEntity
  8
SK1
100
AcDbCircle
 10
-0.600006104
 20
24.834983826
 30
0.0
 40
0.999999924
100
AcDbArc
 50
270.0
 51
306.870603264
  0
LINE
  5
79
330
1D
100
AcDbEntity
  8
SK1
100
AcDbLine
 10
-0.600006104
 20
23.834968567
 30
0.0
 11
-1.600006104
 21
23.834983945
 31
0.0
  0
ARC
  5
7A
330
1D
100
AcDbEntity
  8
SK1
100
AcDbCircle
 10
-1.600006104
 20
24.834983826
 30
0.0
 40
0.999999881
100
AcDbArc
 50
219.679642569
 51
270.0
  0
LINE
  5
7B
330
1D
100
AcDbEntity
  8
SK1
100
AcDbLine
 10
-2.369644165
 20
24.196479797
 30
0.0
 11
-2.369644165
 21
-0.000037041
 31
0.0
  0
LINE
  5
7C
330
1D
100
AcDbEntity
  8
1
  6
Continuous
370
    50
100
AcDbLine
 10
16.124984741
 20
21.733695984
 30
0.0
 11
14.622467041
 21
24.336143494
 31
0.0
  0
LINE
  5
7D
330
1D
100
AcDbEntity
  8
1
  6
Continuous
370
    50
100
AcDbLine
 10
14.622467041
 20
24.336143494
 30
0.0
 11
14.622467041
 21
31.499961853
 31
0.0
  0
LINE
  5
7E
330
1D
100
AcDbEntity
  8
1
  6
Continuous
370
    50
100
AcDbLine
 10
14.622467041
 20
31.499961853
 30
0.0
 11
0.3
 21
31.499961853
 31
0.0
  0
LINE
  5
7F
330
1D
100
AcDbEntity
  8
1
  6
Continuous
370
    50
100
AcDbLine
 10
0.3
 20
31.499961853
 30
0.0
 11
0.0
 21
31.199961853
 31
0.0
  0
LINE
  5
80
330
1D
100
AcDbEntity
  8
1
  6
Continuous
370
    50
100
AcDbLine
 10
0.0
 20
31.199961853
 30
0.0
 11
0.0
 21
-0.000045776
 31
0.0
  0
LINE
  5
81
330
1D
100
AcDbEntity
  8
1
  6
Continuous
370
    50
100
AcDbLine
 10
0.0
 20
-17.22504425
 30
0.0
 11
0.145500183
 21
-17.22504425
 31
0.0
  0
LINE
  5
82
330
1D
100
AcDbEntity
  8
1
  6
Continuous
370
    50
100
AcDbLine
 10
99.999908447
 20
-0.000022888
 30
0.0
 11
99.999908447
 21
30.999977112
 31
0.0
  0
LINE
  5
83
330
1D
100
AcDbEntity
  8
1
  6
Continuous
370
    50
100
AcDbLine
 10
99.999908447
 20
30.999977112
 30
0.0
 11
99.599914551
 21
31.399971008
 31
0.0
  0
LINE
  5
84
330
1D
100
AcDbEntity
  8
1
  6
Continuous
370
    50
100
AcDbLine
 10
99.599914551
 20
31.399971008
 30
0.0
 11
97.999908447
 21
31.399971008
 31
0.0
  0
LINE
  5
85
330
1D
100
AcDbEntity
  8
1
  6
Continuous
370
    50
100
AcDbLine
 10
97.999908447
 20
31.399971008
 30
0.0
 11
97.797851562
 21
31.749946594
 31
0.0
  0
LINE
  5
86
330
1D
100
AcDbEntity
  8
1
  6
Continuous
370
    50
100
AcDbLine
 10
97.797851562
 20
31.749946594
 30
0.0
 11
43.499969482
 21
31.749946594
 31
0.0
  0
LINE
  5
87
330
1D
100
AcDbEntity
  8
1
  6
Continuous
370
    50
100
AcDbLine
 10
43.499969482
 20
31.749946594
 30
0.0
 11
42.499969482
 21
30.749946594
 31
0.0
  0
LINE
  5
88
330
1D
100
AcDbEntity
  8
1
  6
Continuous
370
    50
100
AcDbLine
 10
42.499969482
 20
30.749946594
 30
0.0
 11
42.499969482
 21
-0.000022888
 31
0.0
  0
ARC
  5
89
330
1D
100
AcDbEntity
  8
1
  6
Continuous
370
    50
100
AcDbCircle
 10
41.499908447
 20
27.199977112
 30
0.0
 40
0.99999994
100
AcDbArc
 50
270.0
 51
0.0
  0
LINE
  5
8A
330
1D
100
AcDbEntity
  8
1
  6
Continuous
370
    50
100
AcDbLine
 10
41.499908447
 20
26.199977112
 30
0.0
 11
26.949938965
 21
26.199977112
 31
0.0
  0
ARC
  5
8B
330
1D
100
AcDbEntity
  8
1
  6
Continuous
370
    50
100
AcDbCircle
 10
26.949938965
 20
27.199977112
 30
0.0
 40
1.0
100
AcDbArc
 50
180.0
 51
270.0
  0
ARC
  5
8C
330
1D
100
AcDbEntity
  8
1
  6
Continuous
370
    50
100
AcDbCircle
 10
18.875
 20
28.499977112
 30
0.0
 40
1.0
100
AcDbArc
 50
269.9991257489999
 51
0.0
  0
LINE
  5
8D
330
1D
100
AcDbEntity
  8
1
  6
Continuous
370
    50
100
AcDbLine
 10
18.874984741
 20
27.499961853
 30
0.0
 11
17.125
 21
27.499977231
 31
0.0
  0
ARC
  5
8E
330
1D
100
AcDbEntity
  8
1
  6
Continuous
370
    50
100
AcDbCircle
 10
17.125
 20
28.499977112
 30
0.0
 40
0.999999881
100
AcDbArc
 50
180.0
 51
270.0
  0
LINE
  5
8F
330
1D
100
AcDbEntity
  8
1
  6
Continuous
370
    50
100
AcDbLine
 10
16.124984741
 20
19.999961853
 30
0.0
 11
12.111694336
 21
19.999962807
 31
0.0
  0
ARC
  5
90
330
1D
100
AcDbEntity
  8
1
  6
Continuous
370
    50
100
AcDbCircle
 10
12.111694336
 20
27.999961853
 30
0.0
 40
7.999999046
100
AcDbArc
 50
207.256667865
 51
270.0
  0
LINE
  5
91
330
1D
100
AcDbEntity
  8
1
  6
Continuous
370
    50
100
AcDbLine
 10
4.999984741
 20
24.336143494
 30
0.0
 11
14.622467041
 21
24.336143494
 31
0.0
  0
LINE
  5
92
330
1D
100
AcDbEntity
  8
1
  6
Continuous
370
    50
100
AcDbLine
 10
25.949984741
 20
-0.000024749
 30
0.0
 11
25.949984741
 21
31.199961853
 31
0.0
  0
LINE
  5
93
330
1D
100
AcDbEntity
  8
1
  6
Continuous
370
    50
100
AcDbLine
 10
25.949984741
 20
31.199961853
 30
0.0
 11
25.649984741
 21
31.499961853
 31
0.0
  0
LINE
  5
94
330
1D
100
AcDbEntity
  8
1
  6
Continuous
370
    50
100
AcDbLine
 10
25.649984741
 20
31.499961853
 30
0.0
 11
21.377487183
 21
31.499961853
 31
0.0
  0
LINE
  5
95
330
1D
100
AcDbEntity
  8
1
  6
Continuous
370
    50
100
AcDbLine
 10
21.377487183
 20
31.499961853
 30
0.0
 11
21.377487183
 21
24.336143494
 31
0.0
  0
LINE
  5
96
330
1D
100
AcDbEntity
  8
1
  6
Continuous
370
    50
100
AcDbLine
 10
21.377487183
 20
24.336143494
 30
0.0
 11
25.949984741
 21
24.336143494
 31
0.0
  0
LINE
  5
97
330
1D
100
AcDbEntity
  8
1
  6
Continuous
370
    50
100
AcDbLine
 10
19.874984741
 20
-28.897590637
 30
0.0
 11
19.874984741
 21
28.897544861
 31
0.0
  0
LINE
  5
98
330
1D
100
AcDbEntity
  8
1
  6
Continuous
370
    50
100
AcDbLine
 10
19.874984741
 20
28.897544861
 30
0.0
 11
21.377487183
 21
31.499961853
 31
0.0
  0
LINE
  5
99
330
1D
100
AcDbEntity
  8
1
  6
Continuous
370
    50
100
AcDbLine
 10
16.124984741
 20
-28.897590637
 30
0.0
 11
16.124984741
 21
28.897544861
 31
0.0
  0
LINE
  5
9A
330
1D
100
AcDbEntity
  8
1
  6
Continuous
370
    50
100
AcDbLine
 10
16.124984741
 20
28.897544861
 30
0.0
 11
14.6224823
 21
31.499961853
 31
0.0
  0
LINE
  5
9B
330
1D
100
AcDbEntity
  8
1
  6
Continuous
370
    50
100
AcDbLine
 10
97.999908447
 20
31.399971008
 30
0.0
 11
97.999908447
 21
-0.000022888
 31
0.0
  0
LINE
  5
9C
330
1D
100
AcDbEntity
  8
4
  6
LONGDASH_DASH
370
    25
100
AcDbLine
 10
-35.302846213
 20
-0.000022888
 30
0.0
 11
28.544492835
 21
-0.000022888
 31
0.0
  0
LINE
  5
9D
330
1D
100
AcDbEntity
  8
4
  6
LONGDASH_DASH
370
    25
100
AcDbLine
 10
36.577049745
 20
-0.000022888
 30
0.0
 11
101.999908447
 21
-0.000022888
 31
0.0
  0
LINE
  5
9E
330
1D
100
AcDbEntity
  8
1
  6
Continuous
370
    50
100
AcDbLine
 10
43.499969482
 20
31.749946594
 30
0.0
 11
43.499969482
 21
-0.000022888
 31
0.0
  0
LINE
  5
9F
330
1D
100
AcDbEntity
  8
1
  6
Continuous
370
    50
100
AcDbLine
 10
19.874984741
 20
19.999961853
 30
0.0
 11
25.949984741
 21
19.999961853
 31
0.0
  0
LINE
  5
A0
330
1D
100
AcDbEntity
  8
1
  6
Continuous
370
    50
100
AcDbLine
 10
19.874984741
 20
21.733726501
 30
0.0
 11
21.377487183
 21
24.336143494
 31
0.0
  0
LINE
  5
A1
330
1D
100
AcDbEntity
  8
1
  6
Continuous
370
    50
100
AcDbLine
 10
21.377487183
 20
-31.500007629
 30
0.0
 11
21.377487183
 21
19.999961853
 31
0.0
  0
LINE
  5
A2
330
1D
100
AcDbEntity
  8
1
  6
Continuous
370
    50
100
AcDbLine
 10
14.622467041
 20
-31.500007629
 30
0.0
 11
14.622467041
 21
19.999961853
 31
0.0
  0
LINE
  5
A3
330
1D
100
AcDbEntity
  8
1
  6
Continuous
370
    50
100
AcDbLine
 10
0.3
 20
31.499961853
 30
0.0
 11
0.3
 21
-0.000022888
 31
0.0
  0
LINE
  5
A4
330
1D
100
AcDbEntity
  8
1
  6
Continuous
370
    50
100
AcDbLine
 10
25.649984741
 20
-31.500007629
 30
0.0
 11
25.649984741
 21
7.999977112
 31
0.0
  0
LINE
  5
A5
330
1D
100
AcDbEntity
  8
1
  6
Continuous
370
    50
100
AcDbLine
 10
25.649984741
 20
31.499961853
 30
0.0
 11
25.649984741
 21
24.336143494
 31
0.0
  0
LINE
  5
A6
330
1D
100
AcDbEntity
  8
SK3
  6
DASH
370
    35
100
AcDbLine
 10
99.999908447
 20
-18.249670075
 30
0.0
 11
99.572538679
 21
-18.002920075
 31
0.0
  0
LINE
  5
A7
330
1D
100
AcDbEntity
  8
1
  6
Continuous
370
    50
100
AcDbLine
 10
0.145500183
 20
-17.22504425
 30
0.0
 11
-0.000000855
 21
-17.225042585
 31
0.0
  0
LINE
  5
A8
330
1D
100
AcDbEntity
  8
SK3
  6
DASH
370
    35
100
AcDbLine
 10
-18.996017456
 20
-17.000038147
 30
0.0
 11
-30.9
 21
-17.000038147
 31
0.0
  0
LINE
  5
A9
330
1D
100
AcDbEntity
  8
SK3
  6
DASH
370
    35
100
AcDbLine
 10
-18.996017456
 20
-17.000038147
 30
0.0
 11
-18.996017456
 21
-0.000045776
 31
0.0
  0
LINE
  5
AA
330
1D
100
AcDbEntity
  8
SK3
  6
DASH
370
    35
100
AcDbLine
 10
-17.263977051
 20
-19.889930725
 30
0.0
 11
-17.263977051
 21
-0.000045776
 31
0.0
  0
LINE
  5
AB
330
1D
100
AcDbEntity
  8
SK3
  6
DASH
370
    35
100
AcDbLine
 10
-17.437187195
 20
-19.700035095
 30
0.0
 11
-18.996017456
 21
-17.000038147
 31
0.0
  0
LINE
  5
AC
330
1D
100
AcDbEntity
  8
SK3
  6
DASH
370
    35
100
AcDbLine
 10
-30.9
 20
-17.000038147
 30
0.0
 11
-31.9
 21
-17.577384949
 31
0.0
  0
LINE
  5
AD
330
1D
100
AcDbEntity
  8
SK3
  6
DASH
370
    35
100
AcDbLine
 10
-30.9
 20
-0.000022888
 30
0.0
 11
-30.9
 21
-17.000038147
 31
0.0
  0
LINE
  5
AE
330
1D
100
AcDbEntity
  8
SK3
  6
DASH
370
    35
100
AcDbLine
 10
-6.057998657
 20
-20.000038147
 30
0.0
 11
-16.917564392
 21
-20.00003814
 31
0.0
  0
ARC
  5
AF
330
1D
100
AcDbEntity
  8
SK3
  6
DASH
370
    35
100
AcDbCircle
 10
-6.057998657
 20
-12.000038147
 30
0.0
 40
8.000000547
100
AcDbArc
 50
270.0
 51
319.2223314450001
  0
LINE
  5
B0
330
1D
100
AcDbEntity
  8
SK3
  6
DASH
370
    35
100
AcDbLine
 10
0.0
 20
-0.000045776
 30
0.0
 11
0.0
 21
-17.22504425
 31
0.0
  0
LINE
  5
B1
330
1D
100
AcDbEntity
  8
SK3
  6
DASH
370
    35
100
AcDbLine
 10
8.5
 20
-17.22504425
 30
0.0
 11
0.0
 21
-17.22504425
 31
0.0
  0
ARC
  5
B2
330
1D
100
AcDbEntity
  8
SK3
  6
DASH
370
    35
100
AcDbCircle
 10
8.5
 20
-15.72504425
 30
0.0
 40
1.5
100
AcDbArc
 50
270.0
 51
0.0
  0
LINE
  5
B3
330
1D
100
AcDbEntity
  8
SK3
  6
DASH
370
    35
100
AcDbLine
 10
10.0
 20
-9.250038147
 30
0.0
 11
10.0
 21
-15.72504425
 31
0.0
  0
LINE
  5
B4
330
1D
100
AcDbEntity
  8
SK3
  6
DASH
370
    35
100
AcDbLine
 10
25.499923706
 20
-0.000022888
 30
0.0
 11
25.499923706
 21
-13.049670075
 31
0.0
  0
LINE
  5
B5
330
1D
100
AcDbEntity
  8
SK3
  6
DASH
370
    35
100
AcDbLine
 10
23.560675984
 20
-4.650022888
 30
0.0
 11
23.560675984
 21
-0.000022888
 31
0.0
  0
LINE
  5
B6
330
1D
100
AcDbEntity
  8
SK3
  6
DASH
370
    35
100
AcDbLine
 10
10.25
 20
-9.000038147
 30
0.0
 11
20.5
 21
-9.000038147
 31
0.0
  0
LINE
  5
B7
330
1D
100
AcDbEntity
  8
SK3
  6
DASH
370
    35
100
AcDbLine
 10
11.25
 20
-8.000038147
 30
0.0
 11
11.25
 21
-0.000045776
 31
0.0
  0
LINE
  5
B8
330
1D
100
AcDbEntity
  8
SK3
  6
DASH
370
    35
100
AcDbLine
 10
20.5
 20
-8.000038147
 30
0.0
 11
20.5
 21
-0.000045776
 31
0.0
  0
LINE
  5
B9
330
1D
100
AcDbEntity
  8
SK3
  6
DASH
370
    35
100
AcDbLine
 10
22.0
 20
-4.650022888
 30
0.0
 11
22.0
 21
-0.000045776
 31
0.0
  0
LINE
  5
BA
330
1D
100
AcDbEntity
  8
SK3
  6
DASH
370
    35
100
AcDbLine
 10
10.0
 20
-9.250038147
 30
0.0
 11
10.0
 21
-0.000045776
 31
0.0
  0
LINE
  5
BB
330
1D
100
AcDbEntity
  8
SK3
  6
DASH
370
    35
100
AcDbLine
 10
38.999923706
 20
-0.000022888
 30
0.0
 11
38.999923706
 21
-13.999670075
 31
0.0
  0
LINE
  5
BC
330
1D
100
AcDbEntity
  8
SK3
  6
DASH
370
    35
100
AcDbLine
 10
54.999923706
 20
-13.049670075
 30
0.0
 11
54.999908666
 21
-0.000022888
 31
0.0
  0
LINE
  5
BD
330
1D
100
AcDbEntity
  8
SK3
  6
DASH
370
    35
100
AcDbLine
 10
57.999923706
 20
-16.499670075
 30
0.0
 11
57.999923706
 21
-0.000022888
 31
0.0
  0
LINE
  5
BE
330
1D
100
AcDbEntity
  8
SK3
  6
DASH
370
    35
100
AcDbLine
 10
61.694279068
 20
-18.002920075
 30
0.0
 11
61.694279068
 21
-0.000022888
 31
0.0
  0
LINE
  5
BF
330
1D
100
AcDbEntity
  8
SK3
  6
DASH
370
    35
100
AcDbLine
 10
99.572538679
 20
-18.002920075
 30
0.0
 11
61.694279068
 21
-18.002920075
 31
0.0
  0
LINE
  5
C0
330
1D
100
AcDbEntity
  8
SK3
  6
DASH
370
    35
100
AcDbLine
 10
61.694279068
 20
-18.002920075
 30
0.0
 11
61.266879272
 21
-18.249670075
 31
0.0
  0
LINE
  5
C1
330
1D
100
AcDbEntity
  8
SK3
  6
DASH
370
    35
100
AcDbLine
 10
61.266879272
 20
-18.249670075
 30
0.0
 11
57.999923706
 21
-18.249670075
 31
0.0
  0
LINE
  5
C2
330
1D
100
AcDbEntity
  8
SK3
  6
DASH
370
    35
100
AcDbLine
 10
57.999923706
 20
-18.249670075
 30
0.0
 11
57.999923706
 21
-16.499670075
 31
0.0
  0
LINE
  5
C3
330
1D
100
AcDbEntity
  8
SK3
  6
DASH
370
    35
100
AcDbLine
 10
57.999923706
 20
-16.499670075
 30
0.0
 11
55.399887085
 21
-16.499700545
 31
0.0
  0
ARC
  5
C4
330
1D
100
AcDbEntity
  8
SK3
  6
DASH
370
    35
100
AcDbCircle
 10
55.399887085
 20
-16.099706697
 30
0.0
 40
0.399993849
100
AcDbArc
 50
179.995628279
 51
270.0
  0
LINE
  5
C5
330
1D
100
AcDbEntity
  8
SK3
  6
DASH
370
    35
100
AcDbLine
 10
54.999923706
 20
-16.099676179
 30
0.0
 11
54.999923706
 21
-13.049670075
 31
0.0
  0
LINE
  5
C6
330
1D
100
AcDbEntity
  8
SK3
  6
DASH
370
    35
100
AcDbLine
 10
54.999923706
 20
-13.049670075
 30
0.0
 11
25.499923706
 21
-13.049670075
 31
0.0
  0
LINE
  5
C7
330
1D
100
AcDbEntity
  8
SK3
  6
DASH
370
    35
100
AcDbLine
 10
25.499923706
 20
-13.049670075
 30
0.0
 11
23.560675984
 21
-4.650022888
 31
0.0
  0
LINE
  5
C8
330
1D
100
AcDbEntity
  8
SK3
  6
DASH
370
    35
100
AcDbLine
 10
23.560675984
 20
-4.650022888
 30
0.0
 11
22.0
 21
-4.650022888
 31
0.0
  0
LINE
  5
C9
330
1D
100
AcDbEntity
  8
SK3
  6
DASH
370
    35
100
AcDbLine
 10
22.0
 20
-4.650022888
 30
0.0
 11
22.0
 21
-9.250038147
 31
0.0
  0
LINE
  5
CA
330
1D
100
AcDbEntity
  8
SK3
  6
DASH
370
    35
100
AcDbLine
 10
22.0
 20
-9.250038147
 30
0.0
 11
20.5
 21
-9.250038147
 31
0.0
  0
LINE
  5
CB
330
1D
100
AcDbEntity
  8
SK3
  6
DASH
370
    35
100
AcDbLine
 10
20.5
 20
-9.250038147
 30
0.0
 11
20.5
 21
-8.000038147
 31
0.0
  0
LINE
  5
CC
330
1D
100
AcDbEntity
  8
SK3
  6
DASH
370
    35
100
AcDbLine
 10
20.5
 20
-8.000038147
 30
0.0
 11
11.25
 21
-8.000038147
 31
0.0
  0
LINE
  5
CD
330
1D
100
AcDbEntity
  8
SK3
  6
DASH
370
    35
100
AcDbLine
 10
11.25
 20
-8.000038147
 30
0.0
 11
10.0
 21
-9.250038147
 31
0.0
  0
LINE
  5
CE
330
1D
100
AcDbEntity
  8
SK3
  6
DASH
370
    35
100
AcDbLine
 10
38.999923706
 20
-13.999670075
 30
0.0
 11
54.999923706
 21
-13.999670075
 31
0.0
  0
LINE
  5
CF
330
1D
100
AcDbEntity
  8
SK3
  6
DASH
370
    35
100
AcDbLine
 10
10.25
 20
-9.000038147
 30
0.0
 11
20.5
 21
-9.000038147
 31
0.0
  0
ARC
  5
D0
330
1D
100
AcDbEntity
  8
SK3
  6
DASH
370
    35
100
AcDbCircle
 10
-16.917564392
 20
-19.400032043
 30
0.0
 40
0.600006097
100
AcDbArc
 50
209.999891394
 51
270.0
  0
LINE
  5
D1
330
1D
100
AcDbEntity
  8
4
  6
LONGDASH_DASH
370
    25
100
AcDbLine
 10
84.249911499
 20
-6.935661328
 30
0.0
 11
84.249911499
 21
7.216740454
 31
0.0
  0
CIRCLE
  5
D2
330
1D
100
AcDbEntity
  8
1
  6
Continuous
370
    50
100
AcDbCircle
 10
84.249911499
 20
-0.000022888
 30
0.0
 40
5.714972534
  0
LINE
  5
D3
330
1D
100
AcDbEntity
  8
4
  6
LONGDASH_DASH
370
    25
100
AcDbLine
 10
-6.299697876
 20
-24.000022888
 30
0.0
 11
-6.299697876
 21
23.999977112
 31
0.0
  0
LINE
  5
D4
330
1D
100
AcDbEntity
  8
6
100
AcDbLine
 10
-0.637752877
 20
-56.628492177
 30
0.0
 11
-0.637752877
 21
-58.698484237
 31
0.0
  0
ARC
  5
D5
330
1D
100
AcDbEntity
  8
6
100
AcDbCircle
 10
-3.517738687
 20
-59.778493697
 30
0.0
 40
1.08000004
100
AcDbArc
 50
90.00000763
 51
206.54360962
  0
LINE
  5
D6
330
1D
100
AcDbEntity
  8
6
100
AcDbLine
 10
-3.517738687
 20
-58.698514757
 30
0.0
 11
-0.637741437
 21
-58.698514757
 31
0.0
  0
ARC
  5
D7
330
1D
100
AcDbEntity
  8
6
100
AcDbCircle
 10
-4.687748307
 20
-59.328489117
 30
0.0
 40
2.70000005
100
AcDbArc
 50
90.00000763
 51
206.5436554
  0
ARC
  5
D8
330
1D
100
AcDbEntity
  8
6
100
AcDbCircle
 10
-3.967731827
 20
-69.228498277
 30
0.0
 40
1.08000004
100
AcDbArc
 50
270.0
 51
26.54360962
  0
LINE
  5
D9
330
1D
100
AcDbEntity
  8
6
100
AcDbLine
 10
-3.967731827
 20
-70.308500107
 30
0.0
 11
-7.387729997
 21
-70.308500107
 31
0.0
  0
LINE
  5
DA
330
1D
100
AcDbEntity
  8
6
100
AcDbLine
 10
-7.103149767
 20
-60.535062607
 30
0.0
 11
-3.001583447
 21
-68.745855147
 31
0.0
  0
ARC
  5
DB
330
1D
100
AcDbEntity
  8
6
100
AcDbCircle
 10
-2.797745097
 20
-69.678502857
 30
0.0
 40
2.70000005
100
AcDbArc
 50
270.0
 51
26.54364014
  0
LINE
  5
DC
330
1D
100
AcDbEntity
  8
6
100
AcDbLine
 10
-4.483906137
 20
-60.261121567
 30
0.0
 11
-0.382336007
 21
-68.471921737
 31
0.0
  0
LINE
  5
DD
330
1D
100
AcDbEntity
  8
6
100
AcDbLine
 10
-7.387752877
 20
-70.308500107
 30
0.0
 11
-7.387752877
 21
-72.378507427
 31
0.0
  0
LINE
  5
DE
330
1D
100
AcDbEntity
  8
6
100
AcDbLine
 10
-7.387752877
 20
-72.378507427
 30
0.0
 11
-2.797748917
 21
-72.378507427
 31
0.0
  0
LINE
  5
DF
330
1D
100
AcDbEntity
  8
6
100
AcDbLine
 10
2.062251693
 20
-72.378507427
 30
0.0
 11
2.062251693
 21
-56.628507427
 31
0.0
  0
LINE
  5
E0
330
1D
100
AcDbEntity
  8
6
100
AcDbLine
 10
10.342258103
 20
-72.378507427
 30
0.0
 11
10.342258103
 21
-56.628507427
 31
0.0
  0
LINE
  5
E1
330
1D
100
AcDbEntity
  8
6
100
AcDbLine
 10
10.342258103
 20
-72.378507427
 30
0.0
 11
13.042251243
 21
-72.378507427
 31
0.0
  0
LINE
  5
E2
330
1D
100
AcDbEntity
  8
6
100
AcDbLine
 10
13.042251243
 20
-72.378507427
 30
0.0
 11
13.042251243
 21
-65.538511097
 31
0.0
  0
ARC
  5
E3
330
1D
100
AcDbEntity
  8
6
100
AcDbCircle
 10
14.392264973
 20
-66.618497667
 30
0.0
 40
1.08000004
100
AcDbArc
 50
0.0
 51
90.00000763
  0
LINE
  5
E4
330
1D
100
AcDbEntity
  8
6
100
AcDbLine
 10
14.392264973
 20
-65.538495837
 30
0.0
 11
13.042262683
 21
-65.538495837
 31
0.0
  0
LINE
  5
E5
330
1D
100
AcDbEntity
  8
6
100
AcDbLine
 10
15.472243913
 20
-69.858503157
 30
0.0
 11
15.472243913
 21
-70.848493397
 31
0.0
  0
ARC
  5
E6
330
1D
100
AcDbEntity
  8
6
100
AcDbCircle
 10
20.602241163
 20
-70.848501027
 30
0.0
 40
2.51999998
100
AcDbArc
 50
180.0
 51
217.38319397
  0
ARC
  5
E7
330
1D
100
AcDbEntity
  8
6
100
AcDbCircle
 10
17.992232923
 20
-70.848501027
 30
0.0
 40
2.51999998
100
AcDbArc
 50
180.0
 51
217.38319397
  0
LINE
  5
E8
330
1D
100
AcDbEntity
  8
6
100
AcDbLine
 10
18.509849203
 20
-72.378507427
 30
0.0
 11
15.989848743
 21
-72.378507427
 31
0.0
  0
LINE
  5
E9
330
1D
100
AcDbEntity
  8
6
100
AcDbLine
 10
15.472243913
 20
-66.618512927
 30
0.0
 11
15.472243913
 21
-70.848501027
 31
0.0
  0
ARC
  5
EA
330
1D
100
AcDbEntity
  8
6
100
AcDbCircle
 10
15.562263143
 20
-66.798505597
 30
0.0
 40
2.51999998
100
AcDbArc
 50
358.70883179
 51
93.06652832
  0
ARC
  5
EB
330
1D
100
AcDbEntity
  8
6
100
AcDbCircle
 10
15.292251243
 20
-61.758504687
 30
0.0
 40
2.51999998
100
AcDbArc
 50
273.06652832
 51
0.0
  0
ARC
  5
EC
330
1D
100
AcDbEntity
  8
6
100
AcDbCircle
 10
15.292251243
 20
-59.148511707
 30
0.0
 40
2.51999998
100
AcDbArc
 50
0.0
 51
90.00000763
  0
LINE
  5
ED
330
1D
100
AcDbEntity
  8
6
100
AcDbLine
 10
17.812263143
 20
-59.148511707
 30
0.0
 11
17.812263143
 21
-61.758512317
 31
0.0
  0
ARC
  5
EE
330
1D
100
AcDbEntity
  8
6
100
AcDbCircle
 10
14.662253983
 20
-59.598508657
 30
0.0
 40
0.90000004
100
AcDbArc
 50
0.0
 51
90.00000763
  0
LINE
  5
EF
330
1D
100
AcDbEntity
  8
6
100
AcDbLine
 10
14.662253983
 20
-58.698514757
 30
0.0
 11
13.042251243
 21
-58.698514757
 31
0.0
  0
ARC
  5
F0
330
1D
100
AcDbEntity
  8
6
100
AcDbCircle
 10
14.662253983
 20
-62.478498277
 30
0.0
 40
0.90000004
100
AcDbArc
 50
270.0
 51
0.0
  0
LINE
  5
F1
330
1D
100
AcDbEntity
  8
6
100
AcDbLine
 10
15.562263143
 20
-59.598508657
 30
0.0
 11
15.562263143
 21
-62.478505907
 31
0.0
  0
LINE
  5
F2
330
1D
100
AcDbEntity
  8
6
100
AcDbLine
 10
13.042251243
 20
-58.698514757
 30
0.0
 11
13.042251243
 21
-63.378507427
 31
0.0
  0
LINE
  5
F3
330
1D
100
AcDbEntity
  8
6
100
AcDbLine
 10
14.662253983
 20
-63.378507427
 30
0.0
 11
13.042251243
 21
-63.378507427
 31
0.0
  0
LINE
  5
F4
330
1D
100
AcDbEntity
  8
6
100
AcDbLine
 10
18.081611283
 20
-66.855291187
 30
0.0
 11
18.082240713
 21
-70.848905377
 31
0.0
  0
LINE
  5
F5
330
1D
100
AcDbEntity
  8
6
100
AcDbLine
 10
18.509849203
 20
-72.378507427
 30
0.0
 11
18.599845533
 21
-72.378507427
 31
0.0
  0
LINE
  5
F6
330
1D
100
AcDbEntity
  8
6
100
AcDbLine
 10
-4.687748307
 20
-56.628492177
 30
0.0
 11
-0.637745257
 21
-56.628492177
 31
0.0
  0
LINE
  5
F7
330
1D
100
AcDbEntity
  8
6
100
AcDbLine
 10
15.292251243
 20
-56.628492177
 30
0.0
 11
10.342246663
 21
-56.628492177
 31
0.0
  0
LINE
  5
F8
330
1D
100
AcDbEntity
  8
6
100
AcDbLine
 10
-31.687748307
 20
-72.378507427
 30
0.0
 11
-34.477749217
 21
-72.378507427
 31
0.0
  0
LINE
  5
F9
330
1D
100
AcDbEntity
  8
6
100
AcDbLine
 10
-31.687748307
 20
-68.958509267
 30
0.0
 11
-31.687748307
 21
-72.378507427
 31
0.0
  0
LINE
  5
FA
330
1D
100
AcDbEntity
  8
6
100
AcDbLine
 10
-30.607746477
 20
-66.888501937
 30
0.0
 11
-31.687748307
 21
-68.958509267
 31
0.0
  0
LINE
  5
FB
330
1D
100
AcDbEntity
  8
6
100
AcDbLine
 10
-28.177753797
 20
-72.378507427
 30
0.0
 11
-30.607746477
 21
-66.888501937
 31
0.0
  0
LINE
  5
FC
330
1D
100
AcDbEntity
  8
6
100
AcDbLine
 10
-25.387752877
 20
-72.378507427
 30
0.0
 11
-28.177746167
 21
-72.378507427
 31
0.0
  0
LINE
  5
FD
330
1D
100
AcDbEntity
  8
6
100
AcDbLine
 10
-28.987758987
 20
-63.378507427
 30
0.0
 11
-25.387752877
 21
-72.378507427
 31
0.0
  0
LINE
  5
FE
330
1D
100
AcDbEntity
  8
6
100
AcDbLine
 10
-25.927753797
 20
-56.628507427
 30
0.0
 11
-28.987743727
 21
-63.378507427
 31
0.0
  0
LINE
  5
FF
330
1D
100
AcDbEntity
  8
6
100
AcDbLine
 10
-31.687748307
 20
-63.738515667
 30
0.0
 11
-28.717754717
 21
-56.628522687
 31
0.0
  0
LINE
  5
100
330
1D
100
AcDbEntity
  8
6
100
AcDbLine
 10
-31.687748307
 20
-56.628507427
 30
0.0
 11
-31.687748307
 21
-63.738515667
 31
0.0
  0
LINE
  5
101
330
1D
100
AcDbEntity
  8
6
100
AcDbLine
 10
-34.477749217
 20
-72.378507427
 30
0.0
 11
-34.477749217
 21
-56.628507427
 31
0.0
  0
LINE
  5
102
330
1D
100
AcDbEntity
  8
6
100
AcDbLine
 10
-28.717754717
 20
-56.628507427
 30
0.0
 11
-25.927753797
 21
-56.628507427
 31
0.0
  0
LINE
  5
103
330
1D
100
AcDbEntity
  8
6
100
AcDbLine
 10
-34.477749217
 20
-56.628507427
 30
0.0
 11
-31.687748307
 21
-56.628507427
 31
0.0
  0
LINE
  5
104
330
1D
100
AcDbEntity
  8
6
100
AcDbLine
 10
-12.427742357
 20
-56.628507427
 30
0.0
 11
-12.427742357
 21
-72.378507427
 31
0.0
  0
LINE
  5
105
330
1D
100
AcDbEntity
  8
6
100
AcDbLine
 10
-9.547745097
 20
-72.378507427
 30
0.0
 11
-9.547745097
 21
-56.628507427
 31
0.0
  0
LINE
  5
106
330
1D
100
AcDbEntity
  8
6
100
AcDbLine
 10
-12.427742357
 20
-72.378507427
 30
0.0
 11
-9.547745097
 21
-72.378507427
 31
0.0
  0
LINE
  5
107
330
1D
100
AcDbEntity
  8
6
100
AcDbLine
 10
-9.547745097
 20
-56.628507427
 30
0.0
 11
-12.427753797
 21
-56.628507427
 31
0.0
  0
LINE
  5
108
330
1D
100
AcDbEntity
  8
6
100
AcDbLine
 10
7.912253983
 20
-72.378507427
 30
0.0
 11
7.912253983
 21
-70.308500107
 31
0.0
  0
LINE
  5
109
330
1D
100
AcDbEntity
  8
6
100
AcDbLine
 10
2.062251693
 20
-72.378507427
 30
0.0
 11
7.912253983
 21
-72.378507427
 31
0.0
  0
LINE
  5
10A
330
1D
100
AcDbEntity
  8
6
100
AcDbLine
 10
7.912242543
 20
-58.698499497
 30
0.0
 11
7.912242543
 21
-56.628507427
 31
0.0
  0
LINE
  5
10B
330
1D
100
AcDbEntity
  8
6
100
AcDbLine
 10
4.942226063
 20
-58.698499497
 30
0.0
 11
7.912231093
 21
-58.698499497
 31
0.0
  0
LINE
  5
10C
330
1D
100
AcDbEntity
  8
6
100
AcDbLine
 10
4.942226063
 20
-63.378507427
 30
0.0
 11
4.942226063
 21
-58.698514757
 31
0.0
  0
LINE
  5
10D
330
1D
100
AcDbEntity
  8
6
100
AcDbLine
 10
7.912242543
 20
-63.378507427
 30
0.0
 11
4.942237503
 21
-63.378507427
 31
0.0
  0
LINE
  5
10E
330
1D
100
AcDbEntity
  8
6
100
AcDbLine
 10
7.912242543
 20
-65.538488207
 30
0.0
 11
7.912242543
 21
-63.378484547
 31
0.0
  0
LINE
  5
10F
330
1D
100
AcDbEntity
  8
6
100
AcDbLine
 10
4.942226063
 20
-65.538488207
 30
0.0
 11
7.912231093
 21
-65.538488207
 31
0.0
  0
LINE
  5
110
330
1D
100
AcDbEntity
  8
6
100
AcDbLine
 10
4.942226063
 20
-70.308500107
 30
0.0
 11
4.942226063
 21
-65.538488207
 31
0.0
  0
LINE
  5
111
330
1D
100
AcDbEntity
  8
6
100
AcDbLine
 10
7.912242543
 20
-70.308500107
 30
0.0
 11
4.942237503
 21
-70.308500107
 31
0.0
  0
LINE
  5
112
330
1D
100
AcDbEntity
  8
6
100
AcDbLine
 10
7.912242543
 20
-56.628507427
 30
0.0
 11
2.062240253
 21
-56.628507427
 31
0.0
  0
LINE
  5
113
330
1D
100
AcDbEntity
  8
6
100
AcDbLine
 10
-18.007747997
 20
-72.378507427
 30
0.0
 11
-24.307751047
 21
-72.378507427
 31
0.0
  0
LINE
  5
114
330
1D
100
AcDbEntity
  8
6
100
AcDbLine
 10
-18.457737317
 20
-69.858495527
 30
0.0
 11
-18.007747997
 21
-72.378492177
 31
0.0
  0
LINE
  5
115
330
1D
100
AcDbEntity
  8
6
100
AcDbLine
 10
-21.337757457
 20
-69.858495527
 30
0.0
 11
-18.457760207
 21
-69.858495527
 31
0.0
  0
LINE
  5
116
330
1D
100
AcDbEntity
  8
6
100
AcDbLine
 10
-19.807751047
 20
-60.498510177
 30
0.0
 11
-21.337749827
 21
-69.858518417
 31
0.0
  0
LINE
  5
117
330
1D
100
AcDbEntity
  8
6
100
AcDbLine
 10
-16.747753497
 20
-72.378507427
 30
0.0
 11
-19.807751047
 21
-60.498510177
 31
0.0
  0
LINE
  5
118
330
1D
100
AcDbEntity
  8
6
100
AcDbLine
 10
-13.777744647
 20
-72.378507427
 30
0.0
 11
-16.747738237
 21
-72.378507427
 31
0.0
  0
LINE
  5
119
330
1D
100
AcDbEntity
  8
6
100
AcDbLine
 10
-18.187748307
 20
-56.178502857
 30
0.0
 11
-13.777756087
 21
-72.378507427
 31
0.0
  0
LINE
  5
11A
330
1D
100
AcDbEntity
  8
6
100
AcDbLine
 10
-21.247753497
 20
-56.178502857
 30
0.0
 11
-18.187755937
 21
-56.178502857
 31
0.0
  0
LINE
  5
11B
330
1D
100
AcDbEntity
  8
6
100
AcDbLine
 10
-24.307751047
 20
-72.378507427
 30
0.0
 11
-21.247753497
 21
-56.178502857
 31
0.0
  0
LINE
  5
11C
330
1D
100
AcDbEntity
  8
2
  6
Continuous
370
    25
100
AcDbLine
 10
122.0
 20
-31.749992371
 30
0.0
 11
97.797851562
 21
-31.749992371
 31
0.0
  0
LINE
  5
11D
330
1D
100
AcDbEntity
  8
2
  6
Continuous
370
    25
100
AcDbLine
 10
120.0
 20
-31.749992371
 30
0.0
 11
119.549999999
 21
-28.249992371
 31
0.0
  0
LINE
  5
11E
330
1D
100
AcDbEntity
  8
2
  6
Continuous
370
    25
100
AcDbLine
 10
119.549999999
 20
-28.249992371
 30
0.0
 11
120.45
 21
-28.249992371
 31
0.0
  0
LINE
  5
11F
330
1D
100
AcDbEntity
  8
2
  6
Continuous
370
    25
100
AcDbLine
 10
120.45
 20
-28.249992371
 30
0.0
 11
120.0
 21
-31.749992371
 31
0.0
  0
LINE
  5
120
330
1D
100
AcDbEntity
  8
2
  6
Continuous
370
    25
100
AcDbLine
 10
122.0
 20
31.749946594
 30
0.0
 11
97.797851562
 21
31.749946594
 31
0.0
  0
LINE
  5
121
330
1D
100
AcDbEntity
  8
2
  6
Continuous
370
    25
100
AcDbLine
 10
120.0
 20
31.749946594
 30
0.0
 11
120.45
 21
28.249946594
 31
0.0
  0
LINE
  5
122
330
1D
100
AcDbEntity
  8
2
  6
Continuous
370
    25
100
AcDbLine
 10
120.45
 20
28.249946594
 30
0.0
 11
119.549999999
 21
28.249946594
 31
0.0
  0
LINE
  5
123
330
1D
100
AcDbEntity
  8
2
  6
Continuous
370
    25
100
AcDbLine
 10
119.549999999
 20
28.249946594
 30
0.0
 11
120.0
 21
31.749946594
 31
0.0
  0
LINE
  5
124
330
1D
100
AcDbEntity
  8
2
  6
Continuous
370
    25
100
AcDbLine
 10
120.0
 20
-28.249992371
 30
0.0
 11
120.0
 21
28.249946594
 31
0.0
  0
TEXT
  5
125
330
1D
100
AcDbEntity
  8
2
  6
Continuous
370
    25
100
AcDbText
 10
118.5
 20
-1.172523598
 30
0.0
 40
3.5
  1
63.5
 50
90.0
  7
BMG_Text
100
AcDbText
  0
CIRCLE
  5
126
330
1D
100
AcDbEntity
  8
2
  6
Continuous
370
    25
100
AcDbCircle
 10
117.25
 20
-3.422523598
 30
0.0
 40
1.25
  0
LINE
  5
127
330
1D
100
AcDbEntity
  8
2
  6
Continuous
370
    25
100
AcDbLine
 10
118.5
 20
-4.672523598
 30
0.0
 11
116.0
 21
-2.172523598
 31
0.0
  0
LINE
  5
128
330
1D
100
AcDbEntity
  8
2
  6
Continuous
370
    25
100
AcDbLine
 10
114.000000303
 20
-18.002920075
 30
0.0
 11
99.572538679
 21
-18.002920075
 31
0.0
  0
LINE
  5
129
330
1D
100
AcDbEntity
  8
2
  6
Continuous
370
    25
100
AcDbLine
 10
112.000000303
 20
-18.002920075
 30
0.0
 11
111.550000303
 21
-14.502920075
 31
0.0
  0
LINE
  5
12A
330
1D
100
AcDbEntity
  8
2
  6
Continuous
370
    25
100
AcDbLine
 10
111.550000303
 20
-14.502920075
 30
0.0
 11
112.450000303
 21
-14.502920075
 31
0.0
  0
LINE
  5
12B
330
1D
100
AcDbEntity
  8
2
  6
Continuous
370
    25
100
AcDbLine
 10
112.450000303
 20
-14.502920075
 30
0.0
 11
112.000000303
 21
-18.002920075
 31
0.0
  0
LINE
  5
12C
330
1D
100
AcDbEntity
  8
2
  6
Continuous
370
    25
100
AcDbLine
 10
114.000000303
 20
18.002874299
 30
0.0
 11
99.572538679
 21
18.002874299
 31
0.0
  0
LINE
  5
12D
330
1D
100
AcDbEntity
  8
2
  6
Continuous
370
    25
100
AcDbLine
 10
112.000000303
 20
18.002874299
 30
0.0
 11
112.450000303
 21
14.502874299
 31
0.0
  0
LINE
  5
12E
330
1D
100
AcDbEntity
  8
2
  6
Continuous
370
    25
100
AcDbLine
 10
112.450000303
 20
14.502874299
 30
0.0
 11
111.550000303
 21
14.502874299
 31
0.0
  0
LINE
  5
12F
330
1D
100
AcDbEntity
  8
2
  6
Continuous
370
    25
100
AcDbLine
 10
111.550000303
 20
14.502874299
 30
0.0
 11
112.000000303
 21
18.002874299
 31
0.0
  0
LINE
  5
130
330
1D
100
AcDbEntity
  8
2
  6
Continuous
370
    25
100
AcDbLine
 10
112.000000303
 20
-14.502920075
 30
0.0
 11
112.000000303
 21
14.502874299
 31
0.0
  0
TEXT
  5
131
330
1D
100
AcDbEntity
  8
2
  6
Continuous
370
    25
100
AcDbText
 10
110.500000303
 20
0.33138296
 30
0.0
 40
3.5
  1
36
 50
90.0
  7
BMG_Text
100
AcDbText
  0
CIRCLE
  5
132
330
1D
100
AcDbEntity
  8
2
  6
Continuous
370
    25
100
AcDbCircle
 10
109.250000303
 20
-1.91861704
 30
0.0
 40
1.25
  0
LINE
  5
133
330
1D
100
AcDbEntity
  8
2
  6
Continuous
370
    25
100
AcDbLine
 10
110.500000303
 20
-3.16861704
 30
0.0
 11
108.000000303
 21
-0.66861704
 31
0.0
  0
LINE
  5
134
330
1D
100
AcDbEntity
  8
2
  6
Continuous
370
    25
100
AcDbLine
 10
32.508093357
 20
-26.200022948
 30
0.0
 11
41.499908447
 21
-26.200022948
 31
0.0
  0
LINE
  5
135
330
1D
100
AcDbEntity
  8
2
  6
Continuous
370
    25
100
AcDbLine
 10
34.508093357
 20
-26.200022948
 30
0.0
 11
34.058093357
 21
-22.700022948
 31
0.0
  0
LINE
  5
136
330
1D
100
AcDbEntity
  8
2
  6
Continuous
370
    25
100
AcDbLine
 10
34.058093357
 20
-22.700022948
 30
0.0
 11
34.958093357
 21
-22.700022948
 31
0.0
  0
LINE
  5
137
330
1D
100
AcDbEntity
  8
2
  6
Continuous
370
    25
100
AcDbLine
 10
34.958093357
 20
-22.700022948
 30
0.0
 11
34.508093357
 21
-26.200022948
 31
0.0
  0
LINE
  5
138
330
1D
100
AcDbEntity
  8
2
  6
Continuous
370
    25
100
AcDbLine
 10
32.508093357
 20
26.199977172
 30
0.0
 11
41.499908447
 21
26.199977172
 31
0.0
  0
LINE
  5
139
330
1D
100
AcDbEntity
  8
2
  6
Continuous
370
    25
100
AcDbLine
 10
34.508093357
 20
26.199977172
 30
0.0
 11
34.958093357
 21
22.699977172
 31
0.0
  0
LINE
  5
13A
330
1D
100
AcDbEntity
  8
2
  6
Continuous
370
    25
100
AcDbLine
 10
34.958093357
 20
22.699977172
 30
0.0
 11
34.058093357
 21
22.699977172
 31
0.0
  0
LINE
  5
13B
330
1D
100
AcDbEntity
  8
2
  6
Continuous
370
    25
100
AcDbLine
 10
34.058093357
 20
22.699977172
 30
0.0
 11
34.508093357
 21
26.199977172
 31
0.0
  0
LINE
  5
13C
330
1D
100
AcDbEntity
  8
2
  6
Continuous
370
    25
100
AcDbLine
 10
34.508093357
 20
-22.700022948
 30
0.0
 11
34.508093357
 21
22.699977172
 31
0.0
  0
TEXT
  5
13D
330
1D
100
AcDbEntity
  8
2
  6
Continuous
370
    25
100
AcDbText
 10
33.008093357
 20
-1.418617224
 30
0.0
 40
3.5
  1
52.4
 50
90.0
  7
BMG_Text
100
AcDbText
  0
CIRCLE
  5
13E
330
1D
100
AcDbEntity
  8
2
  6
Continuous
370
    25
100
AcDbCircle
 10
31.758093357
 20
-3.668617224
 30
0.0
 40
1.25
  0
LINE
  5
13F
330
1D
100
AcDbEntity
  8
2
  6
Continuous
370
    25
100
AcDbLine
 10
33.008093357
 20
-4.918617224
 30
0.0
 11
30.508093357
 21
-2.418617224
 31
0.0
  0
LINE
  5
140
330
1D
100
AcDbEntity
  8
2
  6
Continuous
370
    25
100
AcDbLine
 10
0.0
 20
-46.00000019
 30
0.0
 11
0.0
 21
-31.200007629
 31
0.0
  0
LINE
  5
141
330
1D
100
AcDbEntity
  8
2
  6
Continuous
370
    25
100
AcDbLine
 10
0.0
 20
-44.00000019
 30
0.0
 11
3.499999997
 21
-43.550000169
 31
0.0
  0
LINE
  5
142
330
1D
100
AcDbEntity
  8
2
  6
Continuous
370
    25
100
AcDbLine
 10
3.499999997
 20
-43.550000169
 30
0.0
 11
3.500000003
 21
-44.450000169
 31
0.0
  0
LINE
  5
143
330
1D
100
AcDbEntity
  8
2
  6
Continuous
370
    25
100
AcDbLine
 10
3.500000003
 20
-44.450000169
 30
0.0
 11
0.0
 21
-44.00000019
 31
0.0
  0
LINE
  5
144
330
1D
100
AcDbEntity
  8
2
  6
Continuous
370
    25
100
AcDbLine
 10
31.0
 20
-46.0
 30
0.0
 11
31.0
 21
-31.500007629
 31
0.0
  0
LINE
  5
145
330
1D
100
AcDbEntity
  8
2
  6
Continuous
370
    25
100
AcDbLine
 10
31.0
 20
-44.0
 30
0.0
 11
27.500000003
 21
-44.450000021
 31
0.0
  0
LINE
  5
146
330
1D
100
AcDbEntity
  8
2
  6
Continuous
370
    25
100
AcDbLine
 10
27.500000003
 20
-44.450000021
 30
0.0
 11
27.499999997
 21
-43.550000021
 31
0.0
  0
LINE
  5
147
330
1D
100
AcDbEntity
  8
2
  6
Continuous
370
    25
100
AcDbLine
 10
27.499999997
 20
-43.550000021
 30
0.0
 11
31.0
 21
-44.0
 31
0.0
  0
LINE
  5
148
330
1D
100
AcDbEntity
  8
2
  6
Continuous
370
    25
100
AcDbLine
 10
3.5
 20
-44.000000169
 30
0.0
 11
27.5
 21
-44.000000021
 31
0.0
  0
TEXT
  5
149
330
1D
100
AcDbEntity
  8
2
  6
Continuous
370
    25
100
AcDbText
 10
14.409530894
 20
-42.500000102
 30
0.0
 40
3.5
  1
31
 50
0.000000353
  7
BMG_Text
100
AcDbText
  0
LINE
  5
14A
330
1D
100
AcDbEntity
  8
SK2
100
AcDbLine
 10
-42.0
 20
-24.000022888
 30
0.0
 11
-6.299697876
 21
-24.000022888
 31
0.0
  0
LINE
  5
14B
330
1D
100
AcDbEntity
  8
SK2
100
AcDbLine
 10
-40.0
 20
-24.000022888
 30
0.0
 11
-40.45
 21
-20.500022888
 31
0.0
  0
LINE
  5
14C
330
1D
100
AcDbEntity
  8
SK2
100
AcDbLine
 10
-40.45
 20
-20.500022888
 30
0.0
 11
-39.55
 21
-20.500022888
 31
0.0
  0
LINE
  5
14D
330
1D
100
AcDbEntity
  8
SK2
100
AcDbLine
 10
-39.55
 20
-20.500022888
 30
0.0
 11
-40.0
 21
-24.000022888
 31
0.0
  0
LINE
  5
14E
330
1D
100
AcDbEntity
  8
SK2
100
AcDbLine
 10
-42.0
 20
23.999977112
 30
0.0
 11
-6.299697876
 21
23.999977112
 31
0.0
  0
LINE
  5
14F
330
1D
100
AcDbEntity
  8
SK2
100
AcDbLine
 10
-40.0
 20
23.999977112
 30
0.0
 11
-39.55
 21
20.499977112
 31
0.0
  0
LINE
  5
150
330
1D
100
AcDbEntity
  8
SK2
100
AcDbLine
 10
-39.55
 20
20.499977112
 30
0.0
 11
-40.45
 21
20.499977112
 31
0.0
  0
LINE
  5
151
330
1D
100
AcDbEntity
  8
SK2
100
AcDbLine
 10
-40.45
 20
20.499977112
 30
0.0
 11
-40.0
 21
23.999977112
 31
0.0
  0
LINE
  5
152
330
1D
100
AcDbEntity
  8
SK2
100
AcDbLine
 10
-40.0
 20
-20.500022888
 30
0.0
 11
-40.0
 21
20.499977112
 31
0.0
  0
TEXT
  5
153
330
1D
100
AcDbEntity
  8
SK2
100
AcDbText
 10
-41.5
 20
0.085289076
 30
0.0
 40
3.5
  1
48
 50
90.0
  7
BMG_Text
100
AcDbText
  0
CIRCLE
  5
154
330
1D
100
AcDbEntity
  8
SK2
100
AcDbCircle
 10
-42.75
 20
-2.164710924
 30
0.0
 40
1.25
  0
LINE
  5
155
330
1D
100
AcDbEntity
  8
SK2
100
AcDbLine
 10
-41.5
 20
-3.414710924
 30
0.0
 11
-44.0
 21
-0.914710924
 31
0.0
  0
LINE
  5
156
330
1D
100
AcDbEntity
  8
2
  6
Continuous
370
    25
100
AcDbLine
 10
31.0
 20
-46.0
 30
0.0
 11
31.0
 21
-31.500007629
 31
0.0
  0
LINE
  5
157
330
1D
100
AcDbEntity
  8
2
  6
Continuous
370
    25
100
AcDbLine
 10
31.0
 20
-44.0
 30
0.0
 11
34.5
 21
-43.55
 31
0.0
  0
LINE
  5
158
330
1D
100
AcDbEntity
  8
2
  6
Continuous
370
    25
100
AcDbLine
 10
34.5
 20
-43.55
 30
0.0
 11
34.5
 21
-44.45
 31
0.0
  0
LINE
  5
159
330
1D
100
AcDbEntity
  8
2
  6
Continuous
370
    25
100
AcDbLine
 10
34.5
 20
-44.45
 30
0.0
 11
31.0
 21
-44.0
 31
0.0
  0
LINE
  5
15A
330
1D
100
AcDbEntity
  8
2
  6
Continuous
370
    25
100
AcDbLine
 10
34.5
 20
-44.0
 30
0.0
 11
106.899899292
 21
-44.0
 31
0.0
  0
TEXT
  5
15B
330
1D
100
AcDbEntity
  8
2
  6
Continuous
370
    25
100
AcDbText
 10
93.48632187580883
 20
-42.5
 30
0.0
 40
3.5
  1
140
  7
BMG_Text
100
AcDbText
  0
TEXT
  5
15C
330
1D
100
AcDbEntity
  8
2
  6
Continuous
370
    25
100
AcDbText
 10
53.686980048
 20
-42.5
 30
0.0
 40
3.5
  1
Ausdrehtiefe
  7
BMG_Text
100
AcDbText
  0
TEXT
  5
15D
330
1D
100
AcDbEntity
  8
SK6
  6
Continuous
370
    35
100
AcDbText
 10
71.42387532323707
 20
-29.476989783
 30
0.0
 40
3.5
  1
324.362
  7
BMG_Text
100
AcDbText
  0
LINE
  5
15E
330
1D
100
AcDbEntity
  8
1
  6
Continuous
370
    50
100
AcDbLine
 10
87.714013114
 20
-0.000022888
 30
0.0
 11
85.981962307
 21
2.999977112
 31
0.0
  0
LINE
  5
15F
330
1D
100
AcDbEntity
  8
1
  6
Continuous
370
    50
100
AcDbLine
 10
85.981962307
 20
2.999977112
 30
0.0
 11
82.517860691
 21
2.999977112
 31
0.0
  0
LINE
  5
160
330
1D
100
AcDbEntity
  8
1
  6
Continuous
370
    50
100
AcDbLine
 10
82.517860691
 20
2.999977112
 30
0.0
 11
80.785809884
 21
-0.000022888
 31
0.0
  0
LINE
  5
161
330
1D
100
AcDbEntity
  8
1
  6
Continuous
370
    50
100
AcDbLine
 10
80.785809884
 20
-0.000022888
 30
0.0
 11
82.517860691
 21
-3.000022888
 31
0.0
  0
LINE
  5
162
330
1D
100
AcDbEntity
  8
1
  6
Continuous
370
    50
100
AcDbLine
 10
82.517860691
 20
-3.000022888
 30
0.0
 11
85.981962307
 21
-3.000022888
 31
0.0
  0
LINE
  5
163
330
1D
100
AcDbEntity
  8
1
  6
Continuous
370
    50
100
AcDbLine
 10
85.981962307
 20
-3.000022888
 30
0.0
 11
87.714013114
 21
-0.000022888
 31
0.0
  0
LINE
  5
164
330
1D
100
AcDbEntity
  8
2
  6
Continuous
370
    25
100
AcDbLine
 10
0.0
 20
43.60808773
 30
0.0
 11
0.0
 21
31.199961853
 31
0.0
  0
LINE
  5
165
330
1D
100
AcDbEntity
  8
2
  6
Continuous
370
    25
100
AcDbLine
 10
0.0
 20
41.60808773
 30
0.0
 11
3.500000001
 21
42.058087724
 31
0.0
  0
LINE
  5
166
330
1D
100
AcDbEntity
  8
2
  6
Continuous
370
    25
100
AcDbLine
 10
3.500000001
 20
42.058087724
 30
0.0
 11
3.499999999
 21
41.158087724
 31
0.0
  0
LINE
  5
167
330
1D
100
AcDbEntity
  8
2
  6
Continuous
370
    25
100
AcDbLine
 10
3.499999999
 20
41.158087724
 30
0.0
 11
0.0
 21
41.60808773
 31
0.0
  0
LINE
  5
168
330
1D
100
AcDbEntity
  8
2
  6
Continuous
370
    25
100
AcDbLine
 10
99.999908447
 20
43.60808754
 30
0.0
 11
99.999908447
 21
30.999977112
 31
0.0
  0
LINE
  5
169
330
1D
100
AcDbEntity
  8
2
  6
Continuous
370
    25
100
AcDbLine
 10
99.999908447
 20
41.60808754
 30
0.0
 11
96.499908446
 21
41.158087547
 31
0.0
  0
LINE
  5
16A
330
1D
100
AcDbEntity
  8
2
  6
Continuous
370
    25
100
AcDbLine
 10
96.499908446
 20
41.158087547
 30
0.0
 11
96.499908448
 21
42.058087547
 31
0.0
  0
LINE
  5
16B
330
1D
100
AcDbEntity
  8
2
  6
Continuous
370
    25
100
AcDbLine
 10
96.499908448
 20
42.058087547
 30
0.0
 11
99.999908447
 21
41.60808754
 31
0.0
  0
LINE
  5
16C
330
1D
100
AcDbEntity
  8
2
  6
Continuous
370
    25
100
AcDbLine
 10
3.5
 20
41.608087724
 30
0.0
 11
96.499908447
 21
41.608087547
 31
0.0
  0
TEXT
  5
16D
330
1D
100
AcDbEntity
  8
2
  6
Continuous
370
    25
100
AcDbText
 10
47.596984359
 20
43.10808764
 30
0.0
 40
3.5
  1
100
 50
359.999999891
  7
BMG_Text
100
AcDbText
  0
LINE
  5
210
330
1D
100
AcDbEntity
  8
NOCUT
100
AcDbLine
 10
16.125000119
 20
28.499977112
 30
0.0
 11
16.125000119
 21
28.90335340809433
 31
0.0
  0
LINE
  5
211
330
1D
100
AcDbEntity
  8
NOCUT
100
AcDbLine
 10
16.125000119
 20
28.90335340809433
 30
0.0
 11
14.622467041
 21
31.499961853
 31
0.0
  0
LINE
  5
212
330
1D
100
AcDbEntity
  8
NOCUT
100
AcDbLine
 10
14.622467041
 20
31.499961853
 30
0.0
 11
0.3
 21
31.499961853
 31
0.0
  0
LINE
  5
213
330
1D
100
AcDbEntity
  8
NOCUT
100
AcDbLine
 10
0.3
 20
31.499961853
 30
0.0
 11
0.0
 21
31.199961853
 31
0.0
  0
LINE
  5
214
330
1D
100
AcDbEntity
  8
NOCUT
100
AcDbLine
 10
0.0
 20
31.199961853
 30
0.0
 11
0.0
 21
-0.000045776
 31
0.0
  0
LINE
  5
215
330
1D
100
AcDbEntity
  8
NOCUT
100
AcDbLine
 10
0.0
 20
-0.000045776
 30
0.0
 11
100.051081789515
 21
-0.000045776
 31
0.0
  0
LINE
  5
216
330
1D
100
AcDbEntity
  8
NOCUT
100
AcDbLine
 10
100.051081789515
 20
-0.000045776
 30
0.0
 11
99.999908447
 21
30.999977112
 31
0.0
  0
LINE
  5
217
330
1D
100
AcDbEntity
  8
NOCUT
100
AcDbLine
 10
99.999908447
 20
30.999977112
 30
0.0
 11
99.599914551
 21
31.399971008
 31
0.0
  0
LINE
  5
218
330
1D
100
AcDbEntity
  8
NOCUT
100
AcDbLine
 10
99.599914551
 20
31.399971008
 30
0.0
 11
97.999908447
 21
31.399971008
 31
0.0
  0
LINE
  5
219
330
1D
100
AcDbEntity
  8
NOCUT
100
AcDbLine
 10
97.999908447
 20
31.399971008
 30
0.0
 11
97.797851562
 21
31.749946594
 31
0.0
  0
LINE
  5
21A
330
1D
100
AcDbEntity
  8
NOCUT
100
AcDbLine
 10
97.797851562
 20
31.749946594
 30
0.0
 11
43.499969482
 21
31.749946594
 31
0.0
  0
LINE
  5
21B
330
1D
100
AcDbEntity
  8
NOCUT
100
AcDbLine
 10
43.499969482
 20
31.749946594
 30
0.0
 11
42.499969482
 21
30.749946594
 31
0.0
  0
LINE
  5
21C
330
1D
100
AcDbEntity
  8
NOCUT
100
AcDbLine
 10
42.499969482
 20
30.749946594
 30
0.0
 11
42.499969482
 21
27.14364587253898
 31
0.0
  0
LINE
  5
21D
330
1D
100
AcDbEntity
  8
NOCUT
100
AcDbLine
 10
41.499908447
 20
26.199977172
 30
0.0
 11
26.93381439440305
 21
26.199977172
 31
0.0
  0
LINE
  5
223
330
1D
100
AcDbEntity
  8
NOCUT
100
AcDbLine
 10
25.949938965
 20
27.199977112
 30
0.0
 11
25.949938965
 21
31.19048283194455
 31
0.0
  0
LINE
  5
224
330
1D
100
AcDbEntity
  8
NOCUT
100
AcDbLine
 10
25.949938965
 20
31.19048283194455
 30
0.0
 11
25.649984741
 21
31.499961853
 31
0.0
  0
LINE
  5
225
330
1D
100
AcDbEntity
  8
NOCUT
100
AcDbLine
 10
25.649984741
 20
31.499961853
 30
0.0
 11
21.377487183
 21
31.499961853
 31
0.0
  0
LINE
  5
226
330
1D
100
AcDbEntity
  8
NOCUT
100
AcDbLine
 10
21.377487183
 20
31.499961853
 30
0.0
 11
19.874984741
 21
28.897544861
 31
0.0
  0
LINE
  5
227
330
1D
100
AcDbEntity
  8
NOCUT
100
AcDbLine
 10
19.874984741
 20
28.897544861
 30
0.0
 11
19.874984741
 21
28.41462621585759
 31
0.0
  0
LINE
  5
228
330
1D
100
AcDbEntity
  8
NOCUT
100
AcDbLine
 10
18.874984741
 20
27.499961853
 30
0.0
 11
17.07696334366597
 21
27.499961853
 31
0.0
  0
ARC
  5
229
330
1D
100
AcDbEntity
  8
NOCUT
100
AcDbCircle
 10
17.125
 20
28.499977112
 30
0.0
 40
0.9999998810000026
100
AcDbArc
 50
180.0000000000002
 51
270.0
  0
ARC
  5
22A
330
1D
100
AcDbEntity
  8
NOCUT
100
AcDbCircle
 10
18.87497395105889
 20
28.49998790194111
 30
0.0
 40
1.000026048999321
100
AcDbArc
 50
270.0006182019831
 51
359.9993817980167
  0
ARC
  5
22B
330
1D
100
AcDbEntity
  8
NOCUT
100
AcDbCircle
 10
26.95016772734071
 20
27.20007315323063
 30
0.0
 40
1.000229675210553
100
AcDbArc
 50
180.5536000653734
 51
269.0631964535479
  0
ARC
  5
22C
330
1D
100
AcDbEntity
  8
NOCUT
100
AcDbCircle
 10
41.49990834457358
 20
27.19997715442641
 30
0.0
 40
1.000000042426419
100
AcDbArc
 50
270.0000058686013
 51
359.9999975691456
  0
LWPOLYLINE
  5
24B
330
1D
100
AcDbEntity
  8
INFTOTAL
100
AcDbPolyline
 90
        4
 70
     1
 43
0.0
 10
-111.8611774999336
 20
77.30679837483376
 10
-111.8611774999336
 20
-89.51627871666795
 10
153.4338548191905
 20
-89.51627871666795
 10
153.4338548191905
 20
77.30679837483376
  0
ENDSEC
  0
SECTION
  2
OBJECTS
  0
DICTIONARY
  5
C
330
0
100
AcDbDictionary
281
     1
  3
ACAD_DETAILVIEWSTYLE
350
221
  3
ACAD_GROUP
350
D
  3
ACAD_LAYOUT
350
1A
  3
ACAD_MATERIAL
350
1AB
  3
ACAD_MLEADERSTYLE
350
1B8
  3
ACAD_MLINESTYLE
350
17
  3
ACAD_PLOTSETTINGS
350
19
  3
ACAD_PLOTSTYLENAME
350
E
  3
ACAD_SCALELIST
350
174
  3
ACAD_SECTIONVIEWSTYLE
350
222
  3
ACAD_TABLESTYLE
350
201
  3
ACAD_VISUALSTYLE
350
19A
  3
ACDB_RECOMPOSE_DATA
350
25B
  3
AcDbVariableDictionary
350
1B6
  3
APPDATA
350
204
  0
DICTIONARY
  5
205
330
2
100
AcDbDictionary
280
     1
281
     1
  3
ACAD_LAYERSTATES
360
206
  0
DICTIONARY
  5
221
102
{ACAD_REACTORS
330
C
102
}
330
C
100
AcDbDictionary
281
     1
  0
DICTIONARY
  5
D
102
{ACAD_REACTORS
330
C
102
}
330
C
100
AcDbDictionary
281
     1
  0
DICTIONARY
  5
1A
102
{ACAD_REACTORS
330
C
102
}
330
C
100
AcDbDictionary
281
     1
  3
Layout1
350
1C
  3
Model
350
1E
  0
DICTIONARY
  5
1AB
102
{ACAD_REACTORS
330
C
102
}
330
C
100
AcDbDictionary
281
     1
  3
ByBlock
350
1AD
  3
ByLayer
350
1AC
  3
Global
350
1AE
  0
DICTIONARY
  5
1B8
102
{ACAD_REACTORS
330
C
102
}
330
C
100
AcDbDictionary
281
     1
  3
Standard
350
203
  0
DICTIONARY
  5
17
102
{ACAD_REACTORS
330
C
102
}
330
C
100
AcDbDictionary
281
     1
  3
Standard
350
18
  0
DICTIONARY
  5
19
102
{ACAD_REACTORS
330
C
102
}
330
C
100
AcDbDictionary
281
     1
  0
ACDBDICTIONARYWDFLT
  5
E
102
{ACAD_REACTORS
330
C
102
}
330
C
100
AcDbDictionary
281
     1
  3
Normal
350
F
100
AcDbDictionaryWithDefault
340
F
  0
DICTIONARY
  5
174
102
{ACAD_REACTORS
330
C
102
}
330
C
100
AcDbDictionary
281
     1
  3
A0
350
175
  3
A1
350
176
  3
A2
350
177
  3
A3
350
178
  3
A4
350
179
  3
A5
350
17A
  3
A6
350
17B
  3
A7
350
17C
  3
A8
350
17D
  3
A9
350
17E
  3
B0
350
17F
  3
B1
350
180
  3
B2
350
181
  3
B3
350
182
  3
B4
350
183
  3
B5
350
184
  3
B6
350
185
  3
B7
350
186
  3
B8
350
187
  3
B9
350
188
  3
C0
350
189
  3
C1
350
18A
  3
C2
350
18B
  3
C3
350
18C
  3
C4
350
18D
  3
C5
350
18E
  3
C6
350
18F
  3
C7
350
190
  3
C8
350
191
  3
C9
350
192
  3
D0
350
193
  3
D1
350
194
  3
D2
350
195
  0
DICTIONARY
  5
222
102
{ACAD_REACTORS
330
C
102
}
330
C
100
AcDbDictionary
281
     1
  0
DICTIONARY
  5
201
102
{ACAD_REACTORS
330
C
102
}
330
C
100
AcDbDictionary
281
     1
  3
Standard
350
202
  0
DICTIONARY
  5
19A
102
{ACAD_REACTORS
330
C
102
}
330
C
100
AcDbDictionary
281
     1
  3
2dWireframe
350
19F
  3
3D Hidden
350
1A1
  3
3dWireframe
350
1A0
  3
Basic
350
1A2
  3
Brighten
350
1A6
  3
ColorChange
350
1AA
  3
Conceptual
350
1A4
  3
Dim
350
1A5
  3
EdgeColorOff
350
1FB
  3
Facepattern
350
1A9
  3
Flat
350
19B
  3
FlatWithEdges
350
19C
  3
Gouraud
350
19D
  3
GouraudWithEdges
350
19E
  3
Hidden
350
1F8
  3
JitterOff
350
1F9
  3
Linepattern
350
1A8
  3
OverhangOff
350
1FA
  3
Realistic
350
1A3
  3
Shaded
350
200
  3
Shaded with edges
350
1FF
  3
Shades of Gray
350
1FC
  3
Sketchy
350
1FD
  3
Thicken
350
1A7
  3
Wireframe
350
1F7
  3
X-Ray
350
1FE
  0
XRECORD
  5
25B
102
{ACAD_REACTORS
330
C
102
}
330
C
100
AcDbXrecord
280
     1
 90
        1
330
202
  0
DICTIONARY
  5
1B6
102
{ACAD_REACTORS
330
C
102
}
330
C
100
AcDbDictionary
281
     1
  3
CANNOSCALE
350
21E
  3
CMLEADERSTYLE
350
220
  3
CTABLESTYLE
350
21F
  3
DIMASSOC
350
1BA
  3
HIDETEXT
350
1BB
  3
MSLTSCALE
350
1B9
  0
DICTIONARY
  5
204
102
{ACAD_REACTORS
330
C
102
}
330
C
100
AcDbDictionary
281
     1
  0
DICTIONARY
  5
206
102
{ACAD_REACTORS
330
205
102
}
330
205
100
AcDbDictionary
281
     1
  0
LAYOUT
  5
1C
102
{ACAD_REACTORS
330
1A
102
}
330
1A
100
AcDbPlotSettings
  1

  2
none_device
  4

  6

 40
0.0
 41
0.0
 42
0.0
 43
0.0
 44
0.0
 45
0.0
 46
0.0
 47
0.0
 48
0.0
 49
0.0
140
0.0
141
0.0
142
1.0
143
1.0
 70
   688
 72
     0
 73
     0
 74
     5
  7

 75
    16
 76
     0
 77
     2
 78
   300
147
1.0
148
0.0
149
0.0
100
AcDbLayout
  1
Layout1
 70
     1
 71
     1
 10
0.0
 20
0.0
 11
12.0
 21
9.0
 12
0.0
 22
0.0
 32
0.0
 14
1.000000000000000E+20
 24
1.000000000000000E+20
 34
1.000000000000000E+20
 15
-1.000000000000000E+20
 25
-1.000000000000000E+20
 35
-1.000000000000000E+20
146
0.0
 13
0.0
 23
0.0
 33
0.0
 16
1.0
 26
0.0
 36
0.0
 17
0.0
 27
1.0
 37
0.0
 76
     0
330
1B
  0
LAYOUT
  5
1E
102
{ACAD_REACTORS
330
1A
102
}
330
1A
100
AcDbPlotSettings
  1

  2
none_device
  4

  6

 40
0.0
 41
0.0
 42
0.0
 43
0.0
 44
0.0
 45
0.0
 46
0.0
 47
0.0
 48
0.0
 49
0.0
140
0.0
141
0.0
142
1.0
143
1.0
 70
  1712
 72
     0
 73
     0
 74
     0
  7

 75
     0
 76
     0
 77
     2
 78
   300
147
1.0
148
0.0
149
0.0
100
AcDbLayout
  1
Model
 70
     1
 71
     0
 10
0.0
 20
0.0
 11
12.0
 21
9.0
 12
0.0
 22
0.0
 32
0.0
 14
-111.8611774999336
 24
-89.51627871666795
 34
0.0
 15
153.4338548191905
 25
77.30679837483376
 35
0.0
146
0.0
 13
0.0
 23
0.0
 33
0.0
 16
1.0
 26
0.0
 36
0.0
 17
0.0
 27
1.0
 37
0.0
 76
     0
330
1D
331
16E
  0
MATERIAL
  5
1AD
102
{ACAD_REACTORS
330
1AB
102
}
330
1AB
100
AcDbMaterial
  1
ByBlock
 72
     1
 94
      127
  0
MATERIAL
  5
1AC
102
{ACAD_REACTORS
330
1AB
102
}
330
1AB
100
AcDbMaterial
  1
ByLayer
 72
     1
 94
      127
  0
MATERIAL
  5
1AE
102
{ACAD_REACTORS
330
1AB
102
}
330
1AB
100
AcDbMaterial
  1
Global
 72
     1
 94
      127
  0
MLEADERSTYLE
  5
203
102
{ACAD_REACTORS
330
1B8
102
}
330
1B8
100
AcDbMLeaderStyle
179
     2
170
     2
171
     1
172
     0
 90
        2
 40
0.0
 41
0.0
173
     1
 91
-1056964608
340
14
 92
       -2
290
     1
 42
0.09
291
     1
 43
0.36
  3
Standard
341
0
 44
0.18
300

342
11
174
     1
178
     1
175
     1
176
     0
 93
-1056964608
 45
0.18
292
     0
297
     0
 46
0.18
343
0
 94
-1056964608
 47
1.0
 49
1.0
140
1.0
293
     1
141
0.0
294
     1
177
     0
142
1.0
295
     0
296
     0
143
0.125
271
     0
272
     9
273
     9
298
     0
  0
MLINESTYLE
  5
18
102
{ACAD_REACTORS
330
17
102
}
330
17
100
AcDbMlineStyle
  2
Standard
 70
     0
  3

 62
   256
 51
90.0
 52
90.0
 71
     2
 49
0.5
 62
   256
  6
BYLAYER
 49
-0.5
 62
   256
  6
BYLAYER
  0
ACDBPLACEHOLDER
  5
F
102
{ACAD_REACTORS
330
E
102
}
330
E
  0
SCALE
  5
175
102
{ACAD_REACTORS
330
174
102
}
330
174
100
AcDbScale
 70
     0
300
1:1
140
1.0
141
1.0
290
     1
  0
SCALE
  5
176
102
{ACAD_REACTORS
330
174
102
}
330
174
100
AcDbScale
 70
     0
300
1:2
140
1.0
141
2.0
290
     0
  0
SCALE
  5
177
102
{ACAD_REACTORS
330
174
102
}
330
174
100
AcDbScale
 70
     0
300
1:4
140
1.0
141
4.0
290
     0
  0
SCALE
  5
178
102
{ACAD_REACTORS
330
174
102
}
330
174
100
AcDbScale
 70
     0
300
1:5
140
1.0
141
5.0
290
     0
  0
SCALE
  5
179
102
{ACAD_REACTORS
330
174
102
}
330
174
100
AcDbScale
 70
     0
300
1:8
140
1.0
141
8.0
290
     0
  0
SCALE
  5
17A
102
{ACAD_REACTORS
330
174
102
}
330
174
100
AcDbScale
 70
     0
300
1:10
140
1.0
141
10.0
290
     0
  0
SCALE
  5
17B
102
{ACAD_REACTORS
330
174
102
}
330
174
100
AcDbScale
 70
     0
300
1:16
140
1.0
141
16.0
290
     0
  0
SCALE
  5
17C
102
{ACAD_REACTORS
330
174
102
}
330
174
100
AcDbScale
 70
     0
300
1:20
140
1.0
141
20.0
290
     0
  0
SCALE
  5
17D
102
{ACAD_REACTORS
330
174
102
}
330
174
100
AcDbScale
 70
     0
300
1:30
140
1.0
141
30.0
290
     0
  0
SCALE
  5
17E
102
{ACAD_REACTORS
330
174
102
}
330
174
100
AcDbScale
 70
     0
300
1:40
140
1.0
141
40.0
290
     0
  0
SCALE
  5
17F
102
{ACAD_REACTORS
330
174
102
}
330
174
100
AcDbScale
 70
     0
300
1:50
140
1.0
141
50.0
290
     0
  0
SCALE
  5
180
102
{ACAD_REACTORS
330
174
102
}
330
174
100
AcDbScale
 70
     0
300
1:100
140
1.0
141
100.0
290
     0
  0
SCALE
  5
181
102
{ACAD_REACTORS
330
174
102
}
330
174
100
AcDbScale
 70
     0
300
2:1
140
2.0
141
1.0
290
     0
  0
SCALE
  5
182
102
{ACAD_REACTORS
330
174
102
}
330
174
100
AcDbScale
 70
     0
300
4:1
140
4.0
141
1.0
290
     0
  0
SCALE
  5
183
102
{ACAD_REACTORS
330
174
102
}
330
174
100
AcDbScale
 70
     0
300
8:1
140
8.0
141
1.0
290
     0
  0
SCALE
  5
184
102
{ACAD_REACTORS
330
174
102
}
330
174
100
AcDbScale
 70
     0
300
10:1
140
10.0
141
1.0
290
     0
  0
SCALE
  5
185
102
{ACAD_REACTORS
330
174
102
}
330
174
100
AcDbScale
 70
     0
300
100:1
140
100.0
141
1.0
290
     0
  0
SCALE
  5
186
102
{ACAD_REACTORS
330
174
102
}
330
174
100
AcDbScale
 70
     0
300
1/128" = 1'-0"
140
0.0078125
141
12.0
290
     0
  0
SCALE
  5
187
102
{ACAD_REACTORS
330
174
102
}
330
174
100
AcDbScale
 70
     0
300
1/64" = 1'-0"
140
0.015625
141
12.0
290
     0
  0
SCALE
  5
188
102
{ACAD_REACTORS
330
174
102
}
330
174
100
AcDbScale
 70
     0
300
1/32" = 1'-0"
140
0.03125
141
12.0
290
     0
  0
SCALE
  5
189
102
{ACAD_REACTORS
330
174
102
}
330
174
100
AcDbScale
 70
     0
300
1/16" = 1'-0"
140
0.0625
141
12.0
290
     0
  0
SCALE
  5
18A
102
{ACAD_REACTORS
330
174
102
}
330
174
100
AcDbScale
 70
     0
300
3/32" = 1'-0"
140
0.09375
141
12.0
290
     0
  0
SCALE
  5
18B
102
{ACAD_REACTORS
330
174
102
}
330
174
100
AcDbScale
 70
     0
300
1/8" = 1'-0"
140
0.125
141
12.0
290
     0
  0
SCALE
  5
18C
102
{ACAD_REACTORS
330
174
102
}
330
174
100
AcDbScale
 70
     0
300
3/16" = 1'-0"
140
0.1875
141
12.0
290
     0
  0
SCALE
  5
18D
102
{ACAD_REACTORS
330
174
102
}
330
174
100
AcDbScale
 70
     0
300
1/4" = 1'-0"
140
0.25
141
12.0
290
     0
  0
SCALE
  5
18E
102
{ACAD_REACTORS
330
174
102
}
330
174
100
AcDbScale
 70
     0
300
3/8" = 1'-0"
140
0.375
141
12.0
290
     0
  0
SCALE
  5
18F
102
{ACAD_REACTORS
330
174
102
}
330
174
100
AcDbScale
 70
     0
300
1/2" = 1'-0"
140
0.5
141
12.0
290
     0
  0
SCALE
  5
190
102
{ACAD_REACTORS
330
174
102
}
330
174
100
AcDbScale
 70
     0
300
3/4" = 1'-0"
140
0.75
141
12.0
290
     0
  0
SCALE
  5
191
102
{ACAD_REACTORS
330
174
102
}
330
174
100
AcDbScale
 70
     0
300
1" = 1'-0"
140
1.0
141
12.0
290
     0
  0
SCALE
  5
192
102
{ACAD_REACTORS
330
174
102
}
330
174
100
AcDbScale
 70
     0
300
1-1/2" = 1'-0"
140
1.5
141
12.0
290
     0
  0
SCALE
  5
193
102
{ACAD_REACTORS
330
174
102
}
330
174
100
AcDbScale
 70
     0
300
3" = 1'-0"
140
3.0
141
12.0
290
     0
  0
SCALE
  5
194
102
{ACAD_REACTORS
330
174
102
}
330
174
100
AcDbScale
 70
     0
300
6" = 1'-0"
140
6.0
141
12.0
290
     0
  0
SCALE
  5
195
102
{ACAD_REACTORS
330
174
102
}
330
174
100
AcDbScale
 70
     0
300
1'-0" = 1'-0"
140
12.0
141
12.0
290
     0
  0
TABLESTYLE
  5
202
102
{ACAD_REACTORS
330
201
102
}
102
{ACAD_XDICTIONARY
360
259
102
}
330
201
100
AcDbTableStyle
  3
Standard
 70
     0
 71
     0
 40
0.06
 41
0.06
280
     0
281
     0
  7
Standard
140
0.18
170
     2
 62
     0
 63
   257
283
     0
 90
        4
 91
        0
  1

274
    -2
284
     1
 64
     0
275
    -2
285
     1
 65
     0
276
    -2
286
     1
 66
     0
277
    -2
287
     1
 67
     0
278
    -2
288
     1
 68
     0
279
    -2
289
     1
 69
     0
  7
Standard
140
0.25
170
     5
 62
     0
 63
   257
283
     0
 90
        4
 91
        0
  1

274
    -2
284
     1
 64
     0
275
    -2
285
     1
 65
     0
276
    -2
286
     1
 66
     0
277
    -2
287
     1
 67
     0
278
    -2
288
     1
 68
     0
279
    -2
289
     1
 69
     0
  7
Standard
140
0.18
170
     5
 62
     0
 63
   257
283
     0
 90
        4
 91
        0
  1

274
    -2
284
     1
 64
     0
275
    -2
285
     1
 65
     0
276
    -2
286
     1
 66
     0
277
    -2
287
     1
 67
     0
278
    -2
288
     1
 68
     0
279
    -2
289
     1
 69
     0
  0
VISUALSTYLE
  5
19F
102
{ACAD_REACTORS
330
19A
102
}
330
19A
100
AcDbVisualStyle
  2
2dWireframe
 70
     4
177
     3
291
     0
 70
    58
 90
        0
176
     1
 90
        2
176
     1
 90
        0
176
     1
 90
        0
176
     1
 40
-0.6
176
     1
 40
-30.0
176
     1
 62
     7
176
     1
 90
        1
176
     1
 90
        4
176
     1
 62
     7
176
     1
 62
   257
176
     1
 90
        1
176
     1
 90
        1
176
     1
 40
1.0
176
     1
 90
        0
176
     1
 62
   257
176
     1
 40
1.0
176
     1
 90
        1
176
     1
 90
        6
176
     1
 90
        2
176
     1
 62
     7
176
     1
 90
        5
176
     1
 90
        0
176
     1
 90
        0
176
     1
290
     0
176
     1
 90
        1
176
     1
 40
0.0
176
     1
 90
        0
176
     1
290
     1
176
     1
290
     1
176
     1
290
     0
176
     1
290
     0
176
     1
290
     0
176
     1
290
     0
176
     1
290
     0
176
     1
290
     0
176
     1
290
     0
176
     1
 90
       50
176
     1
 40
0.0
176
     1
 40
1.0
176
     1
 90
        0
176
     1
 62
    18
420
        0
176
     1
 90
       50
176
     1
 90
        3
176
     1
 62
     5
420
      255
176
     1
290
     0
176
     1
 90
       50
176
     1
 90
       50
176
     1
 90
       50
176
     1
290
     0
176
     1
 90
       50
176
     1
 62
   256
176
     0
 40
1.0
176
     0
 90
        2
176
     1
  1
strokes_ogs.tif
176
     1
290
     0
176
     1
 40
1.0
176
     1
 40
1.0
176
     1
  0
VISUALSTYLE
  5
1A1
102
{ACAD_REACTORS
330
19A
102
}
330
19A
100
AcDbVisualStyle
  2
3D Hidden
 70
     6
177
     3
291
     0
 70
    58
 90
        1
176
     1
 90
        2
176
     1
 90
        2
176
     1
 90
        0
176
     1
 40
-0.6
176
     1
 40
-30.0
176
     1
 62
     7
176
     1
 90
        2
176
     1
 90
        2
176
     1
 62
     7
176
     1
 62
   257
176
     1
 90
        2
176
     1
 90
        1
176
     1
 40
40.0
176
     1
 90
        0
176
     1
 62
   257
176
     1
 40
1.0
176
     1
 90
        1
176
     1
 90
        6
176
     1
 90
        2
176
     1
 62
     7
176
     1
 90
        3
176
     1
 90
        0
176
     1
 90
        0
176
     1
290
     0
176
     1
 90
        1
176
     1
 40
0.0
176
     1
 90
        0
176
     1
290
     0
176
     1
290
     1
176
     1
290
     1
176
     1
290
     0
176
     1
290
     0
176
     1
290
     0
176
     1
290
     0
176
     1
290
     0
176
     1
290
     0
176
     1
 90
       50
176
     1
 40
0.0
176
     1
 40
1.0
176
     1
 90
        0
176
     1
 62
    18
420
        0
176
     1
 90
       50
176
     1
 90
        3
176
     1
 62
     5
420
      255
176
     1
290
     0
176
     1
 90
       50
176
     1
 90
       50
176
     1
 90
       50
176
     1
290
     0
176
     1
 90
       50
176
     1
 62
   256
176
     0
 40
1.0
176
     0
 90
        2
176
     1
  1
strokes_ogs.tif
176
     1
290
     0
176
     1
 40
1.0
176
     1
 40
1.0
176
     1
  0
VISUALSTYLE
  5
1A0
102
{ACAD_REACTORS
330
19A
102
}
330
19A
100
AcDbVisualStyle
  2
3dWireframe
 70
     5
177
     3
291
     0
 70
    58
 90
        0
176
     1
 90
        2
176
     1
 90
        0
176
     1
 90
        0
176
     1
 40
-0.6
176
     1
 40
-30.0
176
     1
 62
     7
176
     1
 90
        1
176
     1
 90
        4
176
     1
 62
     7
176
     1
 62
   257
176
     1
 90
        1
176
     1
 90
        1
176
     1
 40
1.0
176
     1
 90
        0
176
     1
 62
   257
176
     1
 40
1.0
176
     1
 90
        1
176
     1
 90
        6
176
     1
 90
        2
176
     1
 62
     7
176
     1
 90
        5
176
     1
 90
        0
176
     1
 90
        0
176
     1
290
     0
176
     1
 90
        1
176
     1
 40
0.0
176
     1
 90
        0
176
     1
290
     0
176
     1
290
     1
176
     1
290
     1
176
     1
290
     0
176
     1
290
     0
176
     1
290
     0
176
     1
290
     0
176
     1
290
     0
176
     1
290
     0
176
     1
 90
       50
176
     1
 40
0.0
176
     1
 40
1.0
176
     1
 90
        0
176
     1
 62
    18
420
        0
176
     1
 90
       50
176
     1
 90
        3
176
     1
 62
     5
420
      255
176
     1
290
     0
176
     1
 90
       50
176
     1
 90
       50
176
     1
 90
       50
176
     1
290
     0
176
     1
 90
       50
176
     1
 62
   256
176
     0
 40
1.0
176
     0
 90
        2
176
     1
  1
strokes_ogs.tif
176
     1
290
     0
176
     1
 40
1.0
176
     1
 40
1.0
176
     1
  0
VISUALSTYLE
  5
1A2
102
{ACAD_REACTORS
330
19A
102
}
330
19A
100
AcDbVisualStyle
  2
Basic
 70
     7
177
     3
291
     1
 70
    58
 90
        1
176
     1
 90
        0
176
     1
 90
        1
176
     1
 90
        0
176
     1
 40
-0.6
176
     1
 40
-30.0
176
     1
 62
     7
176
     1
 90
        0
176
     1
 90
        4
176
     1
 62
     7
176
     1
 62
   257
176
     1
 90
        1
176
     1
 90
        1
176
     1
 40
1.0
176
     1
 90
        8
176
     1
 62
     7
176
     1
 40
1.0
176
     1
 90
        1
176
     1
 90
        6
176
     1
 90
        2
176
     1
 62
     7
176
     1
 90
        5
176
     1
 90
        0
176
     1
 90
        0
176
     1
290
     0
176
     1
 90
        1
176
     1
 40
0.0
176
     1
 90
        0
176
     1
290
     0
176
     1
290
     1
176
     1
290
     1
176
     1
290
     0
176
     1
290
     0
176
     1
290
     0
176
     1
290
     0
176
     1
290
     0
176
     1
290
     0
176
     1
 90
       50
176
     1
 40
0.0
176
     1
 40
1.0
176
     1
 90
        0
176
     1
 62
    18
420
        0
176
     1
 90
       50
176
     1
 90
        3
176
     1
 62
     5
420
      255
176
     1
290
     0
176
     1
 90
       50
176
     1
 90
       50
176
     1
 90
       50
176
     1
290
     0
176
     1
 90
       50
176
     1
 62
   256
176
     0
 40
1.0
176
     0
 90
        2
176
     1
  1
strokes_ogs.tif
176
     1
290
     0
176
     1
 40
1.0
176
     1
 40
1.0
176
     1
  0
VISUALSTYLE
  5
1A6
102
{ACAD_REACTORS
330
19A
102
}
330
19A
100
AcDbVisualStyle
  2
Brighten
 70
    12
177
     3
291
     1
 70
    58
 90
        2
176
     1
 90
        2
176
     1
 90
        0
176
     1
 90
        0
176
     1
 40
-0.6
176
     1
 40
-30.0
176
     1
 62
     7
176
     1
 90
        1
176
     1
 90
        4
176
     1
 62
     7
176
     1
 62
   257
176
     1
 90
        1
176
     1
 90
        1
176
     1
 40
1.0
176
     1
 90
        8
176
     1
 62
     7
176
     1
 40
1.0
176
     1
 90
        1
176
     1
 90
        6
176
     1
 90
        2
176
     1
 62
     7
176
     1
 90
        5
176
     1
 90
        0
176
     1
 90
        0
176
     1
290
     0
176
     1
 90
        1
176
     1
 40
50.0
176
     1
 90
        0
176
     1
290
     0
176
     1
290
     1
176
     1
290
     1
176
     1
290
     0
176
     1
290
     0
176
     1
290
     0
176
     1
290
     0
176
     1
290
     0
176
     1
290
     0
176
     1
 90
       50
176
     1
 40
0.0
176
     1
 40
1.0
176
     1
 90
        0
176
     1
 62
    18
420
        0
176
     1
 90
       50
176
     1
 90
        3
176
     1
 62
     5
420
      255
176
     1
290
     0
176
     1
 90
       50
176
     1
 90
       50
176
     1
 90
       50
176
     1
290
     0
176
     1
 90
       50
176
     1
 62
   256
176
     0
 40
1.0
176
     0
 90
        2
176
     1
  1
strokes_ogs.tif
176
     1
290
     0
176
     1
 40
1.0
176
     1
 40
1.0
176
     1
  0
VISUALSTYLE
  5
1AA
102
{ACAD_REACTORS
330
19A
102
}
330
19A
100
AcDbVisualStyle
  2
ColorChange
 70
    16
177
     3
291
     1
 70
    58
 90
        2
176
     1
 90
        2
176
     1
 90
        3
176
     1
 90
        0
176
     1
 40
-0.6
176
     1
 40
-30.0
176
     1
 62
     8
176
     1
 90
        1
176
     1
 90
        4
176
     1
 62
     7
176
     1
 62
   257
176
     1
 90
        1
176
     1
 90
        1
176
     1
 40
1.0
176
     1
 90
        8
176
     1
 62
     8
176
     1
 40
1.0
176
     1
 90
        1
176
     1
 90
        6
176
     1
 90
        2
176
     1
 62
     7
176
     1
 90
        5
176
     1
 90
        0
176
     1
 90
        0
176
     1
290
     0
176
     1
 90
        1
176
     1
 40
0.0
176
     1
 90
        0
176
     1
290
     0
176
     1
290
     1
176
     1
290
     1
176
     1
290
     0
176
     1
290
     0
176
     1
290
     0
176
     1
290
     0
176
     1
290
     0
176
     1
290
     0
176
     1
 90
       50
176
     1
 40
0.0
176
     1
 40
1.0
176
     1
 90
        0
176
     1
 62
    18
420
        0
176
     1
 90
       50
176
     1
 90
        3
176
     1
 62
     5
420
      255
176
     1
290
     0
176
     1
 90
       50
176
     1
 90
       50
176
     1
 90
       50
176
     1
290
     0
176
     1
 90
       50
176
     1
 62
   256
176
     0
 40
1.0
176
     0
 90
        2
176
     1
  1
strokes_ogs.tif
176
     1
290
     0
176
     1
 40
1.0
176
     1
 40
1.0
176
     1
  0
VISUALSTYLE
  5
1A4
102
{ACAD_REACTORS
330
19A
102
}
330
19A
100
AcDbVisualStyle
  2
Conceptual
 70
     9
177
     3
291
     0
 70
    58
 90
        3
176
     1
 90
        2
176
     1
 90
        0
176
     1
 90
        0
176
     1
 40
-0.6
176
     1
 40
-30.0
176
     1
 62
     7
176
     1
 90
        2
176
     1
 90
        2
176
     1
 62
     7
176
     1
 62
   257
176
     1
 90
        1
176
     1
 90
        1
176
     1
 40
40.0
176
     1
 90
        8
176
     1
 62
     7
176
     1
 40
1.0
176
     1
 90
        1
176
     1
 90
        6
176
     1
 90
        2
176
     1
 62
     7
176
     1
 90
        3
176
     1
 90
        0
176
     1
 90
        0
176
     1
290
     0
176
     1
 90
        1
176
     1
 40
0.0
176
     1
 90
        0
176
     1
290
     0
176
     1
290
     1
176
     1
290
     1
176
     1
290
     0
176
     1
290
     0
176
     1
290
     0
176
     1
290
     0
176
     1
290
     0
176
     1
290
     0
176
     1
 90
       50
176
     1
 40
0.0
176
     1
 40
1.0
176
     1
 90
        0
176
     1
 62
    18
420
        0
176
     1
 90
       50
176
     1
 90
        3
176
     1
 62
     5
420
      255
176
     1
290
     0
176
     1
 90
       50
176
     1
 90
       50
176
     1
 90
       50
176
     1
290
     0
176
     1
 90
       50
176
     1
 62
   256
176
     0
 40
1.0
176
     0
 90
        2
176
     1
  1
strokes_ogs.tif
176
     1
290
     0
176
     1
 40
1.0
176
     1
 40
1.0
176
     1
  0
VISUALSTYLE
  5
1A5
102
{ACAD_REACTORS
330
19A
102
}
330
19A
100
AcDbVisualStyle
  2
Dim
 70
    11
177
     3
291
     1
 70
    58
 90
        2
176
     1
 90
        2
176
     1
 90
        0
176
     1
 90
        0
176
     1
 40
-0.6
176
     1
 40
-30.0
176
     1
 62
     7
176
     1
 90
        1
176
     1
 90
        4
176
     1
 62
     7
176
     1
 62
   257
176
     1
 90
        1
176
     1
 90
        1
176
     1
 40
1.0
176
     1
 90
        8
176
     1
 62
     7
176
     1
 40
1.0
176
     1
 90
        1
176
     1
 90
        6
176
     1
 90
        2
176
     1
 62
     7
176
     1
 90
        5
176
     1
 90
        0
176
     1
 90
        0
176
     1
290
     0
176
     1
 90
        1
176
     1
 40
-50.0
176
     1
 90
        0
176
     1
290
     0
176
     1
290
     1
176
     1
290
     1
176
     1
290
     0
176
     1
290
     0
176
     1
290
     0
176
     1
290
     0
176
     1
290
     0
176
     1
290
     0
176
     1
 90
       50
176
     1
 40
0.0
176
     1
 40
1.0
176
     1
 90
        0
176
     1
 62
    18
420
        0
176
     1
 90
       50
176
     1
 90
        3
176
     1
 62
     5
420
      255
176
     1
290
     0
176
     1
 90
       50
176
     1
 90
       50
176
     1
 90
       50
176
     1
290
     0
176
     1
 90
       50
176
     1
 62
   256
176
     0
 40
1.0
176
     0
 90
        2
176
     1
  1
strokes_ogs.tif
176
     1
290
     0
176
     1
 40
1.0
176
     1
 40
1.0
176
     1
  0
VISUALSTYLE
  5
1FB
102
{ACAD_REACTORS
330
19A
102
}
330
19A
100
AcDbVisualStyle
  2
EdgeColorOff
 70
    22
177
     3
291
     1
 70
    58
 90
        2
176
     0
 90
        2
176
     0
 90
        0
176
     0
 90
        0
176
     0
 40
0.6
176
     0
 40
30.0
176
     0
 62
     7
420
 16777215
176
     0
 90
        1
176
     0
 90
        4
176
     0
 62
     7
176
     0
 62
   257
176
     0
 90
        1
176
     0
 90
        1
176
     0
 40
1.0
176
     0
 90
        8
176
     2
 62
     7
176
     0
 40
1.0
176
     0
 90
        1
176
     0
 90
        6
176
     0
 90
        2
176
     0
 62
     7
176
     0
 90
        5
176
     0
 90
        0
176
     0
 90
        0
176
     0
290
     0
176
     0
 90
        1
176
     0
 40
0.0
176
     0
 90
        0
176
     0
290
     0
176
     0
290
     1
176
     0
290
     1
176
     0
290
     0
176
     0
290
     0
176
     0
290
     0
176
     0
290
     0
176
     0
290
     0
176
     0
290
     0
176
     0
 90
       50
176
     0
 40
0.0
176
     0
 40
1.0
176
     0
 90
        0
176
     0
 62
    18
420
        0
176
     0
 90
       50
176
     0
 90
        3
176
     0
 62
     5
420
      255
176
     0
290
     0
176
     0
 90
       50
176
     0
 90
       50
176
     0
 90
       50
176
     0
290
     0
176
     0
 90
       50
176
     0
 62
   256
176
     0
 40
1.0
176
     0
 90
        2
176
     0
  1
strokes_ogs.tif
176
     0
290
     0
176
     0
 40
1.0
176
     0
 40
1.0
176
     0
  0
VISUALSTYLE
  5
1A9
102
{ACAD_REACTORS
330
19A
102
}
330
19A
100
AcDbVisualStyle
  2
Facepattern
 70
    15
177
     3
291
     1
 70
    58
 90
        2
176
     1
 90
        2
176
     1
 90
        0
176
     1
 90
        0
176
     1
 40
-0.6
176
     1
 40
-30.0
176
     1
 62
     7
176
     1
 90
        1
176
     1
 90
        4
176
     1
 62
     7
176
     1
 62
   257
176
     1
 90
        1
176
     1
 90
        1
176
     1
 40
1.0
176
     1
 90
        8
176
     1
 62
     7
176
     1
 40
1.0
176
     1
 90
        1
176
     1
 90
        6
176
     1
 90
        2
176
     1
 62
     7
176
     1
 90
        5
176
     1
 90
        0
176
     1
 90
        0
176
     1
290
     0
176
     1
 90
        1
176
     1
 40
0.0
176
     1
 90
        0
176
     1
290
     0
176
     1
290
     1
176
     1
290
     1
176
     1
290
     0
176
     1
290
     0
176
     1
290
     0
176
     1
290
     0
176
     1
290
     0
176
     1
290
     0
176
     1
 90
       50
176
     1
 40
0.0
176
     1
 40
1.0
176
     1
 90
        0
176
     1
 62
    18
420
        0
176
     1
 90
       50
176
     1
 90
        3
176
     1
 62
     5
420
      255
176
     1
290
     0
176
     1
 90
       50
176
     1
 90
       50
176
     1
 90
       50
176
     1
290
     0
176
     1
 90
       50
176
     1
 62
   256
176
     0
 40
1.0
176
     0
 90
        2
176
     1
  1
strokes_ogs.tif
176
     1
290
     0
176
     1
 40
1.0
176
     1
 40
1.0
176
     1
  0
VISUALSTYLE
  5
19B
102
{ACAD_REACTORS
330
19A
102
}
330
19A
100
AcDbVisualStyle
  2
Flat
 70
     0
177
     3
291
     1
 70
    58
 90
        2
176
     1
 90
        1
176
     1
 90
        1
176
     1
 90
        2
176
     1
 40
-0.6
176
     1
 40
30.0
176
     1
 62
     7
176
     1
 90
        0
176
     1
 90
        4
176
     1
 62
     7
176
     1
 62
   257
176
     1
 90
        1
176
     1
 90
        1
176
     1
 40
1.0
176
     1
 90
        8
176
     1
 62
     7
176
     1
 40
1.0
176
     1
 90
        1
176
     1
 90
        6
176
     1
 90
        2
176
     1
 62
     7
176
     1
 90
        5
176
     1
 90
        0
176
     1
 90
        0
176
     1
290
     0
176
     1
 90
       13
176
     1
 40
0.0
176
     1
 90
        0
176
     1
290
     0
176
     1
290
     1
176
     1
290
     1
176
     1
290
     0
176
     1
290
     0
176
     1
290
     0
176
     1
290
     0
176
     1
290
     0
176
     1
290
     0
176
     1
 90
       50
176
     1
 40
0.0
176
     1
 40
1.0
176
     1
 90
        0
176
     1
 62
    18
420
        0
176
     1
 90
       50
176
     1
 90
        3
176
     1
 62
     5
420
      255
176
     1
290
     0
176
     1
 90
       50
176
     1
 90
       50
176
     1
 90
       50
176
     1
290
     0
176
     1
 90
       50
176
     1
 62
   256
176
     0
 40
1.0
176
     0
 90
        2
176
     1
  1
strokes_ogs.tif
176
     1
290
     0
176
     1
 40
1.0
176
     1
 40
1.0
176
     1
  0
VISUALSTYLE
  5
19C
102
{ACAD_REACTORS
330
19A
102
}
330
19A
100
AcDbVisualStyle
  2
FlatWithEdges
 70
     1
177
     3
291
     1
 70
    58
 90
        2
176
     1
 90
        1
176
     1
 90
        1
176
     1
 90
        2
176
     1
 40
-0.6
176
     1
 40
30.0
176
     1
 62
     7
176
     1
 90
        1
176
     1
 90
        4
176
     1
 62
     7
176
     1
 62
   257
176
     1
 90
        1
176
     1
 90
        1
176
     1
 40
1.0
176
     1
 90
        0
176
     1
 62
   257
176
     1
 40
1.0
176
     1
 90
        1
176
     1
 90
        6
176
     1
 90
        2
176
     1
 62
     7
176
     1
 90
        5
176
     1
 90
        0
176
     1
 90
        0
176
     1
290
     0
176
     1
 90
       13
176
     1
 40
0.0
176
     1
 90
        0
176
     1
290
     0
176
     1
290
     1
176
     1
290
     1
176
     1
290
     0
176
     1
290
     0
176
     1
290
     0
176
     1
290
     0
176
     1
290
     0
176
     1
290
     0
176
     1
 90
       50
176
     1
 40
0.0
176
     1
 40
1.0
176
     1
 90
        0
176
     1
 62
    18
420
        0
176
     1
 90
       50
176
     1
 90
        3
176
     1
 62
     5
420
      255
176
     1
290
     0
176
     1
 90
       50
176
     1
 90
       50
176
     1
 90
       50
176
     1
290
     0
176
     1
 90
       50
176
     1
 62
   256
176
     0
 40
1.0
176
     0
 90
        2
176
     1
  1
strokes_ogs.tif
176
     1
290
     0
176
     1
 40
1.0
176
     1
 40
1.0
176
     1
  0
VISUALSTYLE
  5
19D
102
{ACAD_REACTORS
330
19A
102
}
330
19A
100
AcDbVisualStyle
  2
Gouraud
 70
     2
177
     3
291
     1
 70
    58
 90
        2
176
     1
 90
        2
176
     1
 90
        1
176
     1
 90
        2
176
     1
 40
-0.6
176
     1
 40
30.0
176
     1
 62
     7
176
     1
 90
        0
176
     1
 90
        4
176
     1
 62
     7
176
     1
 62
   257
176
     1
 90
        1
176
     1
 90
        1
176
     1
 40
1.0
176
     1
 90
        0
176
     1
 62
     7
176
     1
 40
1.0
176
     1
 90
        1
176
     1
 90
        6
176
     1
 90
        2
176
     1
 62
     7
176
     1
 90
        5
176
     1
 90
        0
176
     1
 90
        0
176
     1
290
     0
176
     1
 90
       13
176
     1
 40
0.0
176
     1
 90
        0
176
     1
290
     0
176
     1
290
     1
176
     1
290
     1
176
     1
290
     0
176
     1
290
     0
176
     1
290
     0
176
     1
290
     0
176
     1
290
     0
176
     1
290
     0
176
     1
 90
       50
176
     1
 40
0.0
176
     1
 40
1.0
176
     1
 90
        0
176
     1
 62
    18
420
        0
176
     1
 90
       50
176
     1
 90
        3
176
     1
 62
     5
420
      255
176
     1
290
     0
176
     1
 90
       50
176
     1
 90
       50
176
     1
 90
       50
176
     1
290
     0
176
     1
 90
       50
176
     1
 62
   256
176
     0
 40
1.0
176
     0
 90
        2
176
     1
  1
strokes_ogs.tif
176
     1
290
     0
176
     1
 40
1.0
176
     1
 40
1.0
176
     1
  0
VISUALSTYLE
  5
19E
102
{ACAD_REACTORS
330
19A
102
}
330
19A
100
AcDbVisualStyle
  2
GouraudWithEdges
 70
     3
177
     3
291
     1
 70
    58
 90
        2
176
     1
 90
        2
176
     1
 90
        1
176
     1
 90
        2
176
     1
 40
-0.6
176
     1
 40
30.0
176
     1
 62
     7
176
     1
 90
        1
176
     1
 90
        4
176
     1
 62
     7
176
     1
 62
   257
176
     1
 90
        1
176
     1
 90
        1
176
     1
 40
1.0
176
     1
 90
        0
176
     1
 62
   257
176
     1
 40
1.0
176
     1
 90
        1
176
     1
 90
        6
176
     1
 90
        2
176
     1
 62
     7
176
     1
 90
        5
176
     1
 90
        0
176
     1
 90
        0
176
     1
290
     0
176
     1
 90
       13
176
     1
 40
0.0
176
     1
 90
        0
176
     1
290
     0
176
     1
290
     1
176
     1
290
     1
176
     1
290
     0
176
     1
290
     0
176
     1
290
     0
176
     1
290
     0
176
     1
290
     0
176
     1
290
     0
176
     1
 90
       50
176
     1
 40
0.0
176
     1
 40
1.0
176
     1
 90
        0
176
     1
 62
    18
420
        0
176
     1
 90
       50
176
     1
 90
        3
176
     1
 62
     5
420
      255
176
     1
290
     0
176
     1
 90
       50
176
     1
 90
       50
176
     1
 90
       50
176
     1
290
     0
176
     1
 90
       50
176
     1
 62
   256
176
     0
 40
1.0
176
     0
 90
        2
176
     1
  1
strokes_ogs.tif
176
     1
290
     0
176
     1
 40
1.0
176
     1
 40
1.0
176
     1
  0
VISUALSTYLE
  5
1F8
102
{ACAD_REACTORS
330
19A
102
}
330
19A
100
AcDbVisualStyle
  2
Hidden
 70
     6
177
     3
291
     0
 70
    58
 90
        1
176
     1
 90
        2
176
     1
 90
        2
176
     1
 90
        0
176
     1
 40
0.6
176
     1
 40
30.0
176
     1
 62
     7
420
 16777215
176
     1
 90
        2
176
     1
 90
        2
176
     1
 62
     7
176
     1
 62
   257
176
     1
 90
        2
176
     1
 90
        1
176
     1
 40
40.0
176
     1
 90
        0
176
     1
 62
   257
176
     1
 40
1.0
176
     1
 90
        1
176
     1
 90
        6
176
     1
 90
        2
176
     1
 62
     7
176
     1
 90
        3
176
     1
 90
        0
176
     1
 90
        0
176
     1
290
     0
176
     1
 90
        1
176
     1
 40
0.0
176
     1
 90
        0
176
     1
290
     0
176
     1
290
     1
176
     1
290
     1
176
     1
290
     0
176
     1
290
     0
176
     1
290
     0
176
     1
290
     0
176
     1
290
     0
176
     1
290
     0
176
     1
 90
       50
176
     1
 40
0.0
176
     1
 40
1.0
176
     1
 90
        0
176
     1
 62
    18
420
        0
176
     1
 90
       50
176
     1
 90
        3
176
     1
 62
     5
420
      255
176
     1
290
     0
176
     1
 90
       50
176
     1
 90
       50
176
     1
 90
       50
176
     1
290
     0
176
     1
 90
       50
176
     1
 62
   256
176
     0
 40
1.0
176
     0
 90
        2
176
     1
  1
strokes_ogs.tif
176
     1
290
     0
176
     1
 40
1.0
176
     1
 40
1.0
176
     1
  0
VISUALSTYLE
  5
1F9
102
{ACAD_REACTORS
330
19A
102
}
330
19A
100
AcDbVisualStyle
  2
JitterOff
 70
    20
177
     3
291
     1
 70
    58
 90
        2
176
     0
 90
        2
176
     0
 90
        0
176
     0
 90
        0
176
     0
 40
0.6
176
     0
 40
30.0
176
     0
 62
     7
420
 16777215
176
     0
 90
        1
176
     0
 90
        4
176
     0
 62
     7
176
     0
 62
   257
176
     0
 90
        1
176
     0
 90
        1
176
     0
 40
1.0
176
     0
 90
       10
176
     2
 62
     7
176
     0
 40
1.0
176
     0
 90
        1
176
     0
 90
        6
176
     0
 90
        2
176
     0
 62
     7
176
     0
 90
        5
176
     0
 90
        0
176
     0
 90
        0
176
     0
290
     0
176
     0
 90
        1
176
     0
 40
0.0
176
     0
 90
        0
176
     0
290
     0
176
     0
290
     1
176
     0
290
     1
176
     0
290
     0
176
     0
290
     0
176
     0
290
     0
176
     0
290
     0
176
     0
290
     0
176
     0
290
     0
176
     0
 90
       50
176
     0
 40
0.0
176
     0
 40
1.0
176
     0
 90
        0
176
     0
 62
    18
420
        0
176
     0
 90
       50
176
     0
 90
        3
176
     0
 62
     5
420
      255
176
     0
290
     0
176
     0
 90
       50
176
     0
 90
       50
176
     0
 90
       50
176
     0
290
     0
176
     0
 90
       50
176
     0
 62
   256
176
     0
 40
1.0
176
     0
 90
        2
176
     0
  1
strokes_ogs.tif
176
     0
290
     0
176
     0
 40
1.0
176
     0
 40
1.0
176
     0
  0
VISUALSTYLE
  5
1A8
102
{ACAD_REACTORS
330
19A
102
}
330
19A
100
AcDbVisualStyle
  2
Linepattern
 70
    14
177
     3
291
     1
 70
    58
 90
        2
176
     1
 90
        2
176
     1
 90
        0
176
     1
 90
        0
176
     1
 40
-0.6
176
     1
 40
-30.0
176
     1
 62
     7
176
     1
 90
        1
176
     1
 90
        4
176
     1
 62
     7
176
     1
 62
   257
176
     1
 90
        7
176
     1
 90
        7
176
     1
 40
1.0
176
     1
 90
        8
176
     1
 62
     7
176
     1
 40
1.0
176
     1
 90
        1
176
     1
 90
        6
176
     1
 90
        2
176
     1
 62
     7
176
     1
 90
        5
176
     1
 90
        0
176
     1
 90
        0
176
     1
290
     0
176
     1
 90
        1
176
     1
 40
0.0
176
     1
 90
        0
176
     1
290
     0
176
     1
290
     1
176
     1
290
     1
176
     1
290
     0
176
     1
290
     0
176
     1
290
     0
176
     1
290
     0
176
     1
290
     0
176
     1
290
     0
176
     1
 90
       50
176
     1
 40
0.0
176
     1
 40
1.0
176
     1
 90
        0
176
     1
 62
    18
420
        0
176
     1
 90
       50
176
     1
 90
        3
176
     1
 62
     5
420
      255
176
     1
290
     0
176
     1
 90
       50
176
     1
 90
       50
176
     1
 90
       50
176
     1
290
     0
176
     1
 90
       50
176
     1
 62
   256
176
     0
 40
1.0
176
     0
 90
        2
176
     1
  1
strokes_ogs.tif
176
     1
290
     0
176
     1
 40
1.0
176
     1
 40
1.0
176
     1
  0
VISUALSTYLE
  5
1FA
102
{ACAD_REACTORS
330
19A
102
}
330
19A
100
AcDbVisualStyle
  2
OverhangOff
 70
    21
177
     3
291
     1
 70
    58
 90
        2
176
     0
 90
        2
176
     0
 90
        0
176
     0
 90
        0
176
     0
 40
0.6
176
     0
 40
30.0
176
     0
 62
     7
420
 16777215
176
     0
 90
        1
176
     0
 90
        4
176
     0
 62
     7
176
     0
 62
   257
176
     0
 90
        1
176
     0
 90
        1
176
     0
 40
1.0
176
     0
 90
        9
176
     2
 62
     7
176
     0
 40
1.0
176
     0
 90
        1
176
     0
 90
        6
176
     0
 90
        2
176
     0
 62
     7
176
     0
 90
        5
176
     0
 90
        0
176
     0
 90
        0
176
     0
290
     0
176
     0
 90
        1
176
     0
 40
0.0
176
     0
 90
        0
176
     0
290
     0
176
     0
290
     1
176
     0
290
     1
176
     0
290
     0
176
     0
290
     0
176
     0
290
     0
176
     0
290
     0
176
     0
290
     0
176
     0
290
     0
176
     0
 90
       50
176
     0
 40
0.0
176
     0
 40
1.0
176
     0
 90
        0
176
     0
 62
    18
420
        0
176
     0
 90
       50
176
     0
 90
        3
176
     0
 62
     5
420
      255
176
     0
290
     0
176
     0
 90
       50
176
     0
 90
       50
176
     0
 90
       50
176
     0
290
     0
176
     0
 90
       50
176
     0
 62
   256
176
     0
 40
1.0
176
     0
 90
        2
176
     0
  1
strokes_ogs.tif
176
     0
290
     0
176
     0
 40
1.0
176
     0
 40
1.0
176
     0
  0
VISUALSTYLE
  5
1A3
102
{ACAD_REACTORS
330
19A
102
}
330
19A
100
AcDbVisualStyle
  2
Realistic
 70
     8
177
     3
291
     0
 70
    58
 90
        2
176
     1
 90
        2
176
     1
 90
        0
176
     1
 90
        0
176
     1
 40
-0.6
176
     1
 40
-30.0
176
     1
 62
     7
176
     1
 90
        1
176
     1
 90
        0
176
     1
 62
     7
176
     1
 62
   257
176
     1
 90
        1
176
     1
 90
        1
176
     1
 40
1.0
176
     1
 90
        8
176
     1
 62
     8
176
     1
 40
1.0
176
     1
 90
        1
176
     1
 90
        6
176
     1
 90
        2
176
     1
 62
     7
176
     1
 90
        5
176
     1
 90
        0
176
     1
 90
        0
176
     1
290
     0
176
     1
 90
       13
176
     1
 40
0.0
176
     1
 90
        0
176
     1
290
     0
176
     1
290
     1
176
     1
290
     1
176
     1
290
     0
176
     1
290
     0
176
     1
290
     0
176
     1
290
     0
176
     1
290
     0
176
     1
290
     0
176
     1
 90
       50
176
     1
 40
0.0
176
     1
 40
1.0
176
     1
 90
        0
176
     1
 62
    18
420
        0
176
     1
 90
       50
176
     1
 90
        3
176
     1
 62
     5
420
      255
176
     1
290
     0
176
     1
 90
       50
176
     1
 90
       50
176
     1
 90
       50
176
     1
290
     0
176
     1
 90
       50
176
     1
 62
   256
176
     0
 40
1.0
176
     0
 90
        2
176
     1
  1
strokes_ogs.tif
176
     1
290
     0
176
     1
 40
1.0
176
     1
 40
1.0
176
     1
  0
VISUALSTYLE
  5
200
102
{ACAD_REACTORS
330
19A
102
}
330
19A
100
AcDbVisualStyle
  2
Shaded
 70
    27
177
     3
291
     0
 70
    58
 90
        2
176
     1
 90
        2
176
     1
 90
        1
176
     1
 90
        2
176
     1
 40
0.6
176
     1
 40
30.0
176
     1
 62
     7
420
 16777215
176
     1
 90
        0
176
     1
 90
        4
176
     1
 62
     7
176
     1
 62
   257
176
     1
 90
        1
176
     1
 90
        1
176
     1
 40
1.0
176
     1
 90
        8
176
     1
 62
   257
176
     1
 40
1.0
176
     1
 90
        1
176
     1
 90
        6
176
     1
 90
        2
176
     1
 62
     8
420
  7895160
176
     1
 90
        3
176
     1
 90
        0
176
     1
 90
        0
176
     1
290
     0
176
     1
 90
        5
176
     1
 40
0.0
176
     1
 90
        0
176
     1
290
     0
176
     1
290
     1
176
     1
290
     1
176
     1
290
     0
176
     1
290
     0
176
     1
290
     0
176
     1
290
     0
176
     1
290
     0
176
     1
290
     0
176
     1
 90
       50
176
     1
 40
0.0
176
     1
 40
1.0
176
     1
 90
        0
176
     1
 62
    18
420
        0
176
     1
 90
       50
176
     1
 90
        3
176
     1
 62
     5
420
      255
176
     1
290
     0
176
     1
 90
       50
176
     1
 90
       50
176
     1
 90
       50
176
     1
290
     0
176
     1
 90
       50
176
     1
 62
   256
176
     0
 40
1.0
176
     0
 90
        2
176
     1
  1
strokes_ogs.tif
176
     1
290
     0
176
     1
 40
1.0
176
     1
 40
1.0
176
     1
  0
VISUALSTYLE
  5
1FF
102
{ACAD_REACTORS
330
19A
102
}
330
19A
100
AcDbVisualStyle
  2
Shaded with edges
 70
    26
177
     3
291
     0
 70
    58
 90
        2
176
     1
 90
        2
176
     1
 90
        1
176
     1
 90
        2
176
     1
 40
0.6
176
     1
 40
30.0
176
     1
 62
     7
420
 16777215
176
     1
 90
        1
176
     1
 90
       10
176
     1
 62
     7
176
     1
 62
   257
176
     1
 90
        2
176
     1
 90
        1
176
     1
 40
1.0
176
     1
 90
        8
176
     1
 62
   257
176
     1
 40
1.0
176
     1
 90
        1
176
     1
 90
        6
176
     1
 90
        2
176
     1
 62
     7
176
     1
 90
        3
176
     1
 90
        0
176
     1
 90
        0
176
     1
290
     0
176
     1
 90
        5
176
     1
 40
0.0
176
     1
 90
        0
176
     1
290
     0
176
     1
290
     1
176
     1
290
     1
176
     1
290
     0
176
     1
290
     0
176
     1
290
     0
176
     1
290
     0
176
     1
290
     0
176
     1
290
     0
176
     1
 90
       50
176
     1
 40
0.0
176
     1
 40
1.0
176
     1
 90
        0
176
     1
 62
    18
420
        0
176
     1
 90
       50
176
     1
 90
        3
176
     1
 62
     5
420
      255
176
     1
290
     0
176
     1
 90
       50
176
     1
 90
       50
176
     1
 90
       50
176
     1
290
     0
176
     1
 90
       50
176
     1
 62
   256
176
     0
 40
1.0
176
     0
 90
        2
176
     1
  1
strokes_ogs.tif
176
     1
290
     0
176
     1
 40
1.0
176
     1
 40
1.0
176
     1
  0
VISUALSTYLE
  5
1FC
102
{ACAD_REACTORS
330
19A
102
}
330
19A
100
AcDbVisualStyle
  2
Shades of Gray
 70
    23
177
     3
291
     0
 70
    58
 90
        2
176
     1
 90
        2
176
     1
 90
        3
176
     1
 90
        0
176
     1
 40
0.6
176
     1
 40
30.0
176
     1
 62
     7
420
 16777215
176
     1
 90
        2
176
     1
 90
        2
176
     1
 62
     7
176
     1
 62
     7
176
     1
 90
        1
176
     1
 90
        1
176
     1
 40
40.0
176
     1
 90
        8
176
     1
 62
     7
176
     1
 40
1.0
176
     1
 90
        1
176
     1
 90
        6
176
     1
 90
        2
176
     1
 62
     7
176
     1
 90
        3
176
     1
 90
        0
176
     1
 90
        0
176
     1
290
     0
176
     1
 90
        1
176
     1
 40
0.0
176
     1
 90
        0
176
     1
290
     0
176
     1
290
     1
176
     1
290
     1
176
     1
290
     0
176
     1
290
     0
176
     1
290
     0
176
     1
290
     0
176
     1
290
     0
176
     1
290
     0
176
     1
 90
       50
176
     1
 40
0.0
176
     1
 40
1.0
176
     1
 90
        0
176
     1
 62
    18
420
        0
176
     1
 90
       50
176
     1
 90
        3
176
     1
 62
     5
420
      255
176
     1
290
     0
176
     1
 90
       50
176
     1
 90
       50
176
     1
 90
       50
176
     1
290
     0
176
     1
 90
       50
176
     1
 62
   256
176
     0
 40
1.0
176
     0
 90
        2
176
     1
  1
strokes_ogs.tif
176
     1
290
     0
176
     1
 40
1.0
176
     1
 40
1.0
176
     1
  0
VISUALSTYLE
  5
1FD
102
{ACAD_REACTORS
330
19A
102
}
330
19A
100
AcDbVisualStyle
  2
Sketchy
 70
    24
177
     3
291
     0
 70
    58
 90
        1
176
     1
 90
        2
176
     1
 90
        2
176
     1
 90
        0
176
     1
 40
0.6
176
     1
 40
30.0
176
     1
 62
     7
420
 16777215
176
     1
 90
        2
176
     1
 90
        2
176
     1
 62
     7
176
     1
 62
     7
176
     1
 90
        1
176
     1
 90
        1
176
     1
 40
40.0
176
     1
 90
       11
176
     1
 62
     7
176
     1
 40
1.0
176
     1
 90
        1
176
     1
 90
        6
176
     1
 90
        2
176
     1
 62
     7
176
     1
 90
        6
176
     1
 90
        0
176
     1
 90
        0
176
     1
290
     0
176
     1
 90
        1
176
     1
 40
0.0
176
     1
 90
        0
176
     1
290
     0
176
     1
290
     1
176
     1
290
     1
176
     1
290
     0
176
     1
290
     0
176
     1
290
     0
176
     1
290
     0
176
     1
290
     0
176
     1
290
     0
176
     1
 90
       50
176
     1
 40
0.0
176
     1
 40
1.0
176
     1
 90
        0
176
     1
 62
    18
420
        0
176
     1
 90
       50
176
     1
 90
        3
176
     1
 62
     5
420
      255
176
     1
290
     0
176
     1
 90
       50
176
     1
 90
       50
176
     1
 90
       50
176
     1
290
     0
176
     1
 90
       50
176
     1
 62
   256
176
     0
 40
1.0
176
     0
 90
        2
176
     1
  1
strokes_ogs.tif
176
     1
290
     0
176
     1
 40
1.0
176
     1
 40
1.0
176
     1
  0
VISUALSTYLE
  5
1A7
102
{ACAD_REACTORS
330
19A
102
}
330
19A
100
AcDbVisualStyle
  2
Thicken
 70
    13
177
     3
291
     1
 70
    58
 90
        2
176
     1
 90
        2
176
     1
 90
        0
176
     1
 90
        0
176
     1
 40
-0.6
176
     1
 40
-30.0
176
     1
 62
     7
176
     1
 90
        1
176
     1
 90
        4
176
     1
 62
     7
176
     1
 62
   257
176
     1
 90
        1
176
     1
 90
        1
176
     1
 40
1.0
176
     1
 90
       12
176
     1
 62
     7
176
     1
 40
1.0
176
     1
 90
        1
176
     1
 90
        6
176
     1
 90
        2
176
     1
 62
     7
176
     1
 90
        5
176
     1
 90
        0
176
     1
 90
        0
176
     1
290
     0
176
     1
 90
        1
176
     1
 40
0.0
176
     1
 90
        0
176
     1
290
     0
176
     1
290
     1
176
     1
290
     1
176
     1
290
     0
176
     1
290
     0
176
     1
290
     0
176
     1
290
     0
176
     1
290
     0
176
     1
290
     0
176
     1
 90
       50
176
     1
 40
0.0
176
     1
 40
1.0
176
     1
 90
        0
176
     1
 62
    18
420
        0
176
     1
 90
       50
176
     1
 90
        3
176
     1
 62
     5
420
      255
176
     1
290
     0
176
     1
 90
       50
176
     1
 90
       50
176
     1
 90
       50
176
     1
290
     0
176
     1
 90
       50
176
     1
 62
   256
176
     0
 40
1.0
176
     0
 90
        2
176
     1
  1
strokes_ogs.tif
176
     1
290
     0
176
     1
 40
1.0
176
     1
 40
1.0
176
     1
  0
VISUALSTYLE
  5
1F7
102
{ACAD_REACTORS
330
19A
102
}
330
19A
100
AcDbVisualStyle
  2
Wireframe
 70
     5
177
     3
291
     0
 70
    58
 90
        0
176
     1
 90
        2
176
     1
 90
        0
176
     1
 90
        0
176
     1
 40
0.6
176
     1
 40
30.0
176
     1
 62
     7
420
 16777215
176
     1
 90
        1
176
     1
 90
        4
176
     1
 62
     7
176
     1
 62
   257
176
     1
 90
        1
176
     1
 90
        1
176
     1
 40
1.0
176
     1
 90
        0
176
     1
 62
   257
176
     1
 40
1.0
176
     1
 90
        1
176
     1
 90
        6
176
     1
 90
        2
176
     1
 62
     7
176
     1
 90
        3
176
     1
 90
        0
176
     1
 90
        0
176
     1
290
     0
176
     1
 90
        1
176
     1
 40
0.0
176
     1
 90
        0
176
     1
290
     0
176
     1
290
     1
176
     1
290
     1
176
     1
290
     0
176
     1
290
     0
176
     1
290
     0
176
     1
290
     0
176
     1
290
     0
176
     1
290
     0
176
     1
 90
       50
176
     1
 40
0.0
176
     1
 40
1.0
176
     1
 90
        0
176
     1
 62
    18
420
        0
176
     1
 90
       50
176
     1
 90
        3
176
     1
 62
     5
420
      255
176
     1
290
     0
176
     1
 90
       50
176
     1
 90
       50
176
     1
 90
       50
176
     1
290
     0
176
     1
 90
       50
176
     1
 62
   256
176
     0
 40
1.0
176
     0
 90
        2
176
     1
  1
strokes_ogs.tif
176
     1
290
     0
176
     1
 40
1.0
176
     1
 40
1.0
176
     1
  0
VISUALSTYLE
  5
1FE
102
{ACAD_REACTORS
330
19A
102
}
330
19A
100
AcDbVisualStyle
  2
X-Ray
 70
    25
177
     3
291
     0
 70
    58
 90
        2
176
     1
 90
        2
176
     1
 90
        1
176
     1
 90
        1
176
     1
 40
0.5
176
     1
 40
30.0
176
     1
 62
     7
420
 16777215
176
     1
 90
        1
176
     1
 90
        0
176
     1
 62
     7
176
     1
 62
   257
176
     1
 90
        1
176
     1
 90
        1
176
     1
 40
1.0
176
     1
 90
        8
176
     1
 62
     7
176
     1
 40
1.0
176
     1
 90
        1
176
     1
 90
        6
176
     1
 90
        2
176
     1
 62
     7
176
     1
 90
        3
176
     1
 90
        0
176
     1
 90
        0
176
     1
290
     0
176
     1
 90
       13
176
     1
 40
0.0
176
     1
 90
        0
176
     1
290
     0
176
     1
290
     1
176
     1
290
     1
176
     1
290
     0
176
     1
290
     0
176
     1
290
     0
176
     1
290
     0
176
     1
290
     0
176
     1
290
     0
176
     1
 90
       50
176
     1
 40
0.0
176
     1
 40
1.0
176
     1
 90
        0
176
     1
 62
    18
420
        0
176
     1
 90
       50
176
     1
 90
        3
176
     1
 62
     5
420
      255
176
     1
290
     0
176
     1
 90
       50
176
     1
 90
       50
176
     1
 90
       50
176
     1
290
     0
176
     1
 90
       50
176
     1
 62
   256
176
     0
 40
1.0
176
     0
 90
        2
176
     1
  1
strokes_ogs.tif
176
     1
290
     0
176
     1
 40
1.0
176
     1
 40
1.0
176
     1
  0
DICTIONARYVAR
  5
21E
102
{ACAD_REACTORS
330
1B6
102
}
330
1B6
100
DictionaryVariables
280
     0
  1
1:1
  0
DICTIONARYVAR
  5
220
102
{ACAD_REACTORS
330
1B6
102
}
330
1B6
100
DictionaryVariables
280
     0
  1
Standard
  0
DICTIONARYVAR
  5
21F
102
{ACAD_REACTORS
330
1B6
102
}
330
1B6
100
DictionaryVariables
280
     0
  1
Standard
  0
DICTIONARYVAR
  5
1BA
102
{ACAD_REACTORS
330
1B6
102
}
330
1B6
100
DictionaryVariables
280
     0
  1
2
  0
DICTIONARYVAR
  5
1BB
102
{ACAD_REACTORS
330
1B6
102
}
330
1B6
100
DictionaryVariables
280
     0
  1
1
  0
DICTIONARYVAR
  5
1B9
102
{ACAD_REACTORS
330
1B6
102
}
330
1B6
100
DictionaryVariables
280
     0
  1
0
  0
DICTIONARY
  5
259
330
202
100
AcDbDictionary
280
     1
281
     1
  3
ACAD_ROUNDTRIP_2008_TABLESTYLE_CELLSTYLEMAP
360
25A
  0
CELLSTYLEMAP
  5
25A
102
{ACAD_REACTORS
330
259
102
}
330
259
100
AcDbCellStyleMap
 90
        3
300
CELLSTYLE
  1
TABLEFORMAT_BEGIN
 90
        5
170
     1
 91
        0
 92
    32768
 62
   257
 93
        1
300
CONTENTFORMAT
  1
CONTENTFORMAT_BEGIN
 90
        0
 91
        0
 92
        4
 93
        0
300

 40
0.0
140
1.0
 94
        5
 62
     0
340
11
144
0.25
309
CONTENTFORMAT_END
171
     1
301
MARGIN
  1
CELLMARGIN_BEGIN
 40
0.06
 40
0.06
 40
0.06
 40
0.06
 40
0.06
 40
0.06
309
CELLMARGIN_END
 94
        6
 95
        1
302
GRIDFORMAT
  1
GRIDFORMAT_BEGIN
 90
        0
 91
        1
 62
     0
 92
       -2
340
14
 93
        0
 40
0.045
309
GRIDFORMAT_END
 95
        2
302
GRIDFORMAT
  1
GRIDFORMAT_BEGIN
 90
        0
 91
        1
 62
     0
 92
       -2
340
14
 93
        0
 40
0.045
309
GRIDFORMAT_END
 95
        4
302
GRIDFORMAT
  1
GRIDFORMAT_BEGIN
 90
        0
 91
        1
 62
     0
 92
       -2
340
14
 93
        0
 40
0.045
309
GRIDFORMAT_END
 95
        8
302
GRIDFORMAT
  1
GRIDFORMAT_BEGIN
 90
        0
 91
        1
 62
     0
 92
       -2
340
14
 93
        0
 40
0.045
309
GRIDFORMAT_END
 95
       16
302
GRIDFORMAT
  1
GRIDFORMAT_BEGIN
 90
        0
 91
        1
 62
     0
 92
       -2
340
14
 93
        0
 40
0.045
309
GRIDFORMAT_END
 95
       32
302
GRIDFORMAT
  1
GRIDFORMAT_BEGIN
 90
        0
 91
        1
 62
     0
 92
       -2
340
14
 93
        0
 40
0.045
309
GRIDFORMAT_END
309
TABLEFORMAT_END
  1
CELLSTYLE_BEGIN
 90
        1
 91
        1
300
_TITLE
309
CELLSTYLE_END
300
CELLSTYLE
  1
TABLEFORMAT_BEGIN
 90
        5
170
     1
 91
        0
 92
        0
 62
   257
 93
        1
300
CONTENTFORMAT
  1
CONTENTFORMAT_BEGIN
 90
        0
 91
        0
 92
        4
 93
        0
300

 40
0.0
140
1.0
 94
        5
 62
     0
340
11
144
0.18
309
CONTENTFORMAT_END
171
     1
301
MARGIN
  1
CELLMARGIN_BEGIN
 40
0.06
 40
0.06
 40
0.06
 40
0.06
 40
0.06
 40
0.06
309
CELLMARGIN_END
 94
        6
 95
        1
302
GRIDFORMAT
  1
GRIDFORMAT_BEGIN
 90
        0
 91
        1
 62
     0
 92
       -2
340
14
 93
        0
 40
0.045
309
GRIDFORMAT_END
 95
        2
302
GRIDFORMAT
  1
GRIDFORMAT_BEGIN
 90
        0
 91
        1
 62
     0
 92
       -2
340
14
 93
        0
 40
0.045
309
GRIDFORMAT_END
 95
        4
302
GRIDFORMAT
  1
GRIDFORMAT_BEGIN
 90
        0
 91
        1
 62
     0
 92
       -2
340
14
 93
        0
 40
0.045
309
GRIDFORMAT_END
 95
        8
302
GRIDFORMAT
  1
GRIDFORMAT_BEGIN
 90
        0
 91
        1
 62
     0
 92
       -2
340
14
 93
        0
 40
0.045
309
GRIDFORMAT_END
 95
       16
302
GRIDFORMAT
  1
GRIDFORMAT_BEGIN
 90
        0
 91
        1
 62
     0
 92
       -2
340
14
 93
        0
 40
0.045
309
GRIDFORMAT_END
 95
       32
302
GRIDFORMAT
  1
GRIDFORMAT_BEGIN
 90
        0
 91
        1
 62
     0
 92
       -2
340
14
 93
        0
 40
0.045
309
GRIDFORMAT_END
309
TABLEFORMAT_END
  1
CELLSTYLE_BEGIN
 90
        2
 91
        1
300
_HEADER
309
CELLSTYLE_END
300
CELLSTYLE
  1
TABLEFORMAT_BEGIN
 90
        5
170
     1
 91
        0
 92
        0
 62
   257
 93
        1
300
CONTENTFORMAT
  1
CONTENTFORMAT_BEGIN
 90
        0
 91
        0
 92
        4
 93
        0
300

 40
0.0
140
1.0
 94
        2
 62
     0
340
11
144
0.18
309
CONTENTFORMAT_END
171
     1
301
MARGIN
  1
CELLMARGIN_BEGIN
 40
0.06
 40
0.06
 40
0.06
 40
0.06
 40
0.06
 40
0.06
309
CELLMARGIN_END
 94
        6
 95
        1
302
GRIDFORMAT
  1
GRIDFORMAT_BEGIN
 90
        0
 91
        1
 62
     0
 92
       -2
340
14
 93
        0
 40
0.045
309
GRIDFORMAT_END
 95
        2
302
GRIDFORMAT
  1
GRIDFORMAT_BEGIN
 90
        0
 91
        1
 62
     0
 92
       -2
340
14
 93
        0
 40
0.045
309
GRIDFORMAT_END
 95
        4
302
GRIDFORMAT
  1
GRIDFORMAT_BEGIN
 90
        0
 91
        1
 62
     0
 92
       -2
340
14
 93
        0
 40
0.045
309
GRIDFORMAT_END
 95
        8
302
GRIDFORMAT
  1
GRIDFORMAT_BEGIN
 90
        0
 91
        1
 62
     0
 92
       -2
340
14
 93
        0
 40
0.045
309
GRIDFORMAT_END
 95
       16
302
GRIDFORMAT
  1
GRIDFORMAT_BEGIN
 90
        0
 91
        1
 62
     0
 92
       -2
340
14
 93
        0
 40
0.045
309
GRIDFORMAT_END
 95
       32
302
GRIDFORMAT
  1
GRIDFORMAT_BEGIN
 90
        0
 91
        1
 62
     0
 92
       -2
340
14
 93
        0
 40
0.045
309
GRIDFORMAT_END
309
TABLEFORMAT_END
  1
CELLSTYLE_BEGIN
 90
        3
 91
        2
300
_DATA
309
CELLSTYLE_END
  0
ENDSEC
  0
EOF
