  0
SECTION
  2
HEADER
  9
$ACADVER
  1
AC1015
  9
$ACADMAINTVER
 70
     6
  9
$DWGCODEPAGE
  3
ANSI_1252
  9
$INSBASE
 10
0.0
 20
0.0
 30
0.0
  9
$EXTMIN
 10
-74.24007319635729
 20
-70.83176900103955
 30
0.0
  9
$EXTMAX
 10
130.7521239336799
 20
60.37272754168116
 30
0.0
  9
$LIMMIN
 10
-85.479377759
 20
-63.144432445
  9
$LIMMAX
 10
156.479377753
 20
44.050857459
  9
$ORTHOMODE
 70
     0
  9
$REGENMODE
 70
     1
  9
$FILLMODE
 70
     1
  9
$QTEXTMODE
 70
     0
  9
$MIRRTEXT
 70
     1
  9
$LTSCALE
 40
1.0
  9
$ATTMODE
 70
     1
  9
$TEXTSIZE
 40
0.2
  9
$TRACEWID
 40
0.05
  9
$TEXTSTYLE
  7
Standard
  9
$CLAYER
  8
1
  9
$CELTYPE
  6
ByLayer
  9
$CECOLOR
 62
   256
  9
$CELTSCALE
 40
1.0
  9
$DISPSILH
 70
     0
  9
$DIMSCALE
 40
1.0
  9
$DIMASZ
 40
0.18
  9
$DIMEXO
 40
0.0625
  9
$DIMDLI
 40
0.38
  9
$DIMRND
 40
0.0
  9
$DIMDLE
 40
0.0
  9
$DIMEXE
 40
0.18
  9
$DIMTP
 40
0.0
  9
$DIMTM
 40
0.0
  9
$DIMTXT
 40
0.18
  9
$DIMCEN
 40
0.09
  9
$DIMTSZ
 40
0.0
  9
$DIMTOL
 70
     0
  9
$DIMLIM
 70
     0
  9
$DIMTIH
 70
     1
  9
$DIMTOH
 70
     1
  9
$DIMSE1
 70
     0
  9
$DIMSE2
 70
     0
  9
$DIMTAD
 70
     0
  9
$DIMZIN
 70
     0
  9
$DIMBLK
  1

  9
$DIMASO
 70
     1
  9
$DIMSHO
 70
     1
  9
$DIMPOST
  1

  9
$DIMAPOST
  1

  9
$DIMALT
 70
     0
  9
$DIMALTD
 70
     2
  9
$DIMALTF
 40
25.4
  9
$DIMLFAC
 40
1.0
  9
$DIMTOFL
 70
     0
  9
$DIMTVP
 40
0.0
  9
$DIMTIX
 70
     0
  9
$DIMSOXD
 70
     0
  9
$DIMSAH
 70
     0
  9
$DIMBLK1
  1

  9
$DIMBLK2
  1

  9
$DIMSTYLE
  2
Standard
  9
$DIMCLRD
 70
     0
  9
$DIMCLRE
 70
     0
  9
$DIMCLRT
 70
     0
  9
$DIMTFAC
 40
1.0
  9
$DIMGAP
 40
0.09
  9
$DIMJUST
 70
     0
  9
$DIMSD1
 70
     0
  9
$DIMSD2
 70
     0
  9
$DIMTOLJ
 70
     1
  9
$DIMTZIN
 70
     0
  9
$DIMALTZ
 70
     0
  9
$DIMALTTZ
 70
     0
  9
$DIMUPT
 70
     0
  9
$DIMDEC
 70
     4
  9
$DIMTDEC
 70
     4
  9
$DIMALTU
 70
     2
  9
$DIMALTTD
 70
     2
  9
$DIMTXSTY
  7
Standard
  9
$DIMAUNIT
 70
     0
  9
$DIMADEC
 70
     0
  9
$DIMALTRND
 40
0.0
  9
$DIMAZIN
 70
     0
  9
$DIMDSEP
 70
    46
  9
$DIMATFIT
 70
     3
  9
$DIMFRAC
 70
     0
  9
$DIMLDRBLK
  1

  9
$DIMLUNIT
 70
     2
  9
$DIMLWD
 70
    -2
  9
$DIMLWE
 70
    -2
  9
$DIMTMOVE
 70
     2
  9
$LUNITS
 70
     2
  9
$LUPREC
 70
     4
  9
$SKETCHINC
 40
0.1
  9
$FILLETRAD
 40
0.5
  9
$AUNITS
 70
     2
  9
$AUPREC
 70
     0
  9
$MENU
  1
.
  9
$ELEVATION
 40
0.0
  9
$PELEVATION
 40
0.0
  9
$THICKNESS
 40
0.0
  9
$LIMCHECK
 70
     0
  9
$CHAMFERA
 40
0.5
  9
$CHAMFERB
 40
0.5
  9
$CHAMFERC
 40
1.0
  9
$CHAMFERD
 40
0.0
  9
$SKPOLY
 70
     0
  9
$TDCREATE
 40
2458327.5493725
  9
$TDUCREATE
 40
2458327.466039167
  9
$TDUPDATE
 40
2458590.693886632
  9
$TDUUPDATE
 40
2458590.610553299
  9
$TDINDWG
 40
0.0086689236
  9
$TDUSRTIMER
 40
0.0001081134
  9
$USRTIMER
 70
     1
  9
$ANGBASE
 50
0.0
  9
$ANGDIR
 70
     0
  9
$PDMODE
 70
     0
  9
$PDSIZE
 40
0.0
  9
$PLINEWID
 40
0.0
  9
$SPLFRAME
 70
     0
  9
$SPLINETYPE
 70
     6
  9
$SPLINESEGS
 70
     8
  9
$HANDSEED
  5
263
  9
$SURFTAB1
 70
     6
  9
$SURFTAB2
 70
     6
  9
$SURFTYPE
 70
     6
  9
$SURFU
 70
     6
  9
$SURFV
 70
     6
  9
$UCSBASE
  2

  9
$UCSNAME
  2

  9
$UCSORG
 10
0.0
 20
0.0
 30
0.0
  9
$UCSXDIR
 10
1.0
 20
0.0
 30
0.0
  9
$UCSYDIR
 10
0.0
 20
1.0
 30
0.0
  9
$UCSORTHOREF
  2

  9
$UCSORTHOVIEW
 70
     0
  9
$UCSORGTOP
 10
0.0
 20
0.0
 30
0.0
  9
$UCSORGBOTTOM
 10
0.0
 20
0.0
 30
0.0
  9
$UCSORGLEFT
 10
0.0
 20
0.0
 30
0.0
  9
$UCSORGRIGHT
 10
0.0
 20
0.0
 30
0.0
  9
$UCSORGFRONT
 10
0.0
 20
0.0
 30
0.0
  9
$UCSORGBACK
 10
0.0
 20
0.0
 30
0.0
  9
$PUCSBASE
  2

  9
$PUCSNAME
  2

  9
$PUCSORG
 10
0.0
 20
0.0
 30
0.0
  9
$PUCSXDIR
 10
1.0
 20
0.0
 30
0.0
  9
$PUCSYDIR
 10
0.0
 20
1.0
 30
0.0
  9
$PUCSORTHOREF
  2

  9
$PUCSORTHOVIEW
 70
     0
  9
$PUCSORGTOP
 10
0.0
 20
0.0
 30
0.0
  9
$PUCSORGBOTTOM
 10
0.0
 20
0.0
 30
0.0
  9
$PUCSORGLEFT
 10
0.0
 20
0.0
 30
0.0
  9
$PUCSORGRIGHT
 10
0.0
 20
0.0
 30
0.0
  9
$PUCSORGFRONT
 10
0.0
 20
0.0
 30
0.0
  9
$PUCSORGBACK
 10
0.0
 20
0.0
 30
0.0
  9
$USERI1
 70
     0
  9
$USERI2
 70
     0
  9
$USERI3
 70
     0
  9
$USERI4
 70
     0
  9
$USERI5
 70
     0
  9
$USERR1
 40
0.0
  9
$USERR2
 40
0.0
  9
$USERR3
 40
0.0
  9
$USERR4
 40
0.0
  9
$USERR5
 40
0.0
  9
$WORLDVIEW
 70
     1
  9
$SHADEDGE
 70
     3
  9
$SHADEDIF
 70
    70
  9
$TILEMODE
 70
     1
  9
$MAXACTVP
 70
    64
  9
$PINSBASE
 10
0.0
 20
0.0
 30
0.0
  9
$PLIMCHECK
 70
     0
  9
$PEXTMIN
 10
1.000000000000000E+20
 20
1.000000000000000E+20
 30
1.000000000000000E+20
  9
$PEXTMAX
 10
-1.000000000000000E+20
 20
-1.000000000000000E+20
 30
-1.000000000000000E+20
  9
$PLIMMIN
 10
0.0
 20
0.0
  9
$PLIMMAX
 10
0.0
 20
0.0
  9
$UNITMODE
 70
     0
  9
$VISRETAIN
 70
     1
  9
$PLINEGEN
 70
     0
  9
$PSLTSCALE
 70
     1
  9
$TREEDEPTH
 70
  3020
  9
$CMLSTYLE
  2
Standard
  9
$CMLJUST
 70
     0
  9
$CMLSCALE
 40
1.0
  9
$PROXYGRAPHICS
 70
     1
  9
$MEASUREMENT
 70
     0
  9
$CELWEIGHT
370
    -1
  9
$ENDCAPS
280
     0
  9
$JOINSTYLE
280
     0
  9
$LWDISPLAY
290
     0
  9
$INSUNITS
 70
     0
  9
$HYPERLINKBASE
  1

  9
$STYLESHEET
  1

  9
$XEDIT
290
     1
  9
$CEPSNTYPE
380
     0
  9
$PSTYLEMODE
290
     1
  9
$FINGERPRINTGUID
  2
{6E787439-87DF-43B4-894A-C9C6CD821EB4}
  9
$VERSIONGUID
  2
{FAEB1C32-E019-11D5-929B-00C0DF256EC4}
  9
$EXTNAMES
290
     1
  9
$PSVPSCALE
 40
0.0
  9
$OLESTARTUP
290
     0
  0
ENDSEC
  0
SECTION
  2
CLASSES
  0
CLASS
  1
ACDBDICTIONARYWDFLT
  2
AcDbDictionaryWithDefault
  3
ObjectDBX Classes
 90
        0
280
     0
281
     0
  0
CLASS
  1
SCALE
  2
AcDbScale
  3
ObjectDBX Classes
 90
     1153
280
     0
281
     0
  0
CLASS
  1
VISUALSTYLE
  2
AcDbVisualStyle
  3
ObjectDBX Classes
 90
     4095
280
     0
281
     0
  0
CLASS
  1
MATERIAL
  2
AcDbMaterial
  3
ObjectDBX Classes
 90
     1153
280
     0
281
     0
  0
CLASS
  1
DICTIONARYVAR
  2
AcDbDictionaryVar
  3
ObjectDBX Classes
 90
        0
280
     0
281
     0
  0
CLASS
  1
ACDBPLACEHOLDER
  2
AcDbPlaceHolder
  3
ObjectDBX Classes
 90
        0
280
     0
281
     0
  0
CLASS
  1
LAYOUT
  2
AcDbLayout
  3
ObjectDBX Classes
 90
        0
280
     0
281
     0
  0
CLASS
  1
TABLESTYLE
  2
AcDbTableStyle
  3
ObjectDBX Classes
 90
     4095
280
     0
281
     0
  0
CLASS
  1
MLEADERSTYLE
  2
AcDbMLeaderStyle
  3
ACDB_MLEADERSTYLE_CLASS
 90
     4095
280
     0
281
     0
  0
CLASS
  1
CELLSTYLEMAP
  2
AcDbCellStyleMap
  3
ObjectDBX Classes
 90
     1152
280
     0
281
     0
  0
CLASS
  1
SUN
  2
AcDbSun
  3
SCENEOE
 90
     1153
280
     0
281
     0
  0
ENDSEC
  0
SECTION
  2
TABLES
  0
TABLE
  2
VPORT
  5
8
330
0
100
AcDbSymbolTable
 70
     1
  0
VPORT
  5
152
330
8
100
AcDbSymbolTableRecord
100
AcDbViewportTableRecord
  2
*Active
 70
     0
 10
0.0
 20
0.0
 11
1.0
 21
1.0
 12
46.29923702711682
 22
34.8407302272316
 13
0.0
 23
0.0
 14
0.5
 24
0.5
 15
0.5
 25
0.5
 16
0.0
 26
0.0
 36
1.0
 17
0.0
 27
0.0
 37
0.0
 40
290.4153914371701
 41
1.978589420654912
 42
50.0
 43
0.0
 44
0.0
 50
0.0
 51
0.0
 71
    16
 72
   100
 73
     1
 74
     3
 75
     1
 76
     0
 77
     0
 78
     0
281
     0
 65
     1
110
0.0
120
0.0
130
0.0
111
1.0
121
0.0
131
0.0
112
0.0
122
1.0
132
0.0
 79
     0
146
0.0
  0
ENDTAB
  0
TABLE
  2
LTYPE
  5
5
330
0
100
AcDbSymbolTable
 70
     8
  0
LTYPE
  5
14
330
5
100
AcDbSymbolTableRecord
100
AcDbLinetypeTableRecord
  2
ByBlock
 70
     0
  3

 72
    65
 73
     0
 40
0.0
  0
LTYPE
  5
15
330
5
100
AcDbSymbolTableRecord
100
AcDbLinetypeTableRecord
  2
ByLayer
 70
     0
  3

 72
    65
 73
     0
 40
0.0
  0
LTYPE
  5
16
330
5
100
AcDbSymbolTableRecord
100
AcDbLinetypeTableRecord
  2
Continuous
 70
     0
  3
Solid line
 72
    65
 73
     0
 40
0.0
  0
LTYPE
  5
20
330
5
100
AcDbSymbolTableRecord
100
AcDbLinetypeTableRecord
  2
PUNKT
 70
     0
  3
..............
 72
    65
 73
     2
 40
1.5
 49
0.7
 74
     0
 49
-0.8
 74
     0
  0
LTYPE
  5
21
330
5
100
AcDbSymbolTableRecord
100
AcDbLinetypeTableRecord
  2
GESTRICHELT
 70
     0
  3
-- -- -- -- --
 72
    65
 73
     7
 40
2.8
 49
0.9
 74
     0
 49
0.0
 74
     0
 49
0.9
 74
     0
 49
0.0
 74
     0
 49
0.2
 74
     0
 49
0.0
 74
     0
 49
-0.8
 74
     0
  0
LTYPE
  5
22
330
5
100
AcDbSymbolTableRecord
100
AcDbLinetypeTableRecord
  2
STRICHPUNKT
 70
     0
  3
--.--.--.--.--
 72
    65
 73
     4
 40
8.8
 49
5.5
 74
     0
 49
-1.3
 74
     0
 49
0.7
 74
     0
 49
-1.3
 74
     0
  0
LTYPE
  5
25
330
5
100
AcDbSymbolTableRecord
100
AcDbLinetypeTableRecord
  2
PHANTOM
 70
     0
  3
--..--..--..--
 72
    65
 73
     6
 40
14.2
 49
7.0
 74
     0
 49
-1.8
 74
     0
 49
0.9
 74
     0
 49
-1.8
 74
     0
 49
0.9
 74
     0
 49
-1.8
 74
     0
  0
LTYPE
  5
1CA
330
5
100
AcDbSymbolTableRecord
100
AcDbLinetypeTableRecord
  2
DASH
 70
     0
  3
DASH _ _ _ _ _
 72
    65
 73
     2
 40
0.75
 49
0.4
 74
     0
 49
-0.35
 74
     0
  0
LTYPE
  5
1CB
330
5
100
AcDbSymbolTableRecord
100
AcDbLinetypeTableRecord
  2
LONGDASH_DASH
 70
     0
  3
LONGDASH_DASH __ . __ . __
 72
    65
 73
     4
 40
0.85
 49
0.4
 74
     0
 49
-0.2
 74
     0
 49
0.05
 74
     0
 49
-0.2
 74
     0
  0
LTYPE
  5
1CC
330
5
100
AcDbSymbolTableRecord
100
AcDbLinetypeTableRecord
  2
LONGDASH_DASH_DASH
 70
     0
  3
LONGDASH_DASH_DASH __ . . __ . . __
 72
    65
 73
     6
 40
1.1
 49
0.4
 74
     0
 49
-0.2
 74
     0
 49
0.05
 74
     0
 49
-0.2
 74
     0
 49
0.05
 74
     0
 49
-0.2
 74
     0
  0
ENDTAB
  0
TABLE
  2
LAYER
  5
2
102
{ACAD_XDICTIONARY
360
1E9
102
}
330
0
100
AcDbSymbolTable
 70
    15
  0
LAYER
  5
194
330
2
100
AcDbSymbolTableRecord
100
AcDbLayerTableRecord
  2
200
 70
     0
 62
     2
  6
Continuous
370
    50
390
F
  0
LAYER
  5
1CD
330
2
100
AcDbSymbolTableRecord
100
AcDbLayerTableRecord
  2
0
 70
     0
 62
     1
  6
Continuous
370
    -3
390
F
  0
LAYER
  5
1CE
330
2
100
AcDbSymbolTableRecord
100
AcDbLayerTableRecord
  2
1
 70
     0
 62
     4
  6
Continuous
370
    50
390
F
  0
LAYER
  5
1CF
330
2
100
AcDbSymbolTableRecord
100
AcDbLayerTableRecord
  2
2
 70
     0
 62
     7
  6
Continuous
370
    25
390
F
  0
LAYER
  5
1D0
330
2
100
AcDbSymbolTableRecord
100
AcDbLayerTableRecord
  2
3
 70
     0
 62
     1
  6
DASH
370
    35
390
F
  0
LAYER
  5
1D1
330
2
100
AcDbSymbolTableRecord
100
AcDbLayerTableRecord
  2
4
 70
     0
 62
     2
  6
LONGDASH_DASH
370
    25
390
F
  0
LAYER
  5
1D2
330
2
100
AcDbSymbolTableRecord
100
AcDbLayerTableRecord
  2
6
 70
     0
 62
     5
  6
Continuous
370
    -3
390
F
  0
LAYER
  5
1D3
330
2
100
AcDbSymbolTableRecord
100
AcDbLayerTableRecord
  2
CUT
 70
     0
 62
     1
  6
Continuous
370
    25
390
F
  0
LAYER
  5
1D4
330
2
100
AcDbSymbolTableRecord
100
AcDbLayerTableRecord
  2
NOCUT
 70
     0
 62
     7
  6
Continuous
370
    25
390
F
  0
LAYER
  5
1D5
330
2
100
AcDbSymbolTableRecord
100
AcDbLayerTableRecord
  2
SK1
 70
     0
 62
     4
  6
Continuous
370
    50
390
F
  0
LAYER
  5
1D6
330
2
100
AcDbSymbolTableRecord
100
AcDbLayerTableRecord
  2
SK2
 70
     0
 62
     7
  6
Continuous
370
    25
390
F
  0
LAYER
  5
1D7
330
2
100
AcDbSymbolTableRecord
100
AcDbLayerTableRecord
  2
SK3
 70
     0
 62
     1
  6
DASH
370
    35
390
F
  0
LAYER
  5
1D8
330
2
100
AcDbSymbolTableRecord
100
AcDbLayerTableRecord
  2
SK4
 70
     0
 62
     2
  6
LONGDASH_DASH
370
    25
390
F
  0
LAYER
  5
1D9
330
2
100
AcDbSymbolTableRecord
100
AcDbLayerTableRecord
  2
SK6
 70
     0
 62
     5
  6
Continuous
370
    -3
390
F
  0
LAYER
  5
1DA
330
2
100
AcDbSymbolTableRecord
100
AcDbLayerTableRecord
  2
INFTOTAL
 70
     0
 62
     9
  6
Continuous
370
    18
390
F
  0
ENDTAB
  0
TABLE
  2
STYLE
  5
3
330
0
100
AcDbSymbolTable
 70
     2
  0
STYLE
  5
11
330
3
100
AcDbSymbolTableRecord
100
AcDbTextStyleTableRecord
  2
Standard
 70
     0
 40
0.0
 41
1.0
 50
0.0
 71
     0
 42
0.2
  3
txt
  4

  0
STYLE
  5
193
330
3
100
AcDbSymbolTableRecord
100
AcDbTextStyleTableRecord
  2
BMG_Text
 70
     0
 40
3.5
 41
1.0
 50
0.0
 71
     0
 42
0.2
  3
monos.ttf
  4

1001
ACAD
1000
Monospac821 BT
1071
       49
  0
ENDTAB
  0
TABLE
  2
VIEW
  5
6
330
0
100
AcDbSymbolTable
 70
     0
  0
ENDTAB
  0
TABLE
  2
UCS
  5
7
330
0
100
AcDbSymbolTable
 70
     0
  0
ENDTAB
  0
TABLE
  2
APPID
  5
9
330
0
100
AcDbSymbolTable
 70
     1
  0
APPID
  5
12
330
9
100
AcDbSymbolTableRecord
100
AcDbRegAppTableRecord
  2
ACAD
 70
     0
  0
ENDTAB
  0
TABLE
  2
DIMSTYLE
  5
A
330
0
100
AcDbSymbolTable
 70
     1
100
AcDbDimStyleTable
  0
DIMSTYLE
105
28
330
A
100
AcDbSymbolTableRecord
100
AcDbDimStyleTableRecord
  2
Standard
 70
     0
178
     0
340
11
  0
ENDTAB
  0
TABLE
  2
BLOCK_RECORD
  5
1
330
0
100
AcDbSymbolTable
 70
     0
  0
BLOCK_RECORD
  5
1D
330
1
100
AcDbSymbolTableRecord
100
AcDbBlockTableRecord
  2
*Model_Space
340
1E
  0
BLOCK_RECORD
  5
1B
330
1
100
AcDbSymbolTableRecord
100
AcDbBlockTableRecord
  2
*Paper_Space
340
1C
  0
ENDTAB
  0
ENDSEC
  0
SECTION
  2
BLOCKS
  0
BLOCK
  5
17C
330
1D
100
AcDbEntity
  8
0
100
AcDbBlockBegin
  2
*Model_Space
 70
     0
 10
0.0
 20
0.0
 30
0.0
  3
*Model_Space
  1

  0
ENDBLK
  5
17D
330
1D
100
AcDbEntity
  8
0
100
AcDbBlockEnd
  0
BLOCK
  5
17A
330
1B
100
AcDbEntity
 67
     1
  8
0
100
AcDbBlockBegin
  2
*Paper_Space
 70
     0
 10
0.0
 20
0.0
 30
0.0
  3
*Paper_Space
  1

  0
ENDBLK
  5
17B
330
1B
100
AcDbEntity
 67
     1
  8
0
100
AcDbBlockEnd
  0
ENDSEC
  0
SECTION
  2
ENTITIES
  0
LINE
  5
29
330
1D
100
AcDbEntity
  8
1
100
AcDbLine
 10
33.99993896
 20
19.34999084
 30
0.0
 11
34.14993286
 21
19.49998474
 31
0.0
  0
LINE
  5
2A
330
1D
100
AcDbEntity
  8
1
100
AcDbLine
 10
30.99993896
 20
19.34999084
 30
0.0
 11
33.99993896
 21
19.34999084
 31
0.0
  0
ARC
  5
2B
330
1D
100
AcDbEntity
  8
1
100
AcDbCircle
 10
30.99995422
 20
24.34997559
 30
0.0
 40
5.0
100
AcDbArc
 50
180.0
 51
270.0
  0
LINE
  5
2C
330
1D
100
AcDbEntity
  8
1
100
AcDbLine
 10
19.87493896
 20
19.99995422
 30
0.0
 11
25.99993896
 21
19.99995422
 31
0.0
  0
LINE
  5
2D
330
1D
100
AcDbEntity
  8
1
100
AcDbLine
 10
21.37744141
 20
24.33613586
 30
0.0
 11
25.99993896
 21
24.33613586
 31
0.0
  0
LINE
  5
2E
330
1D
100
AcDbEntity
  8
1
100
AcDbLine
 10
19.87493896
 20
21.73371887
 30
0.0
 11
21.37744141
 21
24.33613586
 31
0.0
  0
LINE
  5
2F
330
1D
100
AcDbEntity
  8
1
100
AcDbLine
 10
14.62243652
 20
24.33613586
 30
0.0
 11
16.12493896
 21
21.73371887
 31
0.0
  0
LINE
  5
30
330
1D
100
AcDbEntity
  8
1
100
AcDbLine
 10
21.37744141
 20
24.33613586
 30
0.0
 11
21.37744141
 21
31.49995422
 31
0.0
  0
LINE
  5
31
330
1D
100
AcDbEntity
  8
1
100
AcDbLine
 10
14.62243652
 20
24.33613586
 30
0.0
 11
14.62243652
 21
31.49995422
 31
0.0
  0
ARC
  5
32
330
1D
100
AcDbEntity
  8
1
100
AcDbCircle
 10
12.11167908
 20
27.99992371
 30
0.0
 40
7.99999952
100
AcDbArc
 50
207.25666809
 51
270.0
  0
LINE
  5
33
330
1D
100
AcDbEntity
  8
1
100
AcDbLine
 10
4.99993896
 20
24.33613586
 30
0.0
 11
14.62243652
 21
24.33613586
 31
0.0
  0
LINE
  5
34
330
1D
100
AcDbEntity
  8
1
100
AcDbLine
 10
12.11169434
 20
19.99995422
 30
0.0
 11
16.125
 21
19.99995422
 31
0.0
  0
LINE
  5
35
330
1D
100
AcDbEntity
  8
1
100
AcDbLine
 10
21.37744141
 20
31.49995422
 30
0.0
 11
25.99993896
 21
31.49995422
 31
0.0
  0
LINE
  5
36
330
1D
100
AcDbEntity
  8
1
100
AcDbLine
 10
16.12493896
 20
28.89753723
 30
0.0
 11
14.62243652
 21
31.49995422
 31
0.0
  0
LINE
  5
37
330
1D
100
AcDbEntity
  8
1
100
AcDbLine
 10
19.87493896
 20
28.89753723
 30
0.0
 11
21.37744141
 21
31.49995422
 31
0.0
  0
ARC
  5
38
330
1D
100
AcDbEntity
  8
1
100
AcDbCircle
 10
18.87498474
 20
28.49992371
 30
0.0
 40
0.99999994
100
AcDbArc
 50
270.0
 51
0.0
  0
LINE
  5
39
330
1D
100
AcDbEntity
  8
1
100
AcDbLine
 10
17.12493896
 20
27.49995422
 30
0.0
 11
18.87493896
 21
27.49995422
 31
0.0
  0
ARC
  5
3A
330
1D
100
AcDbEntity
  8
1
100
AcDbCircle
 10
17.12498474
 20
28.49992371
 30
0.0
 40
0.99999994
100
AcDbArc
 50
179.99998474
 51
270.0
  0
ARC
  5
3B
330
1D
100
AcDbEntity
  8
SK1
100
AcDbCircle
 10
-0.60003662
 20
24.83494568
 30
0.0
 40
0.99999994
100
AcDbArc
 50
270.0
 51
306.87060547
  0
LINE
  5
3C
330
1D
100
AcDbEntity
  8
SK1
100
AcDbLine
 10
-1.60003662
 20
23.8349762
 30
0.0
 11
-0.60003662
 21
23.8349762
 31
0.0
  0
ARC
  5
3D
330
1D
100
AcDbEntity
  8
SK1
100
AcDbCircle
 10
-1.60003662
 20
24.83494568
 30
0.0
 40
0.99999994
100
AcDbArc
 50
219.67892456
 51
270.0
  0
LINE
  5
3E
330
1D
100
AcDbEntity
  8
1
100
AcDbLine
 10
0.0
 20
31.49995422
 30
0.0
 11
14.62243652
 21
31.49995422
 31
0.0
  0
ARC
  5
3F
330
1D
100
AcDbEntity
  8
SK1
100
AcDbCircle
 10
-30.69999695
 20
21.57846069
 30
0.0
 40
1.19999886
100
AcDbArc
 50
92.86218261999998
 51
179.99998474
  0
LINE
  5
40
330
1D
100
AcDbEntity
  8
SK1
100
AcDbLine
 10
-2.36968994
 20
24.19648743
 30
0.0
 11
-30.75992584
 21
22.7769928
 31
0.0
  0
LINE
  5
41
330
1D
100
AcDbEntity
  8
1
100
AcDbLine
 10
16.12493896
 20
-28.89753723
 30
0.0
 11
16.12493896
 21
28.89753723
 31
0.0
  0
LINE
  5
42
330
1D
100
AcDbEntity
  8
1
100
AcDbLine
 10
19.87493896
 20
-28.89753723
 30
0.0
 11
19.87493896
 21
28.89753723
 31
0.0
  0
LINE
  5
43
330
1D
100
AcDbEntity
  8
1
100
AcDbLine
 10
21.37744141
 20
-31.49995422
 30
0.0
 11
21.37744141
 21
19.99995422
 31
0.0
  0
LINE
  5
44
330
1D
100
AcDbEntity
  8
1
100
AcDbLine
 10
14.62243652
 20
-31.49995422
 30
0.0
 11
14.62243652
 21
19.99995422
 31
0.0
  0
LINE
  5
45
330
1D
100
AcDbEntity
  8
SK1
100
AcDbLine
 10
-31.90000153
 20
-21.57849121
 30
0.0
 11
-31.90000153
 21
21.57849121
 31
0.0
  0
LINE
  5
46
330
1D
100
AcDbEntity
  8
SK1
100
AcDbLine
 10
-2.36968994
 20
-24.19648743
 30
0.0
 11
-2.36968994
 21
24.19650269
 31
0.0
  0
LINE
  5
47
330
1D
100
AcDbEntity
  8
1
100
AcDbLine
 10
0.0
 20
-31.49995422
 30
0.0
 11
0.0
 21
31.49995422
 31
0.0
  0
LINE
  5
48
330
1D
100
AcDbEntity
  8
1
100
AcDbLine
 10
25.99993896
 20
-31.49995422
 30
0.0
 11
25.99993896
 21
31.49995422
 31
0.0
  0
LINE
  5
49
330
1D
100
AcDbEntity
  8
1
100
AcDbLine
 10
33.99993896
 20
-19.5
 30
0.0
 11
33.99993896
 21
19.34999084
 31
0.0
  0
LINE
  5
4A
330
1D
100
AcDbEntity
  8
1
100
AcDbLine
 10
92.99995422
 20
19.5
 30
0.0
 11
92.99995422
 21
-19.5
 31
0.0
  0
LINE
  5
4B
330
1D
100
AcDbEntity
  8
SK2
100
AcDbLine
 10
-42.000000003
 20
-24.0
 30
0.0
 11
-6.29955292
 21
-24.0
 31
0.0
  0
LINE
  5
4C
330
1D
100
AcDbEntity
  8
SK2
100
AcDbLine
 10
-40.000000003
 20
-24.0
 30
0.0
 11
-40.450000003
 21
-20.5
 31
0.0
  0
LINE
  5
4D
330
1D
100
AcDbEntity
  8
SK2
100
AcDbLine
 10
-40.450000003
 20
-20.5
 30
0.0
 11
-39.550000003
 21
-20.5
 31
0.0
  0
LINE
  5
4E
330
1D
100
AcDbEntity
  8
SK2
100
AcDbLine
 10
-39.550000003
 20
-20.5
 30
0.0
 11
-40.000000003
 21
-24.0
 31
0.0
  0
LINE
  5
4F
330
1D
100
AcDbEntity
  8
SK2
100
AcDbLine
 10
-40.000000003
 20
-20.6
 30
0.0
 11
-40.000000003
 21
-23.9
 31
0.0
  0
LINE
  5
50
330
1D
100
AcDbEntity
  8
SK2
100
AcDbLine
 10
-39.800000003
 20
-20.6
 30
0.0
 11
-39.800000003
 21
-22.344444444
 31
0.0
  0
LINE
  5
51
330
1D
100
AcDbEntity
  8
SK2
100
AcDbLine
 10
-40.200000003
 20
-20.6
 30
0.0
 11
-40.200000003
 21
-22.344444444
 31
0.0
  0
LINE
  5
52
330
1D
100
AcDbEntity
  8
SK2
100
AcDbLine
 10
-39.600000003
 20
-20.6
 30
0.0
 11
-39.600000003
 21
-20.788888889
 31
0.0
  0
LINE
  5
53
330
1D
100
AcDbEntity
  8
SK2
100
AcDbLine
 10
-40.400000003
 20
-20.6
 30
0.0
 11
-40.400000003
 21
-20.788888889
 31
0.0
  0
LINE
  5
54
330
1D
100
AcDbEntity
  8
SK2
100
AcDbLine
 10
-42.000000003
 20
24.0
 30
0.0
 11
-6.29955292
 21
24.0
 31
0.0
  0
LINE
  5
55
330
1D
100
AcDbEntity
  8
SK2
100
AcDbLine
 10
-40.000000003
 20
24.0
 30
0.0
 11
-39.550000003
 21
20.5
 31
0.0
  0
LINE
  5
56
330
1D
100
AcDbEntity
  8
SK2
100
AcDbLine
 10
-39.550000003
 20
20.5
 30
0.0
 11
-40.450000003
 21
20.5
 31
0.0
  0
LINE
  5
57
330
1D
100
AcDbEntity
  8
SK2
100
AcDbLine
 10
-40.450000003
 20
20.5
 30
0.0
 11
-40.000000003
 21
24.0
 31
0.0
  0
LINE
  5
58
330
1D
100
AcDbEntity
  8
SK2
100
AcDbLine
 10
-40.000000003
 20
20.6
 30
0.0
 11
-40.000000003
 21
23.9
 31
0.0
  0
LINE
  5
59
330
1D
100
AcDbEntity
  8
SK2
100
AcDbLine
 10
-40.200000003
 20
20.6
 30
0.0
 11
-40.200000003
 21
22.344444444
 31
0.0
  0
LINE
  5
5A
330
1D
100
AcDbEntity
  8
SK2
100
AcDbLine
 10
-39.800000003
 20
20.6
 30
0.0
 11
-39.800000003
 21
22.344444444
 31
0.0
  0
LINE
  5
5B
330
1D
100
AcDbEntity
  8
SK2
100
AcDbLine
 10
-40.400000003
 20
20.6
 30
0.0
 11
-40.400000003
 21
20.788888889
 31
0.0
  0
LINE
  5
5C
330
1D
100
AcDbEntity
  8
SK2
100
AcDbLine
 10
-39.600000003
 20
20.6
 30
0.0
 11
-39.600000003
 21
20.788888889
 31
0.0
  0
LINE
  5
5D
330
1D
100
AcDbEntity
  8
SK2
100
AcDbLine
 10
-40.000000003
 20
-20.5
 30
0.0
 11
-40.000000003
 21
20.5
 31
0.0
  0
TEXT
  5
5E
330
1D
100
AcDbEntity
  8
SK2
100
AcDbText
 10
-41.500000003
 20
0.085311964
 30
0.0
 40
3.5
  1
48
 50
90.0
  7
BMG_Text
100
AcDbText
  0
CIRCLE
  5
5F
330
1D
100
AcDbEntity
  8
SK2
100
AcDbCircle
 10
-42.750000003
 20
-2.164688036
 30
0.0
 40
1.25
  0
LINE
  5
60
330
1D
100
AcDbEntity
  8
SK2
100
AcDbLine
 10
-41.500000003
 20
-3.414688036
 30
0.0
 11
-44.000000003
 21
-0.914688036
 31
0.0
  0
LINE
  5
61
330
1D
100
AcDbEntity
  8
2
100
AcDbLine
 10
117.999999996
 20
-19.5
 30
0.0
 11
92.99995422
 21
-19.5
 31
0.0
  0
LINE
  5
62
330
1D
100
AcDbEntity
  8
2
100
AcDbLine
 10
115.999999996
 20
-19.5
 30
0.0
 11
115.549999996
 21
-16.0
 31
0.0
  0
LINE
  5
63
330
1D
100
AcDbEntity
  8
2
100
AcDbLine
 10
115.549999996
 20
-16.0
 30
0.0
 11
116.449999996
 21
-16.0
 31
0.0
  0
LINE
  5
64
330
1D
100
AcDbEntity
  8
2
100
AcDbLine
 10
116.449999996
 20
-16.0
 30
0.0
 11
115.999999996
 21
-19.5
 31
0.0
  0
LINE
  5
65
330
1D
100
AcDbEntity
  8
2
100
AcDbLine
 10
115.999999996
 20
-16.1
 30
0.0
 11
115.999999996
 21
-19.4
 31
0.0
  0
LINE
  5
66
330
1D
100
AcDbEntity
  8
2
100
AcDbLine
 10
116.199999996
 20
-16.1
 30
0.0
 11
116.199999996
 21
-17.844444444
 31
0.0
  0
LINE
  5
67
330
1D
100
AcDbEntity
  8
2
100
AcDbLine
 10
115.799999996
 20
-16.1
 30
0.0
 11
115.799999996
 21
-17.844444444
 31
0.0
  0
LINE
  5
68
330
1D
100
AcDbEntity
  8
2
100
AcDbLine
 10
116.399999996
 20
-16.1
 30
0.0
 11
116.399999996
 21
-16.288888889
 31
0.0
  0
LINE
  5
69
330
1D
100
AcDbEntity
  8
2
100
AcDbLine
 10
115.599999996
 20
-16.1
 30
0.0
 11
115.599999996
 21
-16.288888889
 31
0.0
  0
LINE
  5
6A
330
1D
100
AcDbEntity
  8
2
100
AcDbLine
 10
117.999999996
 20
19.5
 30
0.0
 11
92.99995422
 21
19.5
 31
0.0
  0
LINE
  5
6B
330
1D
100
AcDbEntity
  8
2
100
AcDbLine
 10
115.999999996
 20
19.5
 30
0.0
 11
116.449999996
 21
16.0
 31
0.0
  0
LINE
  5
6C
330
1D
100
AcDbEntity
  8
2
100
AcDbLine
 10
116.449999996
 20
16.0
 30
0.0
 11
115.549999996
 21
16.0
 31
0.0
  0
LINE
  5
6D
330
1D
100
AcDbEntity
  8
2
100
AcDbLine
 10
115.549999996
 20
16.0
 30
0.0
 11
115.999999996
 21
19.5
 31
0.0
  0
LINE
  5
6E
330
1D
100
AcDbEntity
  8
2
100
AcDbLine
 10
115.999999996
 20
16.1
 30
0.0
 11
115.999999996
 21
19.4
 31
0.0
  0
LINE
  5
6F
330
1D
100
AcDbEntity
  8
2
100
AcDbLine
 10
115.799999996
 20
16.1
 30
0.0
 11
115.799999996
 21
17.844444444
 31
0.0
  0
LINE
  5
70
330
1D
100
AcDbEntity
  8
2
100
AcDbLine
 10
116.199999996
 20
16.1
 30
0.0
 11
116.199999996
 21
17.844444444
 31
0.0
  0
LINE
  5
71
330
1D
100
AcDbEntity
  8
2
100
AcDbLine
 10
115.599999996
 20
16.1
 30
0.0
 11
115.599999996
 21
16.288888889
 31
0.0
  0
LINE
  5
72
330
1D
100
AcDbEntity
  8
2
100
AcDbLine
 10
116.399999996
 20
16.1
 30
0.0
 11
116.399999996
 21
16.288888889
 31
0.0
  0
LINE
  5
73
330
1D
100
AcDbEntity
  8
2
100
AcDbLine
 10
115.999999996
 20
-16.0
 30
0.0
 11
115.999999996
 21
16.0
 31
0.0
  0
TEXT
  5
74
330
1D
100
AcDbEntity
  8
2
100
AcDbText
 10
114.499999996
 20
0.331405814
 30
0.0
 40
3.5
  1
39
 50
90.0
  7
BMG_Text
100
AcDbText
  0
CIRCLE
  5
75
330
1D
100
AcDbEntity
  8
2
100
AcDbCircle
 10
113.249999996
 20
-1.918594186
 30
0.0
 40
1.25
  0
LINE
  5
76
330
1D
100
AcDbEntity
  8
2
100
AcDbLine
 10
114.499999996
 20
-3.168594186
 30
0.0
 11
111.999999996
 21
-0.668594186
 31
0.0
  0
LINE
  5
77
330
1D
100
AcDbEntity
  8
2
100
AcDbLine
 10
109.999999996
 20
-11.0
 30
0.0
 11
93.99995422
 21
-11.0
 31
0.0
  0
LINE
  5
78
330
1D
100
AcDbEntity
  8
2
100
AcDbLine
 10
107.999999996
 20
-11.0
 30
0.0
 11
107.549999996
 21
-7.5
 31
0.0
  0
LINE
  5
79
330
1D
100
AcDbEntity
  8
2
100
AcDbLine
 10
107.549999996
 20
-7.5
 30
0.0
 11
108.449999996
 21
-7.5
 31
0.0
  0
LINE
  5
7A
330
1D
100
AcDbEntity
  8
2
100
AcDbLine
 10
108.449999996
 20
-7.5
 30
0.0
 11
107.999999996
 21
-11.0
 31
0.0
  0
LINE
  5
7B
330
1D
100
AcDbEntity
  8
2
100
AcDbLine
 10
107.999999996
 20
-7.6
 30
0.0
 11
107.999999996
 21
-10.9
 31
0.0
  0
LINE
  5
7C
330
1D
100
AcDbEntity
  8
2
100
AcDbLine
 10
108.199999996
 20
-7.6
 30
0.0
 11
108.199999996
 21
-9.344444444
 31
0.0
  0
LINE
  5
7D
330
1D
100
AcDbEntity
  8
2
100
AcDbLine
 10
107.799999996
 20
-7.6
 30
0.0
 11
107.799999996
 21
-9.344444444
 31
0.0
  0
LINE
  5
7E
330
1D
100
AcDbEntity
  8
2
100
AcDbLine
 10
108.399999996
 20
-7.6
 30
0.0
 11
108.399999996
 21
-7.788888889
 31
0.0
  0
LINE
  5
7F
330
1D
100
AcDbEntity
  8
2
100
AcDbLine
 10
107.599999996
 20
-7.6
 30
0.0
 11
107.599999996
 21
-7.788888889
 31
0.0
  0
LINE
  5
80
330
1D
100
AcDbEntity
  8
2
100
AcDbLine
 10
109.999999996
 20
11.0
 30
0.0
 11
93.99995422
 21
11.0
 31
0.0
  0
LINE
  5
81
330
1D
100
AcDbEntity
  8
2
100
AcDbLine
 10
107.999999996
 20
11.0
 30
0.0
 11
108.449999996
 21
7.5
 31
0.0
  0
LINE
  5
82
330
1D
100
AcDbEntity
  8
2
100
AcDbLine
 10
108.449999996
 20
7.5
 30
0.0
 11
107.549999996
 21
7.5
 31
0.0
  0
LINE
  5
83
330
1D
100
AcDbEntity
  8
2
100
AcDbLine
 10
107.549999996
 20
7.5
 30
0.0
 11
107.999999996
 21
11.0
 31
0.0
  0
LINE
  5
84
330
1D
100
AcDbEntity
  8
2
100
AcDbLine
 10
107.999999996
 20
7.6
 30
0.0
 11
107.999999996
 21
10.9
 31
0.0
  0
LINE
  5
85
330
1D
100
AcDbEntity
  8
2
100
AcDbLine
 10
107.799999996
 20
7.6
 30
0.0
 11
107.799999996
 21
9.344444444
 31
0.0
  0
LINE
  5
86
330
1D
100
AcDbEntity
  8
2
100
AcDbLine
 10
108.199999996
 20
7.6
 30
0.0
 11
108.199999996
 21
9.344444444
 31
0.0
  0
LINE
  5
87
330
1D
100
AcDbEntity
  8
2
100
AcDbLine
 10
107.599999996
 20
7.6
 30
0.0
 11
107.599999996
 21
7.788888889
 31
0.0
  0
LINE
  5
88
330
1D
100
AcDbEntity
  8
2
100
AcDbLine
 10
108.399999996
 20
7.6
 30
0.0
 11
108.399999996
 21
7.788888889
 31
0.0
  0
LINE
  5
89
330
1D
100
AcDbEntity
  8
2
100
AcDbLine
 10
107.999999996
 20
-7.5
 30
0.0
 11
107.999999996
 21
7.5
 31
0.0
  0
TEXT
  5
8A
330
1D
100
AcDbEntity
  8
2
100
AcDbText
 10
106.499999996
 20
0.085312254
 30
0.0
 40
3.5
  1
22
 50
90.0
  7
BMG_Text
100
AcDbText
  0
CIRCLE
  5
8B
330
1D
100
AcDbEntity
  8
2
100
AcDbCircle
 10
105.249999996
 20
-2.164687746
 30
0.0
 40
1.25
  0
LINE
  5
8C
330
1D
100
AcDbEntity
  8
2
100
AcDbLine
 10
106.499999996
 20
-3.414687746
 30
0.0
 11
103.999999996
 21
-0.914687746
 31
0.0
  0
LINE
  5
8D
330
1D
100
AcDbEntity
  8
2
100
AcDbLine
 10
0.0
 20
-41.999999996
 30
0.0
 11
0.0
 21
-31.49995422
 31
0.0
  0
LINE
  5
8E
330
1D
100
AcDbEntity
  8
2
100
AcDbLine
 10
0.0
 20
-39.999999996
 30
0.0
 11
3.5
 21
-39.549999996
 31
0.0
  0
LINE
  5
8F
330
1D
100
AcDbEntity
  8
2
100
AcDbLine
 10
3.5
 20
-39.549999996
 30
0.0
 11
3.5
 21
-40.449999996
 31
0.0
  0
LINE
  5
90
330
1D
100
AcDbEntity
  8
2
100
AcDbLine
 10
3.5
 20
-40.449999996
 30
0.0
 11
0.0
 21
-39.999999996
 31
0.0
  0
LINE
  5
91
330
1D
100
AcDbEntity
  8
2
100
AcDbLine
 10
3.4
 20
-39.999999996
 30
0.0
 11
0.1
 21
-39.999999996
 31
0.0
  0
LINE
  5
92
330
1D
100
AcDbEntity
  8
2
100
AcDbLine
 10
3.4
 20
-40.199999996
 30
0.0
 11
1.655555556
 21
-40.199999996
 31
0.0
  0
LINE
  5
93
330
1D
100
AcDbEntity
  8
2
100
AcDbLine
 10
3.4
 20
-39.799999996
 30
0.0
 11
1.655555556
 21
-39.799999996
 31
0.0
  0
LINE
  5
94
330
1D
100
AcDbEntity
  8
2
100
AcDbLine
 10
3.4
 20
-40.399999996
 30
0.0
 11
3.211111111
 21
-40.399999996
 31
0.0
  0
LINE
  5
95
330
1D
100
AcDbEntity
  8
2
100
AcDbLine
 10
3.4
 20
-39.599999996
 30
0.0
 11
3.211111111
 21
-39.599999996
 31
0.0
  0
LINE
  5
96
330
1D
100
AcDbEntity
  8
2
100
AcDbLine
 10
33.99993896
 20
-41.999999995
 30
0.0
 11
33.99993896
 21
-24.34999084
 31
0.0
  0
LINE
  5
97
330
1D
100
AcDbEntity
  8
2
100
AcDbLine
 10
33.99993896
 20
-39.999999995
 30
0.0
 11
30.49993896
 21
-40.449999995
 31
0.0
  0
LINE
  5
98
330
1D
100
AcDbEntity
  8
2
100
AcDbLine
 10
30.49993896
 20
-40.449999995
 30
0.0
 11
30.49993896
 21
-39.549999995
 31
0.0
  0
LINE
  5
99
330
1D
100
AcDbEntity
  8
2
100
AcDbLine
 10
30.49993896
 20
-39.549999995
 30
0.0
 11
33.99993896
 21
-39.999999995
 31
0.0
  0
LINE
  5
9A
330
1D
100
AcDbEntity
  8
2
100
AcDbLine
 10
30.59993896
 20
-39.999999995
 30
0.0
 11
33.89993896
 21
-39.999999995
 31
0.0
  0
LINE
  5
9B
330
1D
100
AcDbEntity
  8
2
100
AcDbLine
 10
30.59993896
 20
-39.799999995
 30
0.0
 11
32.344383404
 21
-39.799999995
 31
0.0
  0
LINE
  5
9C
330
1D
100
AcDbEntity
  8
2
100
AcDbLine
 10
30.59993896
 20
-40.199999995
 30
0.0
 11
32.344383404
 21
-40.199999995
 31
0.0
  0
LINE
  5
9D
330
1D
100
AcDbEntity
  8
2
100
AcDbLine
 10
30.59993896
 20
-39.599999995
 30
0.0
 11
30.788827849
 21
-39.599999995
 31
0.0
  0
LINE
  5
9E
330
1D
100
AcDbEntity
  8
2
100
AcDbLine
 10
30.59993896
 20
-40.399999995
 30
0.0
 11
30.788827849
 21
-40.399999995
 31
0.0
  0
LINE
  5
9F
330
1D
100
AcDbEntity
  8
2
100
AcDbLine
 10
3.5
 20
-39.999999996
 30
0.0
 11
30.49993896
 21
-39.999999995
 31
0.0
  0
TEXT
  5
A0
330
1D
100
AcDbEntity
  8
2
100
AcDbText
 10
15.52668785
 20
-38.499999996
 30
0.0
 40
3.5
  1
34
  7
BMG_Text
100
AcDbText
  0
LINE
  5
A1
330
1D
100
AcDbEntity
  8
2
100
AcDbLine
 10
33.99993896
 20
-41.999999995
 30
0.0
 11
33.99993896
 21
-24.34999084
 31
0.0
  0
LINE
  5
A2
330
1D
100
AcDbEntity
  8
2
100
AcDbLine
 10
33.99993896
 20
-39.999999995
 30
0.0
 11
37.49993896
 21
-39.549999995
 31
0.0
  0
LINE
  5
A3
330
1D
100
AcDbEntity
  8
2
100
AcDbLine
 10
37.49993896
 20
-39.549999995
 30
0.0
 11
37.49993896
 21
-40.449999995
 31
0.0
  0
LINE
  5
A4
330
1D
100
AcDbEntity
  8
2
100
AcDbLine
 10
37.49993896
 20
-40.449999995
 30
0.0
 11
33.99993896
 21
-39.999999995
 31
0.0
  0
LINE
  5
A5
330
1D
100
AcDbEntity
  8
2
100
AcDbLine
 10
37.39993896
 20
-39.999999995
 30
0.0
 11
34.09993896
 21
-39.999999995
 31
0.0
  0
LINE
  5
A6
330
1D
100
AcDbEntity
  8
2
100
AcDbLine
 10
37.39993896
 20
-40.199999995
 30
0.0
 11
35.655494516
 21
-40.199999995
 31
0.0
  0
LINE
  5
A7
330
1D
100
AcDbEntity
  8
2
100
AcDbLine
 10
37.39993896
 20
-39.799999995
 30
0.0
 11
35.655494516
 21
-39.799999995
 31
0.0
  0
LINE
  5
A8
330
1D
100
AcDbEntity
  8
2
100
AcDbLine
 10
37.39993896
 20
-40.399999995
 30
0.0
 11
37.211050071
 21
-40.399999995
 31
0.0
  0
LINE
  5
A9
330
1D
100
AcDbEntity
  8
2
100
AcDbLine
 10
37.39993896
 20
-39.599999995
 30
0.0
 11
37.211050071
 21
-39.599999995
 31
0.0
  0
LINE
  5
AA
330
1D
100
AcDbEntity
  8
2
100
AcDbLine
 10
37.49993896
 20
-39.999999995
 30
0.0
 11
99.999955746
 21
-39.999999995
 31
0.0
  0
TEXT
  5
AB
330
1D
100
AcDbEntity
  8
2
100
AcDbText
 10
91.27570902125272
 20
-38.499999995
 30
0.0
 40
3.5
  1
110
  7
BMG_Text
100
AcDbText
  0
TEXT
  5
AC
330
1D
100
AcDbEntity
  8
2
100
AcDbText
 10
52.119790365
 20
-38.499999995
 30
0.0
 40
3.5
  1
Ausdrehtiefe
  7
BMG_Text
100
AcDbText
  0
TEXT
  5
AD
330
1D
100
AcDbEntity
  8
SK6
100
AcDbText
 10
104.0
 20
-67.5
 30
0.0
 40
3.5
  1
324.341
  7
BMG_Text
100
AcDbText
  0
LINE
  5
AE
330
1D
100
AcDbEntity
  8
2
100
AcDbLine
 10
0.0
 20
39.999922749
 30
0.0
 11
0.0
 21
31.49995422
 31
0.0
  0
LINE
  5
AF
330
1D
100
AcDbEntity
  8
2
100
AcDbLine
 10
0.0
 20
37.999922749
 30
0.0
 11
3.499999995
 21
38.449922784
 31
0.0
  0
LINE
  5
B0
330
1D
100
AcDbEntity
  8
2
100
AcDbLine
 10
3.499999995
 20
38.449922784
 30
0.0
 11
3.500000005
 21
37.549922784
 31
0.0
  0
LINE
  5
B1
330
1D
100
AcDbEntity
  8
2
100
AcDbLine
 10
3.500000005
 20
37.549922784
 30
0.0
 11
0.0
 21
37.999922749
 31
0.0
  0
LINE
  5
B2
330
1D
100
AcDbEntity
  8
2
100
AcDbLine
 10
3.4
 20
37.999922783
 30
0.0
 11
0.1
 21
37.99992275
 31
0.0
  0
LINE
  5
B3
330
1D
100
AcDbEntity
  8
2
100
AcDbLine
 10
3.400000002
 20
37.799922783
 30
0.0
 11
1.655555558
 21
37.799922766
 31
0.0
  0
LINE
  5
B4
330
1D
100
AcDbEntity
  8
2
100
AcDbLine
 10
3.399999998
 20
38.199922783
 30
0.0
 11
1.655555554
 21
38.199922766
 31
0.0
  0
LINE
  5
B5
330
1D
100
AcDbEntity
  8
2
100
AcDbLine
 10
3.400000004
 20
37.599922783
 30
0.0
 11
3.211111115
 21
37.599922781
 31
0.0
  0
LINE
  5
B6
330
1D
100
AcDbEntity
  8
2
100
AcDbLine
 10
3.399999996
 20
38.399922783
 30
0.0
 11
3.211111107
 21
38.399922781
 31
0.0
  0
LINE
  5
B7
330
1D
100
AcDbEntity
  8
2
100
AcDbLine
 10
93.99995422
 20
39.999923706
 30
0.0
 11
93.99995422
 21
18.5
 31
0.0
  0
LINE
  5
B8
330
1D
100
AcDbEntity
  8
2
100
AcDbLine
 10
93.99995422
 20
37.999923706
 30
0.0
 11
90.499954225
 21
37.54992367
 31
0.0
  0
LINE
  5
B9
330
1D
100
AcDbEntity
  8
2
100
AcDbLine
 10
90.499954225
 20
37.54992367
 30
0.0
 11
90.499954215
 21
38.44992367
 31
0.0
  0
LINE
  5
BA
330
1D
100
AcDbEntity
  8
2
100
AcDbLine
 10
90.499954215
 20
38.44992367
 30
0.0
 11
93.99995422
 21
37.999923706
 31
0.0
  0
LINE
  5
BB
330
1D
100
AcDbEntity
  8
2
100
AcDbLine
 10
90.59995422
 20
37.999923671
 30
0.0
 11
93.89995422
 21
37.999923705
 31
0.0
  0
LINE
  5
BC
330
1D
100
AcDbEntity
  8
2
100
AcDbLine
 10
90.599954218
 20
38.199923671
 30
0.0
 11
92.344398662
 21
38.199923689
 31
0.0
  0
LINE
  5
BD
330
1D
100
AcDbEntity
  8
2
100
AcDbLine
 10
90.599954222
 20
37.799923671
 30
0.0
 11
92.344398666
 21
37.799923689
 31
0.0
  0
LINE
  5
BE
330
1D
100
AcDbEntity
  8
2
100
AcDbLine
 10
90.599954216
 20
38.399923671
 30
0.0
 11
90.788843105
 21
38.399923673
 31
0.0
  0
LINE
  5
BF
330
1D
100
AcDbEntity
  8
2
100
AcDbLine
 10
90.599954224
 20
37.599923671
 30
0.0
 11
90.788843113
 21
37.599923673
 31
0.0
  0
LINE
  5
C0
330
1D
100
AcDbEntity
  8
2
100
AcDbLine
 10
3.5
 20
37.999922784
 30
0.0
 11
90.49995422
 21
37.99992367
 31
0.0
  0
TEXT
  5
C1
330
1D
100
AcDbEntity
  8
2
100
AcDbText
 10
45.389976044
 20
39.499923211
 30
0.0
 40
3.5
  1
94
 50
0.000000584
  7
BMG_Text
100
AcDbText
  0
LINE
  5
C2
330
1D
100
AcDbEntity
  8
SK4
100
AcDbLine
 10
83.94995117
 20
6.0
 30
0.0
 11
83.94995117
 21
-6.0
 31
0.0
  0
LINE
  5
C3
330
1D
100
AcDbEntity
  8
SK4
100
AcDbLine
 10
95.99995422
 20
0.0
 30
0.0
 11
-33.90000916
 21
0.0
 31
0.0
  0
LINE
  5
C4
330
1D
100
AcDbEntity
  8
1
100
AcDbLine
 10
85.94995117
 20
-1.1546936
 30
0.0
 11
85.94995117
 21
1.15470886
 31
0.0
  0
LINE
  5
C5
330
1D
100
AcDbEntity
  8
1
100
AcDbLine
 10
85.94995117
 20
1.15470886
 30
0.0
 11
83.94995117
 21
2.30940247
 31
0.0
  0
LINE
  5
C6
330
1D
100
AcDbEntity
  8
1
100
AcDbLine
 10
83.94995117
 20
2.30940247
 30
0.0
 11
81.94995117
 21
1.15470886
 31
0.0
  0
LINE
  5
C7
330
1D
100
AcDbEntity
  8
1
100
AcDbLine
 10
81.94995117
 20
1.15470886
 30
0.0
 11
81.94995117
 21
-1.15470886
 31
0.0
  0
CIRCLE
  5
C8
330
1D
100
AcDbEntity
  8
1
100
AcDbCircle
 10
83.94995117
 20
0.0
 30
0.0
 40
4.0
  0
LINE
  5
C9
330
1D
100
AcDbEntity
  8
SK1
100
AcDbLine
 10
-2.36968994
 20
-24.19648743
 30
0.0
 11
-30.75992584
 21
-22.7769928
 31
0.0
  0
ARC
  5
CA
330
1D
100
AcDbEntity
  8
SK1
100
AcDbCircle
 10
-30.70000458
 20
-21.57847595
 30
0.0
 40
1.19999886
100
AcDbArc
 50
180.0
 51
267.13778687
  0
LINE
  5
CB
330
1D
100
AcDbEntity
  8
1
100
AcDbLine
 10
0.0
 20
-31.49995422
 30
0.0
 11
14.62243652
 21
-31.49995422
 31
0.0
  0
ARC
  5
CC
330
1D
100
AcDbEntity
  8
SK1
100
AcDbCircle
 10
-1.60003662
 20
-24.8349762
 30
0.0
 40
0.99999994
100
AcDbArc
 50
90.00000763
 51
140.32107544
  0
LINE
  5
CD
330
1D
100
AcDbEntity
  8
SK1
100
AcDbLine
 10
-1.60003662
 20
-23.8349762
 30
0.0
 11
-0.60003662
 21
-23.8349762
 31
0.0
  0
ARC
  5
CE
330
1D
100
AcDbEntity
  8
SK1
100
AcDbCircle
 10
-0.60003662
 20
-24.8349762
 30
0.0
 40
0.99999994
100
AcDbArc
 50
53.12940597999999
 51
90.00000763
  0
ARC
  5
CF
330
1D
100
AcDbEntity
  8
1
100
AcDbCircle
 10
17.12498474
 20
-28.49995422
 30
0.0
 40
0.99999994
100
AcDbArc
 50
90.00000763
 51
180.00001526
  0
LINE
  5
D0
330
1D
100
AcDbEntity
  8
1
100
AcDbLine
 10
17.12493896
 20
-27.49995422
 30
0.0
 11
18.87493896
 21
-27.49995422
 31
0.0
  0
ARC
  5
D1
330
1D
100
AcDbEntity
  8
1
100
AcDbCircle
 10
18.87498474
 20
-28.49995422
 30
0.0
 40
0.99999994
100
AcDbArc
 50
0.0
 51
90.00000763
  0
LINE
  5
D2
330
1D
100
AcDbEntity
  8
1
100
AcDbLine
 10
19.87493896
 20
-28.89753723
 30
0.0
 11
21.37744141
 21
-31.49995422
 31
0.0
  0
LINE
  5
D3
330
1D
100
AcDbEntity
  8
1
100
AcDbLine
 10
16.12493896
 20
-28.89753723
 30
0.0
 11
14.62243652
 21
-31.49995422
 31
0.0
  0
LINE
  5
D4
330
1D
100
AcDbEntity
  8
1
100
AcDbLine
 10
21.37744141
 20
-31.49995422
 30
0.0
 11
25.99993896
 21
-31.49995422
 31
0.0
  0
ARC
  5
D5
330
1D
100
AcDbEntity
  8
1
100
AcDbCircle
 10
30.99995422
 20
-24.34999084
 30
0.0
 40
5.0
100
AcDbArc
 50
90.0
 51
180.0
  0
LINE
  5
D6
330
1D
100
AcDbEntity
  8
1
100
AcDbLine
 10
30.99993896
 20
-19.34999084
 30
0.0
 11
33.99993896
 21
-19.34999084
 31
0.0
  0
LINE
  5
D7
330
1D
100
AcDbEntity
  8
1
100
AcDbLine
 10
33.99993896
 20
-19.34999084
 30
0.0
 11
34.14993286
 21
-19.49998474
 31
0.0
  0
LINE
  5
D8
330
1D
100
AcDbEntity
  8
1
100
AcDbLine
 10
81.94995117
 20
-1.1546936
 30
0.0
 11
83.94995117
 21
-2.30938721
 31
0.0
  0
LINE
  5
D9
330
1D
100
AcDbEntity
  8
1
100
AcDbLine
 10
83.94995117
 20
-2.30938721
 30
0.0
 11
85.94996643
 21
-1.15467834
 31
0.0
  0
LINE
  5
DA
330
1D
100
AcDbEntity
  8
SK4
100
AcDbLine
 10
-6.29955292
 20
24.0
 30
0.0
 11
-6.29955292
 21
-24.0
 31
0.0
  0
LINE
  5
DB
330
1D
100
AcDbEntity
  8
SK6
100
AcDbLine
 10
2.01210594
 20
-46.34348297
 30
0.0
 11
2.01210594
 21
-48.41347504
 31
0.0
  0
ARC
  5
DC
330
1D
100
AcDbEntity
  8
SK6
100
AcDbCircle
 10
-0.86787987
 20
-49.4934845
 30
0.0
 40
1.08000004
100
AcDbArc
 50
90.00000763
 51
206.54360962
  0
LINE
  5
DD
330
1D
100
AcDbEntity
  8
SK6
100
AcDbLine
 10
-0.86787987
 20
-48.41350555
 30
0.0
 11
2.01211739
 21
-48.41350555
 31
0.0
  0
ARC
  5
DE
330
1D
100
AcDbEntity
  8
SK6
100
AcDbCircle
 10
-2.03788948
 20
-49.04347992
 30
0.0
 40
2.70000005
100
AcDbArc
 50
90.00000763
 51
206.5436554
  0
ARC
  5
DF
330
1D
100
AcDbEntity
  8
SK6
100
AcDbCircle
 10
-1.317873
 20
-58.94348907
 30
0.0
 40
1.08000004
100
AcDbArc
 50
270.0
 51
26.54360962
  0
LINE
  5
E0
330
1D
100
AcDbEntity
  8
SK6
100
AcDbLine
 10
-1.317873
 20
-60.02349091
 30
0.0
 11
-4.73787117
 21
-60.02349091
 31
0.0
  0
LINE
  5
E1
330
1D
100
AcDbEntity
  8
SK6
100
AcDbLine
 10
-4.45329094
 20
-50.25005341
 30
0.0
 11
-0.35172462
 21
-58.46084595
 31
0.0
  0
ARC
  5
E2
330
1D
100
AcDbEntity
  8
SK6
100
AcDbCircle
 10
-0.14788628
 20
-59.39349365
 30
0.0
 40
2.70000005
100
AcDbArc
 50
270.0
 51
26.54364014
  0
LINE
  5
E3
330
1D
100
AcDbEntity
  8
SK6
100
AcDbLine
 10
-1.83404732
 20
-49.97611237
 30
0.0
 11
2.26752281
 21
-58.18691254
 31
0.0
  0
LINE
  5
E4
330
1D
100
AcDbEntity
  8
SK6
100
AcDbLine
 10
-4.73789406
 20
-60.02349091
 30
0.0
 11
-4.73789406
 21
-62.09349823
 31
0.0
  0
LINE
  5
E5
330
1D
100
AcDbEntity
  8
SK6
100
AcDbLine
 10
-4.73789406
 20
-62.09349823
 30
0.0
 11
-0.14789009
 21
-62.09349823
 31
0.0
  0
LINE
  5
E6
330
1D
100
AcDbEntity
  8
SK6
100
AcDbLine
 10
4.71211052
 20
-62.09349823
 30
0.0
 11
4.71211052
 21
-46.34349823
 31
0.0
  0
LINE
  5
E7
330
1D
100
AcDbEntity
  8
SK6
100
AcDbLine
 10
12.99211693
 20
-62.09349823
 30
0.0
 11
12.99211693
 21
-46.34349823
 31
0.0
  0
LINE
  5
E8
330
1D
100
AcDbEntity
  8
SK6
100
AcDbLine
 10
12.99211693
 20
-62.09349823
 30
0.0
 11
15.69211006
 21
-62.09349823
 31
0.0
  0
LINE
  5
E9
330
1D
100
AcDbEntity
  8
SK6
100
AcDbLine
 10
15.69211006
 20
-62.09349823
 30
0.0
 11
15.69211006
 21
-55.25350189
 31
0.0
  0
ARC
  5
EA
330
1D
100
AcDbEntity
  8
SK6
100
AcDbCircle
 10
17.04212379
 20
-56.33348846
 30
0.0
 40
1.08000004
100
AcDbArc
 50
0.0
 51
90.00000763
  0
LINE
  5
EB
330
1D
100
AcDbEntity
  8
SK6
100
AcDbLine
 10
17.04212379
 20
-55.25348663
 30
0.0
 11
15.69212151
 21
-55.25348663
 31
0.0
  0
LINE
  5
EC
330
1D
100
AcDbEntity
  8
SK6
100
AcDbLine
 10
18.12210274
 20
-59.57349396
 30
0.0
 11
18.12210274
 21
-60.56348419
 31
0.0
  0
ARC
  5
ED
330
1D
100
AcDbEntity
  8
SK6
100
AcDbCircle
 10
23.25209999
 20
-60.56349182
 30
0.0
 40
2.51999998
100
AcDbArc
 50
180.0
 51
217.38319397
  0
ARC
  5
EE
330
1D
100
AcDbEntity
  8
SK6
100
AcDbCircle
 10
20.64209175
 20
-60.56349182
 30
0.0
 40
2.51999998
100
AcDbArc
 50
180.0
 51
217.38319397
  0
LINE
  5
EF
330
1D
100
AcDbEntity
  8
SK6
100
AcDbLine
 10
21.15970802
 20
-62.09349823
 30
0.0
 11
18.63970757
 21
-62.09349823
 31
0.0
  0
LINE
  5
F0
330
1D
100
AcDbEntity
  8
SK6
100
AcDbLine
 10
18.12210274
 20
-56.33350372
 30
0.0
 11
18.12210274
 21
-60.56349182
 31
0.0
  0
ARC
  5
F1
330
1D
100
AcDbEntity
  8
SK6
100
AcDbCircle
 10
18.21212196
 20
-56.5134964
 30
0.0
 40
2.51999998
100
AcDbArc
 50
358.70883179
 51
93.06652832
  0
ARC
  5
F2
330
1D
100
AcDbEntity
  8
SK6
100
AcDbCircle
 10
17.94211006
 20
-51.47349548
 30
0.0
 40
2.51999998
100
AcDbArc
 50
273.06652832
 51
0.0
  0
ARC
  5
F3
330
1D
100
AcDbEntity
  8
SK6
100
AcDbCircle
 10
17.94211006
 20
-48.8635025
 30
0.0
 40
2.51999998
100
AcDbArc
 50
0.0
 51
90.00000763
  0
LINE
  5
F4
330
1D
100
AcDbEntity
  8
SK6
100
AcDbLine
 10
20.46212196
 20
-48.8635025
 30
0.0
 11
20.46212196
 21
-51.47350311
 31
0.0
  0
ARC
  5
F5
330
1D
100
AcDbEntity
  8
SK6
100
AcDbCircle
 10
17.31211281
 20
-49.31349945
 30
0.0
 40
0.90000004
100
AcDbArc
 50
0.0
 51
90.00000763
  0
LINE
  5
F6
330
1D
100
AcDbEntity
  8
SK6
100
AcDbLine
 10
17.31211281
 20
-48.41350555
 30
0.0
 11
15.69211006
 21
-48.41350555
 31
0.0
  0
ARC
  5
F7
330
1D
100
AcDbEntity
  8
SK6
100
AcDbCircle
 10
17.31211281
 20
-52.19348907
 30
0.0
 40
0.90000004
100
AcDbArc
 50
270.0
 51
0.0
  0
LINE
  5
F8
330
1D
100
AcDbEntity
  8
SK6
100
AcDbLine
 10
18.21212196
 20
-49.31349945
 30
0.0
 11
18.21212196
 21
-52.1934967
 31
0.0
  0
LINE
  5
F9
330
1D
100
AcDbEntity
  8
SK6
100
AcDbLine
 10
15.69211006
 20
-48.41350555
 30
0.0
 11
15.69211006
 21
-53.09349823
 31
0.0
  0
LINE
  5
FA
330
1D
100
AcDbEntity
  8
SK6
100
AcDbLine
 10
17.31211281
 20
-53.09349823
 30
0.0
 11
15.69211006
 21
-53.09349823
 31
0.0
  0
LINE
  5
FB
330
1D
100
AcDbEntity
  8
SK6
100
AcDbLine
 10
20.73147011
 20
-56.57028198
 30
0.0
 11
20.73209953
 21
-60.56389618
 31
0.0
  0
LINE
  5
FC
330
1D
100
AcDbEntity
  8
SK6
100
AcDbLine
 10
21.15970802
 20
-62.09349823
 30
0.0
 11
21.24970436
 21
-62.09349823
 31
0.0
  0
LINE
  5
FD
330
1D
100
AcDbEntity
  8
SK6
100
AcDbLine
 10
-2.03788948
 20
-46.34348297
 30
0.0
 11
2.01211357
 21
-46.34348297
 31
0.0
  0
LINE
  5
FE
330
1D
100
AcDbEntity
  8
SK6
100
AcDbLine
 10
17.94211006
 20
-46.34348297
 30
0.0
 11
12.99210548
 21
-46.34348297
 31
0.0
  0
LINE
  5
FF
330
1D
100
AcDbEntity
  8
SK6
100
AcDbLine
 10
-29.03788948
 20
-62.09349823
 30
0.0
 11
-31.8278904
 21
-62.09349823
 31
0.0
  0
LINE
  5
100
330
1D
100
AcDbEntity
  8
SK6
100
AcDbLine
 10
-29.03788948
 20
-58.67350006
 30
0.0
 11
-29.03788948
 21
-62.09349823
 31
0.0
  0
LINE
  5
101
330
1D
100
AcDbEntity
  8
SK6
100
AcDbLine
 10
-27.95788765
 20
-56.60349274
 30
0.0
 11
-29.03788948
 21
-58.67350006
 31
0.0
  0
LINE
  5
102
330
1D
100
AcDbEntity
  8
SK6
100
AcDbLine
 10
-25.52789497
 20
-62.09349823
 30
0.0
 11
-27.95788765
 21
-56.60349274
 31
0.0
  0
LINE
  5
103
330
1D
100
AcDbEntity
  8
SK6
100
AcDbLine
 10
-22.73789406
 20
-62.09349823
 30
0.0
 11
-25.52788734
 21
-62.09349823
 31
0.0
  0
LINE
  5
104
330
1D
100
AcDbEntity
  8
SK6
100
AcDbLine
 10
-26.33790016
 20
-53.09349823
 30
0.0
 11
-22.73789406
 21
-62.09349823
 31
0.0
  0
LINE
  5
105
330
1D
100
AcDbEntity
  8
SK6
100
AcDbLine
 10
-23.27789497
 20
-46.34349823
 30
0.0
 11
-26.3378849
 21
-53.09349823
 31
0.0
  0
LINE
  5
106
330
1D
100
AcDbEntity
  8
SK6
100
AcDbLine
 10
-29.03788948
 20
-53.45350647
 30
0.0
 11
-26.06789589
 21
-46.34351349
 31
0.0
  0
LINE
  5
107
330
1D
100
AcDbEntity
  8
SK6
100
AcDbLine
 10
-29.03788948
 20
-46.34349823
 30
0.0
 11
-29.03788948
 21
-53.45350647
 31
0.0
  0
LINE
  5
108
330
1D
100
AcDbEntity
  8
SK6
100
AcDbLine
 10
-31.8278904
 20
-62.09349823
 30
0.0
 11
-31.8278904
 21
-46.34349823
 31
0.0
  0
LINE
  5
109
330
1D
100
AcDbEntity
  8
SK6
100
AcDbLine
 10
-26.06789589
 20
-46.34349823
 30
0.0
 11
-23.27789497
 21
-46.34349823
 31
0.0
  0
LINE
  5
10A
330
1D
100
AcDbEntity
  8
SK6
100
AcDbLine
 10
-31.8278904
 20
-46.34349823
 30
0.0
 11
-29.03788948
 21
-46.34349823
 31
0.0
  0
LINE
  5
10B
330
1D
100
AcDbEntity
  8
SK6
100
AcDbLine
 10
-9.77788353
 20
-46.34349823
 30
0.0
 11
-9.77788353
 21
-62.09349823
 31
0.0
  0
LINE
  5
10C
330
1D
100
AcDbEntity
  8
SK6
100
AcDbLine
 10
-6.89788628
 20
-62.09349823
 30
0.0
 11
-6.89788628
 21
-46.34349823
 31
0.0
  0
LINE
  5
10D
330
1D
100
AcDbEntity
  8
SK6
100
AcDbLine
 10
-9.77788353
 20
-62.09349823
 30
0.0
 11
-6.89788628
 21
-62.09349823
 31
0.0
  0
LINE
  5
10E
330
1D
100
AcDbEntity
  8
SK6
100
AcDbLine
 10
-6.89788628
 20
-46.34349823
 30
0.0
 11
-9.77789497
 21
-46.34349823
 31
0.0
  0
LINE
  5
10F
330
1D
100
AcDbEntity
  8
SK6
100
AcDbLine
 10
10.56211281
 20
-62.09349823
 30
0.0
 11
10.56211281
 21
-60.02349091
 31
0.0
  0
LINE
  5
110
330
1D
100
AcDbEntity
  8
SK6
100
AcDbLine
 10
4.71211052
 20
-62.09349823
 30
0.0
 11
10.56211281
 21
-62.09349823
 31
0.0
  0
LINE
  5
111
330
1D
100
AcDbEntity
  8
SK6
100
AcDbLine
 10
10.56210136
 20
-48.4134903
 30
0.0
 11
10.56210136
 21
-46.34349823
 31
0.0
  0
LINE
  5
112
330
1D
100
AcDbEntity
  8
SK6
100
AcDbLine
 10
7.59208488
 20
-48.4134903
 30
0.0
 11
10.56208992
 21
-48.4134903
 31
0.0
  0
LINE
  5
113
330
1D
100
AcDbEntity
  8
SK6
100
AcDbLine
 10
7.59208488
 20
-53.09349823
 30
0.0
 11
7.59208488
 21
-48.41350555
 31
0.0
  0
LINE
  5
114
330
1D
100
AcDbEntity
  8
SK6
100
AcDbLine
 10
10.56210136
 20
-53.09349823
 30
0.0
 11
7.59209633
 21
-53.09349823
 31
0.0
  0
LINE
  5
115
330
1D
100
AcDbEntity
  8
SK6
100
AcDbLine
 10
10.56210136
 20
-55.253479
 30
0.0
 11
10.56210136
 21
-53.09347534
 31
0.0
  0
LINE
  5
116
330
1D
100
AcDbEntity
  8
SK6
100
AcDbLine
 10
7.59208488
 20
-55.253479
 30
0.0
 11
10.56208992
 21
-55.253479
 31
0.0
  0
LINE
  5
117
330
1D
100
AcDbEntity
  8
SK6
100
AcDbLine
 10
7.59208488
 20
-60.02349091
 30
0.0
 11
7.59208488
 21
-55.253479
 31
0.0
  0
LINE
  5
118
330
1D
100
AcDbEntity
  8
SK6
100
AcDbLine
 10
10.56210136
 20
-60.02349091
 30
0.0
 11
7.59209633
 21
-60.02349091
 31
0.0
  0
LINE
  5
119
330
1D
100
AcDbEntity
  8
SK6
100
AcDbLine
 10
10.56210136
 20
-46.34349823
 30
0.0
 11
4.71209908
 21
-46.34349823
 31
0.0
  0
LINE
  5
11A
330
1D
100
AcDbEntity
  8
SK6
100
AcDbLine
 10
-15.35788918
 20
-62.09349823
 30
0.0
 11
-21.65789223
 21
-62.09349823
 31
0.0
  0
LINE
  5
11B
330
1D
100
AcDbEntity
  8
SK6
100
AcDbLine
 10
-15.80787849
 20
-59.57348633
 30
0.0
 11
-15.35788918
 21
-62.09348297
 31
0.0
  0
LINE
  5
11C
330
1D
100
AcDbEntity
  8
SK6
100
AcDbLine
 10
-18.68789864
 20
-59.57348633
 30
0.0
 11
-15.80790138
 21
-59.57348633
 31
0.0
  0
LINE
  5
11D
330
1D
100
AcDbEntity
  8
SK6
100
AcDbLine
 10
-17.15789223
 20
-50.21350098
 30
0.0
 11
-18.68789101
 21
-59.57350922
 31
0.0
  0
LINE
  5
11E
330
1D
100
AcDbEntity
  8
SK6
100
AcDbLine
 10
-14.09789467
 20
-62.09349823
 30
0.0
 11
-17.15789223
 21
-50.21350098
 31
0.0
  0
LINE
  5
11F
330
1D
100
AcDbEntity
  8
SK6
100
AcDbLine
 10
-11.12788582
 20
-62.09349823
 30
0.0
 11
-14.09787941
 21
-62.09349823
 31
0.0
  0
LINE
  5
120
330
1D
100
AcDbEntity
  8
SK6
100
AcDbLine
 10
-15.53788948
 20
-45.89349365
 30
0.0
 11
-11.12789726
 21
-62.09349823
 31
0.0
  0
LINE
  5
121
330
1D
100
AcDbEntity
  8
SK6
100
AcDbLine
 10
-18.59789467
 20
-45.89349365
 30
0.0
 11
-15.53789711
 21
-45.89349365
 31
0.0
  0
LINE
  5
122
330
1D
100
AcDbEntity
  8
SK6
100
AcDbLine
 10
-21.65789223
 20
-62.09349823
 30
0.0
 11
-18.59789467
 21
-45.89349365
 31
0.0
  0
LINE
  5
123
330
1D
100
AcDbEntity
  8
3
100
AcDbLine
 10
71.99995422
 20
-11.0
 30
0.0
 11
71.99995422
 21
11.0
 31
0.0
  0
LINE
  5
124
330
1D
100
AcDbEntity
  8
3
100
AcDbLine
 10
64.99995422
 20
-10.85003662
 30
0.0
 11
64.99995422
 21
10.8500061
 31
0.0
  0
LINE
  5
125
330
1D
100
AcDbEntity
  8
3
100
AcDbLine
 10
22.0
 20
9.25001526
 30
0.0
 11
22.0
 21
-9.25001526
 31
0.0
  0
LINE
  5
126
330
1D
100
AcDbEntity
  8
3
100
AcDbLine
 10
20.5
 20
9.25001526
 30
0.0
 11
20.5
 21
-9.25001526
 31
0.0
  0
LINE
  5
127
330
1D
100
AcDbEntity
  8
3
100
AcDbLine
 10
11.25
 20
8.00001526
 30
0.0
 11
11.25
 21
-8.00001526
 31
0.0
  0
LINE
  5
128
330
1D
100
AcDbEntity
  8
3
100
AcDbLine
 10
10.0
 20
17.00001526
 30
0.0
 11
10.0
 21
-17.00001526
 31
0.0
  0
LINE
  5
129
330
1D
100
AcDbEntity
  8
3
100
AcDbLine
 10
0.0
 20
17.00001526
 30
0.0
 11
0.0
 21
-17.00001526
 31
0.0
  0
LINE
  5
12A
330
1D
100
AcDbEntity
  8
SK3
100
AcDbLine
 10
-17.26403809
 20
19.88989258
 30
0.0
 11
-17.26403809
 21
-19.88998413
 31
0.0
  0
LINE
  5
12B
330
1D
100
AcDbEntity
  8
SK3
100
AcDbLine
 10
-18.99609375
 20
17.00001526
 30
0.0
 11
-18.99609375
 21
-17.00001526
 31
0.0
  0
LINE
  5
12C
330
1D
100
AcDbEntity
  8
SK3
100
AcDbLine
 10
-30.90000153
 20
-17.00001526
 30
0.0
 11
-30.90000153
 21
16.99995422
 31
0.0
  0
LINE
  5
12D
330
1D
100
AcDbEntity
  8
3
100
AcDbLine
 10
71.99995422
 20
11.0
 30
0.0
 11
93.99995422
 21
11.0
 31
0.0
  0
LINE
  5
12E
330
1D
100
AcDbEntity
  8
3
100
AcDbLine
 10
71.99995422
 20
11.0
 30
0.0
 11
71.56697083
 21
11.25
 31
0.0
  0
LINE
  5
12F
330
1D
100
AcDbEntity
  8
3
100
AcDbLine
 10
65.39994812
 20
11.25
 30
0.0
 11
71.56697083
 21
11.25
 31
0.0
  0
ARC
  5
130
330
1D
100
AcDbEntity
  8
3
100
AcDbCircle
 10
65.39994812
 20
10.85002136
 30
0.0
 40
0.40000162
100
AcDbArc
 50
90.0
 51
180.0
  0
LINE
  5
131
330
1D
100
AcDbEntity
  8
SK3
100
AcDbLine
 10
-30.90000153
 20
17.00001526
 30
0.0
 11
-31.90000153
 21
17.5773468
 31
0.0
  0
LINE
  5
132
330
1D
100
AcDbEntity
  8
SK3
100
AcDbLine
 10
-30.90000153
 20
17.00001526
 30
0.0
 11
-18.99603271
 21
17.00001526
 31
0.0
  0
LINE
  5
133
330
1D
100
AcDbEntity
  8
3
100
AcDbLine
 10
22.0
 20
3.99996948
 30
0.0
 11
64.99995422
 21
3.99996948
 31
0.0
  0
LINE
  5
134
330
1D
100
AcDbEntity
  8
3
100
AcDbLine
 10
10.0
 20
9.00001526
 30
0.0
 11
20.5
 21
9.00001526
 31
0.0
  0
LINE
  5
135
330
1D
100
AcDbEntity
  8
SK3
100
AcDbLine
 10
-16.91760254
 20
20.0
 30
0.0
 11
-6.24499512
 21
20.0
 31
0.0
  0
LINE
  5
136
330
1D
100
AcDbEntity
  8
SK3
100
AcDbLine
 10
-17.43725586
 20
19.69995117
 30
0.0
 11
-18.99609375
 21
16.99993896
 31
0.0
  0
LINE
  5
137
330
1D
100
AcDbEntity
  8
3
100
AcDbLine
 10
0.0
 20
17.00001526
 30
0.0
 11
10.0
 21
17.00001526
 31
0.0
  0
ARC
  5
138
330
1D
100
AcDbEntity
  8
SK3
100
AcDbCircle
 10
-6.24499512
 20
12.00004578
 30
0.0
 40
8.0
100
AcDbArc
 50
38.68222046
 51
90.00000763
  0
ARC
  5
139
330
1D
100
AcDbEntity
  8
SK3
100
AcDbCircle
 10
-16.91760254
 20
19.40007019
 30
0.0
 40
0.60000616
100
AcDbArc
 50
90.00000763
 51
150.00013733
  0
LINE
  5
13A
330
1D
100
AcDbEntity
  8
3
100
AcDbLine
 10
20.5
 20
9.25001526
 30
0.0
 11
22.0
 21
9.25001526
 31
0.0
  0
LINE
  5
13B
330
1D
100
AcDbEntity
  8
3
100
AcDbLine
 10
11.25
 20
8.00001526
 30
0.0
 11
20.5
 21
8.00001526
 31
0.0
  0
LINE
  5
13C
330
1D
100
AcDbEntity
  8
3
100
AcDbLine
 10
10.0
 20
9.25001526
 30
0.0
 11
11.25
 21
8.00001526
 31
0.0
  0
LINE
  5
13D
330
1D
100
AcDbEntity
  8
3
100
AcDbLine
 10
71.99995422
 20
-11.0
 30
0.0
 11
93.99995422
 21
-11.0
 31
0.0
  0
LINE
  5
13E
330
1D
100
AcDbEntity
  8
3
100
AcDbLine
 10
71.99995422
 20
-11.0
 30
0.0
 11
71.56697083
 21
-11.25
 31
0.0
  0
LINE
  5
13F
330
1D
100
AcDbEntity
  8
3
100
AcDbLine
 10
65.39994812
 20
-11.25
 30
0.0
 11
71.56697083
 21
-11.25
 31
0.0
  0
ARC
  5
140
330
1D
100
AcDbEntity
  8
3
100
AcDbCircle
 10
65.39994812
 20
-10.85003662
 30
0.0
 40
0.40000162
100
AcDbArc
 50
180.0
 51
270.0
  0
LINE
  5
141
330
1D
100
AcDbEntity
  8
SK3
100
AcDbLine
 10
-30.90000153
 20
-17.00001526
 30
0.0
 11
-31.90000153
 21
-17.5773468
 31
0.0
  0
LINE
  5
142
330
1D
100
AcDbEntity
  8
SK3
100
AcDbLine
 10
-30.90000153
 20
-17.00001526
 30
0.0
 11
-18.99603271
 21
-17.00001526
 31
0.0
  0
LINE
  5
143
330
1D
100
AcDbEntity
  8
3
100
AcDbLine
 10
22.0
 20
-3.99996948
 30
0.0
 11
64.99995422
 21
-3.99996948
 31
0.0
  0
LINE
  5
144
330
1D
100
AcDbEntity
  8
3
100
AcDbLine
 10
10.0
 20
-9.00001526
 30
0.0
 11
20.5
 21
-9.00001526
 31
0.0
  0
LINE
  5
145
330
1D
100
AcDbEntity
  8
SK3
100
AcDbLine
 10
-16.91760254
 20
-20.0
 30
0.0
 11
-6.24499512
 21
-20.0
 31
0.0
  0
LINE
  5
146
330
1D
100
AcDbEntity
  8
SK3
100
AcDbLine
 10
-17.43725586
 20
-19.69995117
 30
0.0
 11
-18.99609375
 21
-16.99993896
 31
0.0
  0
LINE
  5
147
330
1D
100
AcDbEntity
  8
3
100
AcDbLine
 10
0.0
 20
-17.00001526
 30
0.0
 11
10.0
 21
-17.00001526
 31
0.0
  0
ARC
  5
148
330
1D
100
AcDbEntity
  8
SK3
100
AcDbCircle
 10
-6.24499512
 20
-12.00007629
 30
0.0
 40
8.0
100
AcDbArc
 50
270.0
 51
321.3177795400001
  0
ARC
  5
149
330
1D
100
AcDbEntity
  8
SK3
100
AcDbCircle
 10
-16.91760254
 20
-19.40010071
 30
0.0
 40
0.60000616
100
AcDbArc
 50
209.99986267
 51
270.0
  0
LINE
  5
14A
330
1D
100
AcDbEntity
  8
3
100
AcDbLine
 10
20.5
 20
-9.25001526
 30
0.0
 11
22.0
 21
-9.25001526
 31
0.0
  0
LINE
  5
14B
330
1D
100
AcDbEntity
  8
3
100
AcDbLine
 10
11.25
 20
-8.00001526
 30
0.0
 11
20.5
 21
-8.00001526
 31
0.0
  0
LINE
  5
14C
330
1D
100
AcDbEntity
  8
3
100
AcDbLine
 10
10.0
 20
-9.25001526
 30
0.0
 11
11.25
 21
-8.00001526
 31
0.0
  0
LINE
  5
14D
330
1D
100
AcDbEntity
  8
1
100
AcDbLine
 10
93.99995422
 20
18.5
 30
0.0
 11
92.99995422
 21
19.5
 31
0.0
  0
LINE
  5
14E
330
1D
100
AcDbEntity
  8
1
100
AcDbLine
 10
34.14993286
 20
19.5
 30
0.0
 11
92.99995422
 21
19.5
 31
0.0
  0
LINE
  5
14F
330
1D
100
AcDbEntity
  8
1
100
AcDbLine
 10
93.99995422
 20
18.5
 30
0.0
 11
93.99995422
 21
-18.5
 31
0.0
  0
LINE
  5
150
330
1D
100
AcDbEntity
  8
1
100
AcDbLine
 10
93.99995422
 20
-18.49998474
 30
0.0
 11
92.99995422
 21
-19.49998474
 31
0.0
  0
LINE
  5
151
330
1D
100
AcDbEntity
  8
1
100
AcDbLine
 10
34.14993286
 20
-19.49998474
 30
0.0
 11
92.99995422
 21
-19.49998474
 31
0.0
  0
LINE
  5
1F2
330
1D
100
AcDbEntity
  8
NOCUT
100
AcDbLine
 10
16.12498480000004
 20
28.49992397633723
 30
0.0
 11
16.12498480000004
 21
28.90913538226632
 31
0.0
  0
LINE
  5
1F3
330
1D
100
AcDbEntity
  8
NOCUT
100
AcDbLine
 10
16.12498480000004
 20
28.90913538226632
 30
0.0
 11
14.62243652
 21
31.49995422
 31
0.0
  0
LINE
  5
1F4
330
1D
100
AcDbEntity
  8
NOCUT
100
AcDbLine
 10
14.62243652
 20
31.49995422
 30
0.0
 11
0.0
 21
31.49995422
 31
0.0
  0
LINE
  5
1F6
330
1D
100
AcDbEntity
  8
NOCUT
100
AcDbLine
 10
0.0
 20
0.0
 30
0.0
 11
93.99995422
 21
0.0
 31
0.0
  0
LINE
  5
1F7
330
1D
100
AcDbEntity
  8
NOCUT
100
AcDbLine
 10
93.99995422
 20
0.0
 30
0.0
 11
93.99995422
 21
18.5
 31
0.0
  0
LINE
  5
1F8
330
1D
100
AcDbEntity
  8
NOCUT
100
AcDbLine
 10
93.99995422
 20
18.5
 30
0.0
 11
92.99995422
 21
19.5
 31
0.0
  0
LINE
  5
1F9
330
1D
100
AcDbEntity
  8
NOCUT
100
AcDbLine
 10
92.99995422
 20
19.5
 30
0.0
 11
34.14993286
 21
19.5
 31
0.0
  0
LINE
  5
1FA
330
1D
100
AcDbEntity
  8
NOCUT
100
AcDbLine
 10
34.14993286
 20
19.5
 30
0.0
 11
33.99993896
 21
19.34999084
 31
0.0
  0
LINE
  5
1FB
330
1D
100
AcDbEntity
  8
NOCUT
100
AcDbLine
 10
33.99993896
 20
19.34999084
 30
0.0
 11
30.99993896
 21
19.34999084
 31
0.0
  0
LINE
  5
1FC
330
1D
100
AcDbEntity
  8
NOCUT
100
AcDbLine
 10
25.99993896
 20
24.33613586
 30
0.0
 11
25.99993896
 21
31.49995422
 31
0.0
  0
LINE
  5
1FD
330
1D
100
AcDbEntity
  8
NOCUT
100
AcDbLine
 10
25.99993896
 20
31.49995422
 30
0.0
 11
21.37744141
 21
31.49995422
 31
0.0
  0
LINE
  5
1FE
330
1D
100
AcDbEntity
  8
NOCUT
100
AcDbLine
 10
21.37744141
 20
31.49995422
 30
0.0
 11
19.87493896
 21
28.89753723
 31
0.0
  0
LINE
  5
1FF
330
1D
100
AcDbEntity
  8
NOCUT
100
AcDbLine
 10
19.87493896
 20
28.89753723
 30
0.0
 11
19.87493896
 21
28.49036139311602
 31
0.0
  0
LINE
  5
200
330
1D
100
AcDbEntity
  8
NOCUT
100
AcDbLine
 10
18.87493896
 20
27.49995422
 30
0.0
 11
17.12493896
 21
27.49995422
 31
0.0
  0
ARC
  5
201
330
1D
100
AcDbEntity
  8
NOCUT
100
AcDbCircle
 10
17.12498474
 20
28.49992371
 30
0.0
 40
0.999999939999998
100
AcDbArc
 50
179.99998474
 51
270.0
  0
ARC
  5
202
330
1D
100
AcDbEntity
  8
NOCUT
100
AcDbCircle
 10
18.87503671364031
 20
28.4999021818133
 30
0.0
 40
0.9999479665914336
100
AcDbArc
 50
269.9943988375219
 51
0.0012335384239863
  0
ARC
  5
203
330
1D
100
AcDbEntity
  8
NOCUT
100
AcDbCircle
 10
30.9999786698394
 20
24.35003461713387
 30
0.0
 40
5.000059027193648
100
AcDbArc
 50
180.1592663497475
 51
269.9997198287861
  0
LWPOLYLINE
  5
20A
330
1D
100
AcDbEntity
  8
INFTOTAL
100
AcDbPolyline
 90
        4
 70
     1
 43
0.0
 10
-74.24007319635729
 20
60.37272754168116
 10
-74.24007319635729
 20
-70.83176900103955
 10
130.7521239336799
 20
-70.83176900103955
 10
130.7521239336799
 20
60.37272754168116
  0
LINE
  5
22A
330
1D
100
AcDbEntity
  8
4
100
AcDbLine
 10
95.99995422
 20
0.0
 30
0.0
 11
0.0
 21
0.0
 31
0.0
  0
LINE
  5
245
330
1D
100
AcDbEntity
  8
4
100
AcDbLine
 10
83.94995117
 20
-6.0
 30
0.0
 11
83.94995117
 21
6.0
 31
0.0
  0
LINE
  5
248
330
1D
100
AcDbEntity
  8
SK1
100
AcDbLine
 10
-0.0000267729567411
 20
24.03495314037783
 30
0.0
 11
-0.0000269328274214
 21
-24.03498354047176
 31
0.0
  0
LINE
  5
24E
330
1D
100
AcDbEntity
  8
NOCUT
100
AcDbLine
 10
0.0
 20
31.49995422
 30
0.0
 11
0.0
 21
0.0
 31
0.0
  0
ENDSEC
  0
SECTION
  2
OBJECTS
  0
DICTIONARY
  5
C
330
0
100
AcDbDictionary
281
     1
  3
ACAD_DETAILVIEWSTYLE
350
207
  3
ACAD_GROUP
350
D
  3
ACAD_LAYOUT
350
1A
  3
ACAD_MLINESTYLE
350
17
  3
ACAD_PLOTSETTINGS
350
19
  3
ACAD_PLOTSTYLENAME
350
E
  3
ACAD_SCALELIST
350
158
  3
ACAD_SECTIONVIEWSTYLE
350
208
  3
AcDbVariableDictionary
350
19A
  3
APPDATA
350
1E8
  3
DWGPROPS
350
262
  0
DICTIONARY
  5
1E9
330
2
100
AcDbDictionary
280
     1
281
     1
  3
ACAD_LAYERSTATES
360
1EA
  0
DICTIONARY
  5
207
102
{ACAD_REACTORS
330
C
102
}
330
C
100
AcDbDictionary
281
     1
  0
DICTIONARY
  5
D
102
{ACAD_REACTORS
330
C
102
}
330
C
100
AcDbDictionary
281
     1
  0
DICTIONARY
  5
1A
102
{ACAD_REACTORS
330
C
102
}
330
C
100
AcDbDictionary
281
     1
  3
Layout1
350
1C
  3
Model
350
1E
  0
DICTIONARY
  5
17
102
{ACAD_REACTORS
330
C
102
}
330
C
100
AcDbDictionary
281
     1
  3
Standard
350
18
  0
DICTIONARY
  5
19
102
{ACAD_REACTORS
330
C
102
}
330
C
100
AcDbDictionary
281
     1
  0
ACDBDICTIONARYWDFLT
  5
E
102
{ACAD_REACTORS
330
C
102
}
330
C
100
AcDbDictionary
281
     1
  3
Normal
350
F
100
AcDbDictionaryWithDefault
340
F
  0
DICTIONARY
  5
158
102
{ACAD_REACTORS
330
C
102
}
330
C
100
AcDbDictionary
281
     1
  3
A0
350
159
  3
A1
350
15A
  3
A2
350
15B
  3
A3
350
15C
  3
A4
350
15D
  3
A5
350
15E
  3
A6
350
15F
  3
A7
350
160
  3
A8
350
161
  3
A9
350
162
  3
B0
350
163
  3
B1
350
164
  3
B2
350
165
  3
B3
350
166
  3
B4
350
167
  3
B5
350
168
  3
B6
350
169
  3
B7
350
16A
  3
B8
350
16B
  3
B9
350
16C
  3
C0
350
16D
  3
C1
350
16E
  3
C2
350
16F
  3
C3
350
170
  3
C4
350
171
  3
C5
350
172
  3
C6
350
173
  3
C7
350
174
  3
C8
350
175
  3
C9
350
176
  3
D0
350
177
  3
D1
350
178
  3
D2
350
179
  0
DICTIONARY
  5
208
102
{ACAD_REACTORS
330
C
102
}
330
C
100
AcDbDictionary
281
     1
  0
DICTIONARY
  5
19A
102
{ACAD_REACTORS
330
C
102
}
330
C
100
AcDbDictionary
281
     1
  3
DIMASSOC
350
19E
  3
HIDETEXT
350
19F
  0
DICTIONARY
  5
1E8
102
{ACAD_REACTORS
330
C
102
}
330
C
100
AcDbDictionary
281
     1
  0
XRECORD
  5
262
102
{ACAD_REACTORS
330
C
102
}
330
C
100
AcDbXrecord
280
     1
  1
DWGPROPS COOKIE
  2

  3

  4

  6

  7

  8
matthias.ochs
  9

300
=
301
=
302
=
303
=
304
=
305
=
306
=
307
=
308
=
309
=
 40
0.0
 41
2458327.466039167
 42
2458590.610553299
  1

 90
        0
  0
DICTIONARY
  5
1EA
102
{ACAD_REACTORS
330
1E9
102
}
330
1E9
100
AcDbDictionary
281
     1
  0
LAYOUT
  5
1C
102
{ACAD_REACTORS
330
1A
102
}
330
1A
100
AcDbPlotSettings
  1

  2
none_device
  4

  6

 40
0.0
 41
0.0
 42
0.0
 43
0.0
 44
0.0
 45
0.0
 46
0.0
 47
0.0
 48
0.0
 49
0.0
140
0.0
141
0.0
142
1.0
143
1.0
 70
   688
 72
     0
 73
     0
 74
     5
  7

 75
    16
147
1.0
148
0.0
149
0.0
100
AcDbLayout
  1
Layout1
 70
     1
 71
     1
 10
0.0
 20
0.0
 11
12.0
 21
9.0
 12
0.0
 22
0.0
 32
0.0
 14
1.000000000000000E+20
 24
1.000000000000000E+20
 34
1.000000000000000E+20
 15
-1.000000000000000E+20
 25
-1.000000000000000E+20
 35
-1.000000000000000E+20
146
0.0
 13
0.0
 23
0.0
 33
0.0
 16
1.0
 26
0.0
 36
0.0
 17
0.0
 27
1.0
 37
0.0
 76
     0
330
1B
  0
LAYOUT
  5
1E
102
{ACAD_REACTORS
330
1A
102
}
330
1A
100
AcDbPlotSettings
  1

  2
none_device
  4

  6

 40
0.0
 41
0.0
 42
0.0
 43
0.0
 44
0.0
 45
0.0
 46
0.0
 47
0.0
 48
0.0
 49
0.0
140
0.0
141
0.0
142
1.0
143
1.0
 70
  1712
 72
     0
 73
     0
 74
     0
  7

 75
     0
147
1.0
148
0.0
149
0.0
100
AcDbLayout
  1
Model
 70
     1
 71
     0
 10
0.0
 20
0.0
 11
12.0
 21
9.0
 12
0.0
 22
0.0
 32
0.0
 14
-74.24007319635729
 24
-70.83176900103955
 34
0.0
 15
130.7521239336799
 25
60.37272754168116
 35
0.0
146
0.0
 13
0.0
 23
0.0
 33
0.0
 16
1.0
 26
0.0
 36
0.0
 17
0.0
 27
1.0
 37
0.0
 76
     0
330
1D
331
152
  0
MLINESTYLE
  5
18
102
{ACAD_REACTORS
330
17
102
}
330
17
100
AcDbMlineStyle
  2
Standard
 70
     0
  3

 62
   256
 51
90.0
 52
90.0
 71
     2
 49
0.5
 62
   256
  6
BYLAYER
 49
-0.5
 62
   256
  6
BYLAYER
  0
ACDBPLACEHOLDER
  5
F
102
{ACAD_REACTORS
330
E
102
}
330
E
  0
SCALE
  5
159
102
{ACAD_REACTORS
330
158
102
}
330
158
100
AcDbScale
 70
     0
300
1:1
140
1.0
141
1.0
290
     1
  0
SCALE
  5
15A
102
{ACAD_REACTORS
330
158
102
}
330
158
100
AcDbScale
 70
     0
300
1:2
140
1.0
141
2.0
290
     0
  0
SCALE
  5
15B
102
{ACAD_REACTORS
330
158
102
}
330
158
100
AcDbScale
 70
     0
300
1:4
140
1.0
141
4.0
290
     0
  0
SCALE
  5
15C
102
{ACAD_REACTORS
330
158
102
}
330
158
100
AcDbScale
 70
     0
300
1:5
140
1.0
141
5.0
290
     0
  0
SCALE
  5
15D
102
{ACAD_REACTORS
330
158
102
}
330
158
100
AcDbScale
 70
     0
300
1:8
140
1.0
141
8.0
290
     0
  0
SCALE
  5
15E
102
{ACAD_REACTORS
330
158
102
}
330
158
100
AcDbScale
 70
     0
300
1:10
140
1.0
141
10.0
290
     0
  0
SCALE
  5
15F
102
{ACAD_REACTORS
330
158
102
}
330
158
100
AcDbScale
 70
     0
300
1:16
140
1.0
141
16.0
290
     0
  0
SCALE
  5
160
102
{ACAD_REACTORS
330
158
102
}
330
158
100
AcDbScale
 70
     0
300
1:20
140
1.0
141
20.0
290
     0
  0
SCALE
  5
161
102
{ACAD_REACTORS
330
158
102
}
330
158
100
AcDbScale
 70
     0
300
1:30
140
1.0
141
30.0
290
     0
  0
SCALE
  5
162
102
{ACAD_REACTORS
330
158
102
}
330
158
100
AcDbScale
 70
     0
300
1:40
140
1.0
141
40.0
290
     0
  0
SCALE
  5
163
102
{ACAD_REACTORS
330
158
102
}
330
158
100
AcDbScale
 70
     0
300
1:50
140
1.0
141
50.0
290
     0
  0
SCALE
  5
164
102
{ACAD_REACTORS
330
158
102
}
330
158
100
AcDbScale
 70
     0
300
1:100
140
1.0
141
100.0
290
     0
  0
SCALE
  5
165
102
{ACAD_REACTORS
330
158
102
}
330
158
100
AcDbScale
 70
     0
300
2:1
140
2.0
141
1.0
290
     0
  0
SCALE
  5
166
102
{ACAD_REACTORS
330
158
102
}
330
158
100
AcDbScale
 70
     0
300
4:1
140
4.0
141
1.0
290
     0
  0
SCALE
  5
167
102
{ACAD_REACTORS
330
158
102
}
330
158
100
AcDbScale
 70
     0
300
8:1
140
8.0
141
1.0
290
     0
  0
SCALE
  5
168
102
{ACAD_REACTORS
330
158
102
}
330
158
100
AcDbScale
 70
     0
300
10:1
140
10.0
141
1.0
290
     0
  0
SCALE
  5
169
102
{ACAD_REACTORS
330
158
102
}
330
158
100
AcDbScale
 70
     0
300
100:1
140
100.0
141
1.0
290
     0
  0
SCALE
  5
16A
102
{ACAD_REACTORS
330
158
102
}
330
158
100
AcDbScale
 70
     0
300
1/128" = 1'-0"
140
0.0078125
141
12.0
290
     0
  0
SCALE
  5
16B
102
{ACAD_REACTORS
330
158
102
}
330
158
100
AcDbScale
 70
     0
300
1/64" = 1'-0"
140
0.015625
141
12.0
290
     0
  0
SCALE
  5
16C
102
{ACAD_REACTORS
330
158
102
}
330
158
100
AcDbScale
 70
     0
300
1/32" = 1'-0"
140
0.03125
141
12.0
290
     0
  0
SCALE
  5
16D
102
{ACAD_REACTORS
330
158
102
}
330
158
100
AcDbScale
 70
     0
300
1/16" = 1'-0"
140
0.0625
141
12.0
290
     0
  0
SCALE
  5
16E
102
{ACAD_REACTORS
330
158
102
}
330
158
100
AcDbScale
 70
     0
300
3/32" = 1'-0"
140
0.09375
141
12.0
290
     0
  0
SCALE
  5
16F
102
{ACAD_REACTORS
330
158
102
}
330
158
100
AcDbScale
 70
     0
300
1/8" = 1'-0"
140
0.125
141
12.0
290
     0
  0
SCALE
  5
170
102
{ACAD_REACTORS
330
158
102
}
330
158
100
AcDbScale
 70
     0
300
3/16" = 1'-0"
140
0.1875
141
12.0
290
     0
  0
SCALE
  5
171
102
{ACAD_REACTORS
330
158
102
}
330
158
100
AcDbScale
 70
     0
300
1/4" = 1'-0"
140
0.25
141
12.0
290
     0
  0
SCALE
  5
172
102
{ACAD_REACTORS
330
158
102
}
330
158
100
AcDbScale
 70
     0
300
3/8" = 1'-0"
140
0.375
141
12.0
290
     0
  0
SCALE
  5
173
102
{ACAD_REACTORS
330
158
102
}
330
158
100
AcDbScale
 70
     0
300
1/2" = 1'-0"
140
0.5
141
12.0
290
     0
  0
SCALE
  5
174
102
{ACAD_REACTORS
330
158
102
}
330
158
100
AcDbScale
 70
     0
300
3/4" = 1'-0"
140
0.75
141
12.0
290
     0
  0
SCALE
  5
175
102
{ACAD_REACTORS
330
158
102
}
330
158
100
AcDbScale
 70
     0
300
1" = 1'-0"
140
1.0
141
12.0
290
     0
  0
SCALE
  5
176
102
{ACAD_REACTORS
330
158
102
}
330
158
100
AcDbScale
 70
     0
300
1-1/2" = 1'-0"
140
1.5
141
12.0
290
     0
  0
SCALE
  5
177
102
{ACAD_REACTORS
330
158
102
}
330
158
100
AcDbScale
 70
     0
300
3" = 1'-0"
140
3.0
141
12.0
290
     0
  0
SCALE
  5
178
102
{ACAD_REACTORS
330
158
102
}
330
158
100
AcDbScale
 70
     0
300
6" = 1'-0"
140
6.0
141
12.0
290
     0
  0
SCALE
  5
179
102
{ACAD_REACTORS
330
158
102
}
330
158
100
AcDbScale
 70
     0
300
1'-0" = 1'-0"
140
12.0
141
12.0
290
     0
  0
DICTIONARYVAR
  5
19E
102
{ACAD_REACTORS
330
19A
102
}
330
19A
100
DictionaryVariables
280
     0
  1
2
  0
DICTIONARYVAR
  5
19F
102
{ACAD_REACTORS
330
19A
102
}
330
19A
100
DictionaryVariables
280
     0
  1
1
  0
ENDSEC
  0
EOF
