  0
SECTION
  2
HEADER
  9
$ACADVER
  1
AC1015
  9
$ACADMAINTVER
 70
     6
  9
$DWGCODEPAGE
  3
ANSI_1252
  9
$INSBASE
 10
0.0
 20
0.0
 30
0.0
  9
$EXTMIN
 10
-84.91861686003676
 20
-81.80437621035507
 30
0.0
  9
$EXTMAX
 10
136.7204380752688
 20
63.6132148018434
 30
0.0
  9
$LIMMIN
 10
-88.472162601
 20
-56.96643776
  9
$LIMMAX
 10
138.96882239
 20
43.797026122
  9
$ORTHOMODE
 70
     0
  9
$REGENMODE
 70
     1
  9
$FILLMODE
 70
     1
  9
$QTEXTMODE
 70
     0
  9
$MIRRTEXT
 70
     1
  9
$LTSCALE
 40
1.0
  9
$ATTMODE
 70
     1
  9
$TEXTSIZE
 40
0.2
  9
$TRACEWID
 40
0.05
  9
$TEXTSTYLE
  7
Standard
  9
$CLAYER
  8
CUT
  9
$CELTYPE
  6
ByLayer
  9
$CECOLOR
 62
   256
  9
$CELTSCALE
 40
1.0
  9
$DISPSILH
 70
     0
  9
$DIMSCALE
 40
1.0
  9
$DIMASZ
 40
0.18
  9
$DIMEXO
 40
0.0625
  9
$DIMDLI
 40
0.38
  9
$DIMRND
 40
0.0
  9
$DIMDLE
 40
0.0
  9
$DIMEXE
 40
0.18
  9
$DIMTP
 40
0.0
  9
$DIMTM
 40
0.0
  9
$DIMTXT
 40
0.18
  9
$DIMCEN
 40
0.09
  9
$DIMTSZ
 40
0.0
  9
$DIMTOL
 70
     0
  9
$DIMLIM
 70
     0
  9
$DIMTIH
 70
     1
  9
$DIMTOH
 70
     1
  9
$DIMSE1
 70
     0
  9
$DIMSE2
 70
     0
  9
$DIMTAD
 70
     0
  9
$DIMZIN
 70
     0
  9
$DIMBLK
  1

  9
$DIMASO
 70
     1
  9
$DIMSHO
 70
     1
  9
$DIMPOST
  1

  9
$DIMAPOST
  1

  9
$DIMALT
 70
     0
  9
$DIMALTD
 70
     2
  9
$DIMALTF
 40
25.4
  9
$DIMLFAC
 40
1.0
  9
$DIMTOFL
 70
     0
  9
$DIMTVP
 40
0.0
  9
$DIMTIX
 70
     0
  9
$DIMSOXD
 70
     0
  9
$DIMSAH
 70
     0
  9
$DIMBLK1
  1

  9
$DIMBLK2
  1

  9
$DIMSTYLE
  2
Standard
  9
$DIMCLRD
 70
     0
  9
$DIMCLRE
 70
     0
  9
$DIMCLRT
 70
     0
  9
$DIMTFAC
 40
1.0
  9
$DIMGAP
 40
0.09
  9
$DIMJUST
 70
     0
  9
$DIMSD1
 70
     0
  9
$DIMSD2
 70
     0
  9
$DIMTOLJ
 70
     1
  9
$DIMTZIN
 70
     0
  9
$DIMALTZ
 70
     0
  9
$DIMALTTZ
 70
     0
  9
$DIMUPT
 70
     0
  9
$DIMDEC
 70
     4
  9
$DIMTDEC
 70
     4
  9
$DIMALTU
 70
     2
  9
$DIMALTTD
 70
     2
  9
$DIMTXSTY
  7
Standard
  9
$DIMAUNIT
 70
     0
  9
$DIMADEC
 70
     0
  9
$DIMALTRND
 40
0.0
  9
$DIMAZIN
 70
     0
  9
$DIMDSEP
 70
    46
  9
$DIMATFIT
 70
     3
  9
$DIMFRAC
 70
     0
  9
$DIMLDRBLK
  1

  9
$DIMLUNIT
 70
     2
  9
$DIMLWD
 70
    -2
  9
$DIMLWE
 70
    -2
  9
$DIMTMOVE
 70
     2
  9
$LUNITS
 70
     2
  9
$LUPREC
 70
     4
  9
$SKETCHINC
 40
0.1
  9
$FILLETRAD
 40
0.5
  9
$AUNITS
 70
     2
  9
$AUPREC
 70
     0
  9
$MENU
  1
.
  9
$ELEVATION
 40
0.0
  9
$PELEVATION
 40
0.0
  9
$THICKNESS
 40
0.0
  9
$LIMCHECK
 70
     0
  9
$CHAMFERA
 40
0.5
  9
$CHAMFERB
 40
0.5
  9
$CHAMFERC
 40
1.0
  9
$CHAMFERD
 40
0.0
  9
$SKPOLY
 70
     0
  9
$TDCREATE
 40
2458327.549370706
  9
$TDUCREATE
 40
2458327.466037373
  9
$TDUPDATE
 40
2458589.612526887
  9
$TDUUPDATE
 40
2458589.529193553
  9
$TDINDWG
 40
0.0889558565
  9
$TDUSRTIMER
 40
0.0000917014
  9
$USRTIMER
 70
     1
  9
$ANGBASE
 50
0.0
  9
$ANGDIR
 70
     0
  9
$PDMODE
 70
     0
  9
$PDSIZE
 40
0.0
  9
$PLINEWID
 40
0.0
  9
$SPLFRAME
 70
     0
  9
$SPLINETYPE
 70
     6
  9
$SPLINESEGS
 70
     8
  9
$HANDSEED
  5
2DC
  9
$SURFTAB1
 70
     6
  9
$SURFTAB2
 70
     6
  9
$SURFTYPE
 70
     6
  9
$SURFU
 70
     6
  9
$SURFV
 70
     6
  9
$UCSBASE
  2

  9
$UCSNAME
  2

  9
$UCSORG
 10
0.0
 20
0.0
 30
0.0
  9
$UCSXDIR
 10
1.0
 20
0.0
 30
0.0
  9
$UCSYDIR
 10
0.0
 20
1.0
 30
0.0
  9
$UCSORTHOREF
  2

  9
$UCSORTHOVIEW
 70
     0
  9
$UCSORGTOP
 10
0.0
 20
0.0
 30
0.0
  9
$UCSORGBOTTOM
 10
0.0
 20
0.0
 30
0.0
  9
$UCSORGLEFT
 10
0.0
 20
0.0
 30
0.0
  9
$UCSORGRIGHT
 10
0.0
 20
0.0
 30
0.0
  9
$UCSORGFRONT
 10
0.0
 20
0.0
 30
0.0
  9
$UCSORGBACK
 10
0.0
 20
0.0
 30
0.0
  9
$PUCSBASE
  2

  9
$PUCSNAME
  2

  9
$PUCSORG
 10
0.0
 20
0.0
 30
0.0
  9
$PUCSXDIR
 10
1.0
 20
0.0
 30
0.0
  9
$PUCSYDIR
 10
0.0
 20
1.0
 30
0.0
  9
$PUCSORTHOREF
  2

  9
$PUCSORTHOVIEW
 70
     0
  9
$PUCSORGTOP
 10
0.0
 20
0.0
 30
0.0
  9
$PUCSORGBOTTOM
 10
0.0
 20
0.0
 30
0.0
  9
$PUCSORGLEFT
 10
0.0
 20
0.0
 30
0.0
  9
$PUCSORGRIGHT
 10
0.0
 20
0.0
 30
0.0
  9
$PUCSORGFRONT
 10
0.0
 20
0.0
 30
0.0
  9
$PUCSORGBACK
 10
0.0
 20
0.0
 30
0.0
  9
$USERI1
 70
     0
  9
$USERI2
 70
     0
  9
$USERI3
 70
     0
  9
$USERI4
 70
     0
  9
$USERI5
 70
     0
  9
$USERR1
 40
0.0
  9
$USERR2
 40
0.0
  9
$USERR3
 40
0.0
  9
$USERR4
 40
0.0
  9
$USERR5
 40
0.0
  9
$WORLDVIEW
 70
     1
  9
$SHADEDGE
 70
     3
  9
$SHADEDIF
 70
    70
  9
$TILEMODE
 70
     1
  9
$MAXACTVP
 70
    64
  9
$PINSBASE
 10
0.0
 20
0.0
 30
0.0
  9
$PLIMCHECK
 70
     0
  9
$PEXTMIN
 10
1.000000000000000E+20
 20
1.000000000000000E+20
 30
1.000000000000000E+20
  9
$PEXTMAX
 10
-1.000000000000000E+20
 20
-1.000000000000000E+20
 30
-1.000000000000000E+20
  9
$PLIMMIN
 10
0.0
 20
0.0
  9
$PLIMMAX
 10
0.0
 20
0.0
  9
$UNITMODE
 70
     0
  9
$VISRETAIN
 70
     1
  9
$PLINEGEN
 70
     0
  9
$PSLTSCALE
 70
     1
  9
$TREEDEPTH
 70
  3020
  9
$CMLSTYLE
  2
Standard
  9
$CMLJUST
 70
     0
  9
$CMLSCALE
 40
1.0
  9
$PROXYGRAPHICS
 70
     1
  9
$MEASUREMENT
 70
     0
  9
$CELWEIGHT
370
    -1
  9
$ENDCAPS
280
     0
  9
$JOINSTYLE
280
     0
  9
$LWDISPLAY
290
     0
  9
$INSUNITS
 70
     0
  9
$HYPERLINKBASE
  1

  9
$STYLESHEET
  1

  9
$XEDIT
290
     1
  9
$CEPSNTYPE
380
     0
  9
$PSTYLEMODE
290
     1
  9
$FINGERPRINTGUID
  2
{68A0C87C-A48D-4AC6-88FD-1E0275D3EAC7}
  9
$VERSIONGUID
  2
{FAEB1C32-E019-11D5-929B-00C0DF256EC4}
  9
$EXTNAMES
290
     1
  9
$PSVPSCALE
 40
0.0
  9
$OLESTARTUP
290
     0
  0
ENDSEC
  0
SECTION
  2
CLASSES
  0
CLASS
  1
ACDBDICTIONARYWDFLT
  2
AcDbDictionaryWithDefault
  3
ObjectDBX Classes
 90
        0
280
     0
281
     0
  0
CLASS
  1
SCALE
  2
AcDbScale
  3
ObjectDBX Classes
 90
     1153
280
     0
281
     0
  0
CLASS
  1
VISUALSTYLE
  2
AcDbVisualStyle
  3
ObjectDBX Classes
 90
     4095
280
     0
281
     0
  0
CLASS
  1
MATERIAL
  2
AcDbMaterial
  3
ObjectDBX Classes
 90
     1153
280
     0
281
     0
  0
CLASS
  1
DICTIONARYVAR
  2
AcDbDictionaryVar
  3
ObjectDBX Classes
 90
        0
280
     0
281
     0
  0
CLASS
  1
ACDBPLACEHOLDER
  2
AcDbPlaceHolder
  3
ObjectDBX Classes
 90
        0
280
     0
281
     0
  0
CLASS
  1
LAYOUT
  2
AcDbLayout
  3
ObjectDBX Classes
 90
        0
280
     0
281
     0
  0
CLASS
  1
TABLESTYLE
  2
AcDbTableStyle
  3
ObjectDBX Classes
 90
     4095
280
     0
281
     0
  0
CLASS
  1
MLEADERSTYLE
  2
AcDbMLeaderStyle
  3
ACDB_MLEADERSTYLE_CLASS
 90
     4095
280
     0
281
     0
  0
CLASS
  1
SUN
  2
AcDbSun
  3
SCENEOE
 90
     1153
280
     0
281
     0
  0
CLASS
  1
CELLSTYLEMAP
  2
AcDbCellStyleMap
  3
ObjectDBX Classes
 90
     1152
280
     0
281
     0
  0
ENDSEC
  0
SECTION
  2
TABLES
  0
TABLE
  2
VPORT
  5
8
330
0
100
AcDbSymbolTable
 70
     1
  0
VPORT
  5
127
330
8
100
AcDbSymbolTableRecord
100
AcDbViewportTableRecord
  2
*Active
 70
     0
 10
0.0
 20
0.0
 11
1.0
 21
1.0
 12
36.27085777748468
 22
22.89018155162481
 13
0.0
 23
0.0
 14
0.5
 24
0.5
 15
0.5
 25
0.5
 16
0.0
 26
0.0
 36
1.0
 17
0.0
 27
0.0
 37
0.0
 40
216.2972870028796
 41
1.70021645021645
 42
50.0
 43
0.0
 44
0.0
 50
0.0
 51
0.0
 71
    16
 72
   100
 73
     1
 74
     3
 75
     0
 76
     0
 77
     0
 78
     0
281
     0
 65
     1
110
0.0
120
0.0
130
0.0
111
1.0
121
0.0
131
0.0
112
0.0
122
1.0
132
0.0
 79
     0
146
0.0
  0
ENDTAB
  0
TABLE
  2
LTYPE
  5
5
330
0
100
AcDbSymbolTable
 70
     8
  0
LTYPE
  5
14
330
5
100
AcDbSymbolTableRecord
100
AcDbLinetypeTableRecord
  2
ByBlock
 70
     0
  3

 72
    65
 73
     0
 40
0.0
  0
LTYPE
  5
15
330
5
100
AcDbSymbolTableRecord
100
AcDbLinetypeTableRecord
  2
ByLayer
 70
     0
  3

 72
    65
 73
     0
 40
0.0
  0
LTYPE
  5
16
330
5
100
AcDbSymbolTableRecord
100
AcDbLinetypeTableRecord
  2
Continuous
 70
     0
  3
Solid line
 72
    65
 73
     0
 40
0.0
  0
LTYPE
  5
20
330
5
100
AcDbSymbolTableRecord
100
AcDbLinetypeTableRecord
  2
PUNKT
 70
     0
  3
..............
 72
    65
 73
     2
 40
1.5
 49
0.7
 74
     0
 49
-0.8
 74
     0
  0
LTYPE
  5
21
330
5
100
AcDbSymbolTableRecord
100
AcDbLinetypeTableRecord
  2
GESTRICHELT
 70
     0
  3
-- -- -- -- --
 72
    65
 73
     7
 40
2.8
 49
0.9
 74
     0
 49
0.0
 74
     0
 49
0.9
 74
     0
 49
0.0
 74
     0
 49
0.2
 74
     0
 49
0.0
 74
     0
 49
-0.8
 74
     0
  0
LTYPE
  5
22
330
5
100
AcDbSymbolTableRecord
100
AcDbLinetypeTableRecord
  2
STRICHPUNKT
 70
     0
  3
--.--.--.--.--
 72
    65
 73
     4
 40
8.8
 49
5.5
 74
     0
 49
-1.3
 74
     0
 49
0.7
 74
     0
 49
-1.3
 74
     0
  0
LTYPE
  5
25
330
5
100
AcDbSymbolTableRecord
100
AcDbLinetypeTableRecord
  2
PHANTOM
 70
     0
  3
--..--..--..--
 72
    65
 73
     6
 40
14.2
 49
7.0
 74
     0
 49
-1.8
 74
     0
 49
0.9
 74
     0
 49
-1.8
 74
     0
 49
0.9
 74
     0
 49
-1.8
 74
     0
  0
LTYPE
  5
19F
330
5
100
AcDbSymbolTableRecord
100
AcDbLinetypeTableRecord
  2
DASH
 70
     0
  3
DASH _ _ _ _ _
 72
    65
 73
     2
 40
0.75
 49
0.4
 74
     0
 49
-0.35
 74
     0
  0
LTYPE
  5
1A0
330
5
100
AcDbSymbolTableRecord
100
AcDbLinetypeTableRecord
  2
LONGDASH_DASH
 70
     0
  3
LONGDASH_DASH __ . __ . __
 72
    65
 73
     4
 40
0.85
 49
0.4
 74
     0
 49
-0.2
 74
     0
 49
0.05
 74
     0
 49
-0.2
 74
     0
  0
LTYPE
  5
1A1
330
5
100
AcDbSymbolTableRecord
100
AcDbLinetypeTableRecord
  2
LONGDASH_DASH_DASH
 70
     0
  3
LONGDASH_DASH_DASH __ . . __ . . __
 72
    65
 73
     6
 40
1.1
 49
0.4
 74
     0
 49
-0.2
 74
     0
 49
0.05
 74
     0
 49
-0.2
 74
     0
 49
0.05
 74
     0
 49
-0.2
 74
     0
  0
ENDTAB
  0
TABLE
  2
LAYER
  5
2
102
{ACAD_XDICTIONARY
360
1BE
102
}
330
0
100
AcDbSymbolTable
 70
    15
  0
LAYER
  5
169
330
2
100
AcDbSymbolTableRecord
100
AcDbLayerTableRecord
  2
200
 70
     0
 62
     2
  6
Continuous
370
    50
390
F
  0
LAYER
  5
1A2
330
2
100
AcDbSymbolTableRecord
100
AcDbLayerTableRecord
  2
0
 70
     0
 62
     1
  6
Continuous
370
    -3
390
F
  0
LAYER
  5
1A3
330
2
100
AcDbSymbolTableRecord
100
AcDbLayerTableRecord
  2
1
 70
     0
 62
     4
  6
Continuous
370
    50
390
F
  0
LAYER
  5
1A4
330
2
100
AcDbSymbolTableRecord
100
AcDbLayerTableRecord
  2
2
 70
     0
 62
     7
  6
Continuous
370
    25
390
F
  0
LAYER
  5
1A5
330
2
100
AcDbSymbolTableRecord
100
AcDbLayerTableRecord
  2
3
 70
     0
 62
     1
  6
DASH
370
    35
390
F
  0
LAYER
  5
1A6
330
2
100
AcDbSymbolTableRecord
100
AcDbLayerTableRecord
  2
4
 70
     0
 62
     2
  6
LONGDASH_DASH
370
    25
390
F
  0
LAYER
  5
1A7
330
2
100
AcDbSymbolTableRecord
100
AcDbLayerTableRecord
  2
6
 70
     0
 62
     5
  6
Continuous
370
    -3
390
F
  0
LAYER
  5
1A8
330
2
100
AcDbSymbolTableRecord
100
AcDbLayerTableRecord
  2
CUT
 70
     0
 62
     1
  6
Continuous
370
    25
390
F
  0
LAYER
  5
1A9
330
2
100
AcDbSymbolTableRecord
100
AcDbLayerTableRecord
  2
NOCUT
 70
     0
 62
     7
  6
Continuous
370
    25
390
F
  0
LAYER
  5
1AA
330
2
100
AcDbSymbolTableRecord
100
AcDbLayerTableRecord
  2
SK1
 70
     0
 62
     4
  6
Continuous
370
    50
390
F
  0
LAYER
  5
1AB
330
2
100
AcDbSymbolTableRecord
100
AcDbLayerTableRecord
  2
SK2
 70
     0
 62
     7
  6
Continuous
370
    25
390
F
  0
LAYER
  5
1AC
330
2
100
AcDbSymbolTableRecord
100
AcDbLayerTableRecord
  2
SK3
 70
     0
 62
     1
  6
DASH
370
    35
390
F
  0
LAYER
  5
1AD
330
2
100
AcDbSymbolTableRecord
100
AcDbLayerTableRecord
  2
SK4
 70
     0
 62
     2
  6
LONGDASH_DASH
370
    25
390
F
  0
LAYER
  5
1AE
330
2
100
AcDbSymbolTableRecord
100
AcDbLayerTableRecord
  2
SK6
 70
     0
 62
     5
  6
Continuous
370
    -3
390
F
  0
LAYER
  5
1AF
330
2
100
AcDbSymbolTableRecord
100
AcDbLayerTableRecord
  2
INFTOTAL
 70
     0
 62
     9
  6
Continuous
370
    18
390
F
  0
ENDTAB
  0
TABLE
  2
STYLE
  5
3
330
0
100
AcDbSymbolTable
 70
     2
  0
STYLE
  5
11
330
3
100
AcDbSymbolTableRecord
100
AcDbTextStyleTableRecord
  2
Standard
 70
     0
 40
0.0
 41
1.0
 50
0.0
 71
     0
 42
0.2
  3
txt
  4

  0
STYLE
  5
168
330
3
100
AcDbSymbolTableRecord
100
AcDbTextStyleTableRecord
  2
BMG_Text
 70
     0
 40
3.5
 41
1.0
 50
0.0
 71
     0
 42
0.2
  3
monos.ttf
  4

1001
ACAD
1000
Monospac821 BT
1071
       49
  0
ENDTAB
  0
TABLE
  2
VIEW
  5
6
330
0
100
AcDbSymbolTable
 70
     0
  0
ENDTAB
  0
TABLE
  2
UCS
  5
7
330
0
100
AcDbSymbolTable
 70
     0
  0
ENDTAB
  0
TABLE
  2
APPID
  5
9
330
0
100
AcDbSymbolTable
 70
     1
  0
APPID
  5
12
330
9
100
AcDbSymbolTableRecord
100
AcDbRegAppTableRecord
  2
ACAD
 70
     0
  0
ENDTAB
  0
TABLE
  2
DIMSTYLE
  5
A
330
0
100
AcDbSymbolTable
 70
     1
100
AcDbDimStyleTable
  0
DIMSTYLE
105
28
330
A
100
AcDbSymbolTableRecord
100
AcDbDimStyleTableRecord
  2
Standard
 70
     0
178
     0
340
11
  0
ENDTAB
  0
TABLE
  2
BLOCK_RECORD
  5
1
330
0
100
AcDbSymbolTable
 70
     0
  0
BLOCK_RECORD
  5
1D
330
1
100
AcDbSymbolTableRecord
100
AcDbBlockTableRecord
  2
*Model_Space
340
1E
  0
BLOCK_RECORD
  5
1B
330
1
100
AcDbSymbolTableRecord
100
AcDbBlockTableRecord
  2
*Paper_Space
340
1C
  0
ENDTAB
  0
ENDSEC
  0
SECTION
  2
BLOCKS
  0
BLOCK
  5
151
330
1D
100
AcDbEntity
  8
0
100
AcDbBlockBegin
  2
*Model_Space
 70
     0
 10
0.0
 20
0.0
 30
0.0
  3
*Model_Space
  1

  0
ENDBLK
  5
152
330
1D
100
AcDbEntity
  8
0
100
AcDbBlockEnd
  0
BLOCK
  5
14F
330
1B
100
AcDbEntity
 67
     1
  8
0
100
AcDbBlockBegin
  2
*Paper_Space
 70
     0
 10
0.0
 20
0.0
 30
0.0
  3
*Paper_Space
  1

  0
ENDBLK
  5
150
330
1B
100
AcDbEntity
 67
     1
  8
0
100
AcDbBlockEnd
  0
ENDSEC
  0
SECTION
  2
ENTITIES
  0
LINE
  5
29
330
1D
100
AcDbEntity
  8
1
  6
Continuous
370
    50
100
AcDbLine
 10
25.99993896
 20
-31.49996948
 30
0.0
 11
25.99993896
 21
31.49996948
 31
0.0
  0
LINE
  5
2A
330
1D
100
AcDbEntity
  8
1
  6
Continuous
370
    50
100
AcDbLine
 10
21.37744141
 20
-31.49996948
 30
0.0
 11
21.37744141
 21
19.99996948
 31
0.0
  0
LINE
  5
2B
330
1D
100
AcDbEntity
  8
1
  6
Continuous
370
    50
100
AcDbLine
 10
19.87493896
 20
-28.89753723
 30
0.0
 11
19.87493896
 21
28.89755249
 31
0.0
  0
LINE
  5
2C
330
1D
100
AcDbEntity
  8
1
  6
Continuous
370
    50
100
AcDbLine
 10
16.12493896
 20
-28.89753723
 30
0.0
 11
16.12493896
 21
28.89755249
 31
0.0
  0
LINE
  5
2D
330
1D
100
AcDbEntity
  8
1
  6
Continuous
370
    50
100
AcDbLine
 10
14.62243652
 20
-31.49996948
 30
0.0
 11
14.62243652
 21
19.99996948
 31
0.0
  0
LINE
  5
2E
330
1D
100
AcDbEntity
  8
1
  6
Continuous
370
    50
100
AcDbLine
 10
0.0
 20
-31.49996948
 30
0.0
 11
0.0
 21
31.49996948
 31
0.0
  0
LINE
  5
2F
330
1D
100
AcDbEntity
  8
SK1
100
AcDbLine
 10
-2.36968994
 20
-24.19648743
 30
0.0
 11
-2.36968994
 21
24.1965332
 31
0.0
  0
LINE
  5
30
330
1D
100
AcDbEntity
  8
SK1
100
AcDbLine
 10
-32.00005341
 20
-21.57351685
 30
0.0
 11
-32.00000381
 21
21.57351685
 31
0.0
  0
LINE
  5
31
330
1D
100
AcDbEntity
  8
1
  6
Continuous
370
    50
100
AcDbLine
 10
19.87493896
 20
19.99996948
 30
0.0
 11
25.99993896
 21
19.99996948
 31
0.0
  0
LINE
  5
32
330
1D
100
AcDbEntity
  8
1
  6
Continuous
370
    50
100
AcDbLine
 10
21.37744141
 20
24.33615112
 30
0.0
 11
25.99993896
 21
24.33615112
 31
0.0
  0
LINE
  5
33
330
1D
100
AcDbEntity
  8
1
  6
Continuous
370
    50
100
AcDbLine
 10
19.87493896
 20
21.73373413
 30
0.0
 11
21.37744141
 21
24.33615112
 31
0.0
  0
LINE
  5
34
330
1D
100
AcDbEntity
  8
1
  6
Continuous
370
    50
100
AcDbLine
 10
14.62243652
 20
24.33615112
 30
0.0
 11
16.12493896
 21
21.73373413
 31
0.0
  0
LINE
  5
35
330
1D
100
AcDbEntity
  8
1
  6
Continuous
370
    50
100
AcDbLine
 10
21.37744141
 20
24.33615112
 30
0.0
 11
21.37744141
 21
31.49996948
 31
0.0
  0
LINE
  5
36
330
1D
100
AcDbEntity
  8
1
  6
Continuous
370
    50
100
AcDbLine
 10
14.62243652
 20
24.33615112
 30
0.0
 11
14.62243652
 21
31.49996948
 31
0.0
  0
ARC
  5
37
330
1D
100
AcDbEntity
  8
1
  6
Continuous
370
    50
100
AcDbCircle
 10
12.11167908
 20
27.99996948
 30
0.0
 40
7.99999952
100
AcDbArc
 50
207.25666809
 51
270.0
  0
LINE
  5
38
330
1D
100
AcDbEntity
  8
1
  6
Continuous
370
    50
100
AcDbLine
 10
4.99993896
 20
24.33615112
 30
0.0
 11
14.62243652
 21
24.33615112
 31
0.0
  0
LINE
  5
39
330
1D
100
AcDbEntity
  8
1
  6
Continuous
370
    50
100
AcDbLine
 10
12.11169434
 20
19.99996948
 30
0.0
 11
16.125
 21
19.99996948
 31
0.0
  0
LINE
  5
3A
330
1D
100
AcDbEntity
  8
1
  6
Continuous
370
    50
100
AcDbLine
 10
21.37744141
 20
31.49996948
 30
0.0
 11
25.99993896
 21
31.49996948
 31
0.0
  0
LINE
  5
3B
330
1D
100
AcDbEntity
  8
1
  6
Continuous
370
    50
100
AcDbLine
 10
16.12493896
 20
28.89755249
 30
0.0
 11
14.62243652
 21
31.49996948
 31
0.0
  0
LINE
  5
3C
330
1D
100
AcDbEntity
  8
1
  6
Continuous
370
    50
100
AcDbLine
 10
19.87493896
 20
28.89755249
 30
0.0
 11
21.37744141
 21
31.49996948
 31
0.0
  0
ARC
  5
3D
330
1D
100
AcDbEntity
  8
1
  6
Continuous
370
    50
100
AcDbCircle
 10
18.87498474
 20
28.49996948
 30
0.0
 40
0.99999994
100
AcDbArc
 50
270.0
 51
0.0
  0
LINE
  5
3E
330
1D
100
AcDbEntity
  8
1
  6
Continuous
370
    50
100
AcDbLine
 10
17.12493896
 20
27.49996948
 30
0.0
 11
18.87493896
 21
27.49996948
 31
0.0
  0
ARC
  5
3F
330
1D
100
AcDbEntity
  8
1
  6
Continuous
370
    50
100
AcDbCircle
 10
17.12498474
 20
28.49996948
 30
0.0
 40
0.99999994
100
AcDbArc
 50
179.99998474
 51
270.0
  0
ARC
  5
40
330
1D
100
AcDbEntity
  8
SK1
100
AcDbCircle
 10
-0.60003662
 20
24.8349762
 30
0.0
 40
0.99999994
100
AcDbArc
 50
270.0
 51
306.87060547
  0
LINE
  5
41
330
1D
100
AcDbEntity
  8
SK1
100
AcDbLine
 10
-1.60003662
 20
23.83499146
 30
0.0
 11
-0.60003662
 21
23.83499146
 31
0.0
  0
ARC
  5
42
330
1D
100
AcDbEntity
  8
SK1
100
AcDbCircle
 10
-1.60003662
 20
24.8349762
 30
0.0
 40
0.99999994
100
AcDbArc
 50
219.67892456
 51
270.0
  0
LINE
  5
43
330
1D
100
AcDbEntity
  8
SK1
100
AcDbLine
 10
-2.36968994
 20
24.19650269
 30
0.0
 11
-30.85998535
 21
22.77200317
 31
0.0
  0
ARC
  5
44
330
1D
100
AcDbEntity
  8
SK1
100
AcDbCircle
 10
-30.80005264
 20
21.57351685
 30
0.0
 40
1.19999921
100
AcDbArc
 50
92.86296844
 51
179.99998474
  0
LINE
  5
45
330
1D
100
AcDbEntity
  8
1
  6
Continuous
370
    50
100
AcDbLine
 10
0.0
 20
31.49996948
 30
0.0
 11
14.62243652
 21
31.49996948
 31
0.0
  0
LINE
  5
46
330
1D
100
AcDbEntity
  8
2
  6
Continuous
370
    25
100
AcDbLine
 10
0.0
 20
-45.999999998
 30
0.0
 11
0.0
 21
-31.49996948
 31
0.0
  0
LINE
  5
47
330
1D
100
AcDbEntity
  8
2
  6
Continuous
370
    25
100
AcDbLine
 10
0.0
 20
-43.999999998
 30
0.0
 11
3.5
 21
-43.549999998
 31
0.0
  0
LINE
  5
48
330
1D
100
AcDbEntity
  8
2
  6
Continuous
370
    25
100
AcDbLine
 10
3.5
 20
-43.549999998
 30
0.0
 11
3.5
 21
-44.449999998
 31
0.0
  0
LINE
  5
49
330
1D
100
AcDbEntity
  8
2
  6
Continuous
370
    25
100
AcDbLine
 10
3.5
 20
-44.449999998
 30
0.0
 11
0.0
 21
-43.999999998
 31
0.0
  0
LINE
  5
4A
330
1D
100
AcDbEntity
  8
2
  6
Continuous
370
    25
100
AcDbLine
 10
30.99999237
 20
-45.999999998
 30
0.0
 11
30.99999237
 21
-31.49996948
 31
0.0
  0
LINE
  5
4B
330
1D
100
AcDbEntity
  8
2
  6
Continuous
370
    25
100
AcDbLine
 10
30.99999237
 20
-43.999999998
 30
0.0
 11
27.49999237
 21
-44.449999998
 31
0.0
  0
LINE
  5
4C
330
1D
100
AcDbEntity
  8
2
  6
Continuous
370
    25
100
AcDbLine
 10
27.49999237
 20
-44.449999998
 30
0.0
 11
27.49999237
 21
-43.549999998
 31
0.0
  0
LINE
  5
4D
330
1D
100
AcDbEntity
  8
2
  6
Continuous
370
    25
100
AcDbLine
 10
27.49999237
 20
-43.549999998
 30
0.0
 11
30.99999237
 21
-43.999999998
 31
0.0
  0
LINE
  5
4E
330
1D
100
AcDbEntity
  8
2
  6
Continuous
370
    25
100
AcDbLine
 10
3.5
 20
-43.999999998
 30
0.0
 11
27.49999237
 21
-43.999999998
 31
0.0
  0
TEXT
  5
4F
330
1D
100
AcDbEntity
  8
2
  6
Continuous
370
    25
100
AcDbText
 10
14.409527089
 20
-42.499999998
 30
0.0
 40
3.5
  1
31
  7
BMG_Text
100
AcDbText
  0
LINE
  5
50
330
1D
100
AcDbEntity
  8
SK2
100
AcDbLine
 10
-42.000000003
 20
-23.99998474
 30
0.0
 11
-6.29956055
 21
-23.99998474
 31
0.0
  0
LINE
  5
51
330
1D
100
AcDbEntity
  8
SK2
100
AcDbLine
 10
-40.000000003
 20
-23.99998474
 30
0.0
 11
-40.450000003
 21
-20.49998474
 31
0.0
  0
LINE
  5
52
330
1D
100
AcDbEntity
  8
SK2
100
AcDbLine
 10
-40.450000003
 20
-20.49998474
 30
0.0
 11
-39.550000003
 21
-20.49998474
 31
0.0
  0
LINE
  5
53
330
1D
100
AcDbEntity
  8
SK2
100
AcDbLine
 10
-39.550000003
 20
-20.49998474
 30
0.0
 11
-40.000000003
 21
-23.99998474
 31
0.0
  0
LINE
  5
54
330
1D
100
AcDbEntity
  8
SK2
100
AcDbLine
 10
-42.000000003
 20
24.00001526
 30
0.0
 11
-6.29956055
 21
24.00001526
 31
0.0
  0
LINE
  5
55
330
1D
100
AcDbEntity
  8
SK2
100
AcDbLine
 10
-40.000000003
 20
24.00001526
 30
0.0
 11
-39.550000003
 21
20.50001526
 31
0.0
  0
LINE
  5
56
330
1D
100
AcDbEntity
  8
SK2
100
AcDbLine
 10
-39.550000003
 20
20.50001526
 30
0.0
 11
-40.450000003
 21
20.50001526
 31
0.0
  0
LINE
  5
57
330
1D
100
AcDbEntity
  8
SK2
100
AcDbLine
 10
-40.450000003
 20
20.50001526
 30
0.0
 11
-40.000000003
 21
24.00001526
 31
0.0
  0
LINE
  5
58
330
1D
100
AcDbEntity
  8
SK2
100
AcDbLine
 10
-40.000000003
 20
-20.49998474
 30
0.0
 11
-40.000000003
 21
20.50001526
 31
0.0
  0
TEXT
  5
59
330
1D
100
AcDbEntity
  8
SK2
100
AcDbText
 10
-41.500000003
 20
0.085327224
 30
0.0
 40
3.5
  1
48
 50
90.0
  7
BMG_Text
100
AcDbText
  0
CIRCLE
  5
5A
330
1D
100
AcDbEntity
  8
SK2
100
AcDbCircle
 10
-42.750000003
 20
-2.164672776
 30
0.0
 40
1.25
  0
LINE
  5
5B
330
1D
100
AcDbEntity
  8
SK2
100
AcDbLine
 10
-41.500000003
 20
-3.414672776
 30
0.0
 11
-44.000000003
 21
-0.914672776
 31
0.0
  0
LINE
  5
5C
330
1D
100
AcDbEntity
  8
2
  6
Continuous
370
    25
100
AcDbLine
 10
30.99999237
 20
-45.999999998
 30
0.0
 11
30.99999237
 21
-31.49996948
 31
0.0
  0
LINE
  5
5D
330
1D
100
AcDbEntity
  8
2
  6
Continuous
370
    25
100
AcDbLine
 10
30.99999237
 20
-43.999999998
 30
0.0
 11
34.49999237
 21
-43.549999998
 31
0.0
  0
LINE
  5
5E
330
1D
100
AcDbEntity
  8
2
  6
Continuous
370
    25
100
AcDbLine
 10
34.49999237
 20
-43.549999998
 30
0.0
 11
34.49999237
 21
-44.449999998
 31
0.0
  0
LINE
  5
5F
330
1D
100
AcDbEntity
  8
2
  6
Continuous
370
    25
100
AcDbLine
 10
34.49999237
 20
-44.449999998
 30
0.0
 11
30.99999237
 21
-43.999999998
 31
0.0
  0
LINE
  5
60
330
1D
100
AcDbEntity
  8
2
  6
Continuous
370
    25
100
AcDbLine
 10
34.49999237
 20
-43.999999998
 30
0.0
 11
73.899916844
 21
-43.999999998
 31
0.0
  0
TEXT
  5
61
330
1D
100
AcDbEntity
  8
2
  6
Continuous
370
    25
100
AcDbText
 10
36.011204128
 20
-42.499999998
 30
0.0
 40
3.5
  1
110
  7
BMG_Text
100
AcDbText
  0
TEXT
  5
62
330
1D
100
AcDbEntity
  8
2
100
AcDbText
 10
47.36925355004034
 20
-42.499999998
 30
0.0
 40
3.5
  1
Ausdrehtiefe 100
  7
BMG_Text
100
AcDbText
  0
TEXT
  5
63
330
1D
100
AcDbEntity
  8
SK6
  6
Continuous
370
    35
100
AcDbText
 10
108.5488239138152
 20
-77.31773564053552
 30
0.0
 40
3.5
  1
324.322F
  7
BMG_Text
100
AcDbText
  0
ARC
  5
64
330
1D
100
AcDbEntity
  8
SK1
100
AcDbCircle
 10
-0.60003662
 20
-24.8349762
 30
0.0
 40
0.99999994
100
AcDbArc
 50
53.12939835
 51
90.00000763
  0
LINE
  5
65
330
1D
100
AcDbEntity
  8
SK1
100
AcDbLine
 10
-1.60003662
 20
-23.8349762
 30
0.0
 11
-0.60003662
 21
-23.8349762
 31
0.0
  0
ARC
  5
66
330
1D
100
AcDbEntity
  8
SK1
100
AcDbCircle
 10
-1.60003662
 20
-24.8349762
 30
0.0
 40
0.99999994
100
AcDbArc
 50
90.00000763
 51
140.32107544
  0
ARC
  5
67
330
1D
100
AcDbEntity
  8
SK1
100
AcDbCircle
 10
-30.80005264
 20
-21.57351685
 30
0.0
 40
1.19999921
100
AcDbArc
 50
180.00001526
 51
267.13702393
  0
LINE
  5
68
330
1D
100
AcDbEntity
  8
1
  6
Continuous
370
    50
100
AcDbLine
 10
0.0
 20
-31.49996948
 30
0.0
 11
14.62243652
 21
-31.49996948
 31
0.0
  0
LINE
  5
69
330
1D
100
AcDbEntity
  8
SK4
100
AcDbLine
 10
-34.00002289
 20
0.0
 30
0.0
 11
96.883834957
 21
0.0
 31
0.0
  0
LINE
  5
6A
330
1D
100
AcDbEntity
  8
SK4
  6
LONGDASH_DASH
370
    25
100
AcDbLine
 10
-6.29956055
 20
24.00001526
 30
0.0
 11
-6.29956055
 21
-23.99998474
 31
0.0
  0
LINE
  5
6B
330
1D
100
AcDbEntity
  8
1
  6
Continuous
370
    50
100
AcDbLine
 10
21.37744141
 20
-31.49996948
 30
0.0
 11
25.99993896
 21
-31.49996948
 31
0.0
  0
LINE
  5
6C
330
1D
100
AcDbEntity
  8
1
  6
Continuous
370
    50
100
AcDbLine
 10
16.12493896
 20
-28.89753723
 30
0.0
 11
14.62243652
 21
-31.49996948
 31
0.0
  0
LINE
  5
6D
330
1D
100
AcDbEntity
  8
1
  6
Continuous
370
    50
100
AcDbLine
 10
19.87493896
 20
-28.89753723
 30
0.0
 11
21.37744141
 21
-31.49996948
 31
0.0
  0
ARC
  5
6E
330
1D
100
AcDbEntity
  8
1
  6
Continuous
370
    50
100
AcDbCircle
 10
18.87498474
 20
-28.49995422
 30
0.0
 40
0.99999994
100
AcDbArc
 50
0.0
 51
90.00000763
  0
LINE
  5
6F
330
1D
100
AcDbEntity
  8
1
  6
Continuous
370
    50
100
AcDbLine
 10
17.12493896
 20
-27.49995422
 30
0.0
 11
18.87493896
 21
-27.49995422
 31
0.0
  0
ARC
  5
70
330
1D
100
AcDbEntity
  8
1
  6
Continuous
370
    50
100
AcDbCircle
 10
17.12498474
 20
-28.49995422
 30
0.0
 40
0.99999994
100
AcDbArc
 50
90.00000763
 51
180.00001526
  0
LINE
  5
71
330
1D
100
AcDbEntity
  8
SK1
100
AcDbLine
 10
-2.36968994
 20
-24.19648743
 30
0.0
 11
-30.85998535
 21
-22.77198792
 31
0.0
  0
LINE
  5
72
330
1D
100
AcDbEntity
  8
SK6
100
AcDbLine
 10
-28.243561948
 20
-40.228545403
 30
0.0
 11
-28.243561948
 21
-42.298537463
 31
0.0
  0
ARC
  5
73
330
1D
100
AcDbEntity
  8
SK6
100
AcDbCircle
 10
-31.123547758
 20
-43.378546923
 30
0.0
 40
1.08000004
100
AcDbArc
 50
90.00000763
 51
206.54360962
  0
LINE
  5
74
330
1D
100
AcDbEntity
  8
SK6
100
AcDbLine
 10
-31.123547758
 20
-42.298567983
 30
0.0
 11
-28.243550498
 21
-42.298567983
 31
0.0
  0
ARC
  5
75
330
1D
100
AcDbEntity
  8
SK6
100
AcDbCircle
 10
-32.293557368
 20
-42.928542353
 30
0.0
 40
2.70000005
100
AcDbArc
 50
90.00000763
 51
206.5436554
  0
ARC
  5
76
330
1D
100
AcDbEntity
  8
SK6
100
AcDbCircle
 10
-31.573540888
 20
-52.828551503
 30
0.0
 40
1.08000004
100
AcDbArc
 50
270.0
 51
26.54360962
  0
LINE
  5
77
330
1D
100
AcDbEntity
  8
SK6
100
AcDbLine
 10
-31.573540888
 20
-53.908553333
 30
0.0
 11
-34.993539058
 21
-53.908553333
 31
0.0
  0
LINE
  5
78
330
1D
100
AcDbEntity
  8
SK6
100
AcDbLine
 10
-34.708958828
 20
-44.135115833
 30
0.0
 11
-30.607392508
 21
-52.345908373
 31
0.0
  0
ARC
  5
79
330
1D
100
AcDbEntity
  8
SK6
100
AcDbCircle
 10
-30.403554168
 20
-53.278556083
 30
0.0
 40
2.70000005
100
AcDbArc
 50
270.0
 51
26.54364014
  0
LINE
  5
7A
330
1D
100
AcDbEntity
  8
SK6
100
AcDbLine
 10
-32.089715208
 20
-43.861174793
 30
0.0
 11
-27.988145078
 21
-52.071974963
 31
0.0
  0
LINE
  5
7B
330
1D
100
AcDbEntity
  8
SK6
100
AcDbLine
 10
-34.993561948
 20
-53.908553333
 30
0.0
 11
-34.993561948
 21
-55.978560663
 31
0.0
  0
LINE
  5
7C
330
1D
100
AcDbEntity
  8
SK6
100
AcDbLine
 10
-34.993561948
 20
-55.978560663
 30
0.0
 11
-30.403557978
 21
-55.978560663
 31
0.0
  0
LINE
  5
7D
330
1D
100
AcDbEntity
  8
SK6
100
AcDbLine
 10
-25.543557368
 20
-55.978560663
 30
0.0
 11
-25.543557368
 21
-40.228560663
 31
0.0
  0
LINE
  5
7E
330
1D
100
AcDbEntity
  8
SK6
100
AcDbLine
 10
-17.263550958
 20
-55.978560663
 30
0.0
 11
-17.263550958
 21
-40.228560663
 31
0.0
  0
LINE
  5
7F
330
1D
100
AcDbEntity
  8
SK6
100
AcDbLine
 10
-17.263550958
 20
-55.978560663
 30
0.0
 11
-14.563557828
 21
-55.978560663
 31
0.0
  0
LINE
  5
80
330
1D
100
AcDbEntity
  8
SK6
100
AcDbLine
 10
-14.563557828
 20
-55.978560663
 30
0.0
 11
-14.563557828
 21
-49.138564323
 31
0.0
  0
ARC
  5
81
330
1D
100
AcDbEntity
  8
SK6
100
AcDbCircle
 10
-13.213544098
 20
-50.218550893
 30
0.0
 40
1.08000004
100
AcDbArc
 50
0.0
 51
90.00000763
  0
LINE
  5
82
330
1D
100
AcDbEntity
  8
SK6
100
AcDbLine
 10
-13.213544098
 20
-49.138549063
 30
0.0
 11
-14.563546378
 21
-49.138549063
 31
0.0
  0
LINE
  5
83
330
1D
100
AcDbEntity
  8
SK6
100
AcDbLine
 10
-12.133565148
 20
-53.458556383
 30
0.0
 11
-12.133565148
 21
-54.448546623
 31
0.0
  0
ARC
  5
84
330
1D
100
AcDbEntity
  8
SK6
100
AcDbCircle
 10
-7.003567898
 20
-54.448554253
 30
0.0
 40
2.51999998
100
AcDbArc
 50
180.0
 51
217.38319397
  0
ARC
  5
85
330
1D
100
AcDbEntity
  8
SK6
100
AcDbCircle
 10
-9.613576138
 20
-54.448554253
 30
0.0
 40
2.51999998
100
AcDbArc
 50
180.0
 51
217.38319397
  0
LINE
  5
86
330
1D
100
AcDbEntity
  8
SK6
100
AcDbLine
 10
-9.095959868
 20
-55.978560663
 30
0.0
 11
-11.615960318
 21
-55.978560663
 31
0.0
  0
LINE
  5
87
330
1D
100
AcDbEntity
  8
SK6
100
AcDbLine
 10
-12.133565148
 20
-50.218566153
 30
0.0
 11
-12.133565148
 21
-54.448554253
 31
0.0
  0
ARC
  5
88
330
1D
100
AcDbEntity
  8
SK6
100
AcDbCircle
 10
-12.043545928
 20
-50.398558823
 30
0.0
 40
2.51999998
100
AcDbArc
 50
358.70883179
 51
93.06652832
  0
ARC
  5
89
330
1D
100
AcDbEntity
  8
SK6
100
AcDbCircle
 10
-12.313557828
 20
-45.358557913
 30
0.0
 40
2.51999998
100
AcDbArc
 50
273.06652832
 51
0.0
  0
ARC
  5
8A
330
1D
100
AcDbEntity
  8
SK6
100
AcDbCircle
 10
-12.313557828
 20
-42.748564933
 30
0.0
 40
2.51999998
100
AcDbArc
 50
0.0
 51
90.00000763
  0
LINE
  5
8B
330
1D
100
AcDbEntity
  8
SK6
100
AcDbLine
 10
-9.793545928
 20
-42.748564933
 30
0.0
 11
-9.793545928
 21
-45.358565543
 31
0.0
  0
ARC
  5
8C
330
1D
100
AcDbEntity
  8
SK6
100
AcDbCircle
 10
-12.943555078
 20
-43.198561883
 30
0.0
 40
0.90000004
100
AcDbArc
 50
0.0
 51
90.00000763
  0
LINE
  5
8D
330
1D
100
AcDbEntity
  8
SK6
100
AcDbLine
 10
-12.943555078
 20
-42.298567983
 30
0.0
 11
-14.563557828
 21
-42.298567983
 31
0.0
  0
ARC
  5
8E
330
1D
100
AcDbEntity
  8
SK6
100
AcDbCircle
 10
-12.943555078
 20
-46.078551503
 30
0.0
 40
0.90000004
100
AcDbArc
 50
270.0
 51
0.0
  0
LINE
  5
8F
330
1D
100
AcDbEntity
  8
SK6
100
AcDbLine
 10
-12.043545928
 20
-43.198561883
 30
0.0
 11
-12.043545928
 21
-46.078559133
 31
0.0
  0
LINE
  5
90
330
1D
100
AcDbEntity
  8
SK6
100
AcDbLine
 10
-14.563557828
 20
-42.298567983
 30
0.0
 11
-14.563557828
 21
-46.978560663
 31
0.0
  0
LINE
  5
91
330
1D
100
AcDbEntity
  8
SK6
100
AcDbLine
 10
-12.943555078
 20
-46.978560663
 30
0.0
 11
-14.563557828
 21
-46.978560663
 31
0.0
  0
LINE
  5
92
330
1D
100
AcDbEntity
  8
SK6
100
AcDbLine
 10
-9.524197778
 20
-50.455344413
 30
0.0
 11
-9.523568358
 21
-54.448958603
 31
0.0
  0
LINE
  5
93
330
1D
100
AcDbEntity
  8
SK6
100
AcDbLine
 10
-9.095959868
 20
-55.978560663
 30
0.0
 11
-9.005963528
 21
-55.978560663
 31
0.0
  0
LINE
  5
94
330
1D
100
AcDbEntity
  8
SK6
100
AcDbLine
 10
-32.293557368
 20
-40.228545403
 30
0.0
 11
-28.243554318
 21
-40.228545403
 31
0.0
  0
LINE
  5
95
330
1D
100
AcDbEntity
  8
SK6
100
AcDbLine
 10
-12.313557828
 20
-40.228545403
 30
0.0
 11
-17.263562408
 21
-40.228545403
 31
0.0
  0
LINE
  5
96
330
1D
100
AcDbEntity
  8
SK6
100
AcDbLine
 10
-59.293557368
 20
-55.978560663
 30
0.0
 11
-62.083558288
 21
-55.978560663
 31
0.0
  0
LINE
  5
97
330
1D
100
AcDbEntity
  8
SK6
100
AcDbLine
 10
-59.293557368
 20
-52.558562493
 30
0.0
 11
-59.293557368
 21
-55.978560663
 31
0.0
  0
LINE
  5
98
330
1D
100
AcDbEntity
  8
SK6
100
AcDbLine
 10
-58.213555538
 20
-50.488555163
 30
0.0
 11
-59.293557368
 21
-52.558562493
 31
0.0
  0
LINE
  5
99
330
1D
100
AcDbEntity
  8
SK6
100
AcDbLine
 10
-55.783562858
 20
-55.978560663
 30
0.0
 11
-58.213555538
 21
-50.488555163
 31
0.0
  0
LINE
  5
9A
330
1D
100
AcDbEntity
  8
SK6
100
AcDbLine
 10
-52.993561948
 20
-55.978560663
 30
0.0
 11
-55.783555228
 21
-55.978560663
 31
0.0
  0
LINE
  5
9B
330
1D
100
AcDbEntity
  8
SK6
100
AcDbLine
 10
-56.593568048
 20
-46.978560663
 30
0.0
 11
-52.993561948
 21
-55.978560663
 31
0.0
  0
LINE
  5
9C
330
1D
100
AcDbEntity
  8
SK6
100
AcDbLine
 10
-53.533562858
 20
-40.228560663
 30
0.0
 11
-56.593552788
 21
-46.978560663
 31
0.0
  0
LINE
  5
9D
330
1D
100
AcDbEntity
  8
SK6
100
AcDbLine
 10
-59.293557368
 20
-47.338568903
 30
0.0
 11
-56.323563778
 21
-40.228575913
 31
0.0
  0
LINE
  5
9E
330
1D
100
AcDbEntity
  8
SK6
100
AcDbLine
 10
-59.293557368
 20
-40.228560663
 30
0.0
 11
-59.293557368
 21
-47.338568903
 31
0.0
  0
LINE
  5
9F
330
1D
100
AcDbEntity
  8
SK6
100
AcDbLine
 10
-62.083558288
 20
-55.978560663
 30
0.0
 11
-62.083558288
 21
-40.228560663
 31
0.0
  0
LINE
  5
A0
330
1D
100
AcDbEntity
  8
SK6
100
AcDbLine
 10
-56.323563778
 20
-40.228560663
 30
0.0
 11
-53.533562858
 21
-40.228560663
 31
0.0
  0
LINE
  5
A1
330
1D
100
AcDbEntity
  8
SK6
100
AcDbLine
 10
-62.083558288
 20
-40.228560663
 30
0.0
 11
-59.293557368
 21
-40.228560663
 31
0.0
  0
LINE
  5
A2
330
1D
100
AcDbEntity
  8
SK6
100
AcDbLine
 10
-40.033551418
 20
-40.228560663
 30
0.0
 11
-40.033551418
 21
-55.978560663
 31
0.0
  0
LINE
  5
A3
330
1D
100
AcDbEntity
  8
SK6
100
AcDbLine
 10
-37.153554168
 20
-55.978560663
 30
0.0
 11
-37.153554168
 21
-40.228560663
 31
0.0
  0
LINE
  5
A4
330
1D
100
AcDbEntity
  8
SK6
100
AcDbLine
 10
-40.033551418
 20
-55.978560663
 30
0.0
 11
-37.153554168
 21
-55.978560663
 31
0.0
  0
LINE
  5
A5
330
1D
100
AcDbEntity
  8
SK6
100
AcDbLine
 10
-37.153554168
 20
-40.228560663
 30
0.0
 11
-40.033562858
 21
-40.228560663
 31
0.0
  0
LINE
  5
A6
330
1D
100
AcDbEntity
  8
SK6
100
AcDbLine
 10
-19.693555078
 20
-55.978560663
 30
0.0
 11
-19.693555078
 21
-53.908553333
 31
0.0
  0
LINE
  5
A7
330
1D
100
AcDbEntity
  8
SK6
100
AcDbLine
 10
-25.543557368
 20
-55.978560663
 30
0.0
 11
-19.693555078
 21
-55.978560663
 31
0.0
  0
LINE
  5
A8
330
1D
100
AcDbEntity
  8
SK6
100
AcDbLine
 10
-19.693566528
 20
-42.298552723
 30
0.0
 11
-19.693566528
 21
-40.228560663
 31
0.0
  0
LINE
  5
A9
330
1D
100
AcDbEntity
  8
SK6
100
AcDbLine
 10
-22.663583008
 20
-42.298552723
 30
0.0
 11
-19.693577968
 21
-42.298552723
 31
0.0
  0
LINE
  5
AA
330
1D
100
AcDbEntity
  8
SK6
100
AcDbLine
 10
-22.663583008
 20
-46.978560663
 30
0.0
 11
-22.663583008
 21
-42.298567983
 31
0.0
  0
LINE
  5
AB
330
1D
100
AcDbEntity
  8
SK6
100
AcDbLine
 10
-19.693566528
 20
-46.978560663
 30
0.0
 11
-22.663571558
 21
-46.978560663
 31
0.0
  0
LINE
  5
AC
330
1D
100
AcDbEntity
  8
SK6
100
AcDbLine
 10
-19.693566528
 20
-49.138541433
 30
0.0
 11
-19.693566528
 21
-46.978537773
 31
0.0
  0
LINE
  5
AD
330
1D
100
AcDbEntity
  8
SK6
100
AcDbLine
 10
-22.663583008
 20
-49.138541433
 30
0.0
 11
-19.693577968
 21
-49.138541433
 31
0.0
  0
LINE
  5
AE
330
1D
100
AcDbEntity
  8
SK6
100
AcDbLine
 10
-22.663583008
 20
-53.908553333
 30
0.0
 11
-22.663583008
 21
-49.138541433
 31
0.0
  0
LINE
  5
AF
330
1D
100
AcDbEntity
  8
SK6
100
AcDbLine
 10
-19.693566528
 20
-53.908553333
 30
0.0
 11
-22.663571558
 21
-53.908553333
 31
0.0
  0
LINE
  5
B0
330
1D
100
AcDbEntity
  8
SK6
100
AcDbLine
 10
-19.693566528
 20
-40.228560663
 30
0.0
 11
-25.543568808
 21
-40.228560663
 31
0.0
  0
LINE
  5
B1
330
1D
100
AcDbEntity
  8
SK6
100
AcDbLine
 10
-45.613557068
 20
-55.978560663
 30
0.0
 11
-51.913560118
 21
-55.978560663
 31
0.0
  0
LINE
  5
B2
330
1D
100
AcDbEntity
  8
SK6
100
AcDbLine
 10
-46.063546378
 20
-53.458548753
 30
0.0
 11
-45.613557068
 21
-55.978545403
 31
0.0
  0
LINE
  5
B3
330
1D
100
AcDbEntity
  8
SK6
100
AcDbLine
 10
-48.943566528
 20
-53.458548753
 30
0.0
 11
-46.063569268
 21
-53.458548753
 31
0.0
  0
LINE
  5
B4
330
1D
100
AcDbEntity
  8
SK6
100
AcDbLine
 10
-47.413560118
 20
-44.098563403
 30
0.0
 11
-48.943558898
 21
-53.458571643
 31
0.0
  0
LINE
  5
B5
330
1D
100
AcDbEntity
  8
SK6
100
AcDbLine
 10
-44.353562558
 20
-55.978560663
 30
0.0
 11
-47.413560118
 21
-44.098563403
 31
0.0
  0
LINE
  5
B6
330
1D
100
AcDbEntity
  8
SK6
100
AcDbLine
 10
-41.383553708
 20
-55.978560663
 30
0.0
 11
-44.353547298
 21
-55.978560663
 31
0.0
  0
LINE
  5
B7
330
1D
100
AcDbEntity
  8
SK6
100
AcDbLine
 10
-45.793557368
 20
-39.778556083
 30
0.0
 11
-41.383565148
 21
-55.978560663
 31
0.0
  0
LINE
  5
B8
330
1D
100
AcDbEntity
  8
SK6
100
AcDbLine
 10
-48.853562558
 20
-39.778556083
 30
0.0
 11
-45.793564998
 21
-39.778556083
 31
0.0
  0
LINE
  5
B9
330
1D
100
AcDbEntity
  8
SK6
100
AcDbLine
 10
-51.913560118
 20
-55.978560663
 30
0.0
 11
-48.853562558
 21
-39.778556083
 31
0.0
  0
LINE
  5
BA
330
1D
100
AcDbEntity
  8
3
  6
DASH
370
    35
100
AcDbLine
 10
10.24999237
 20
9.00001526
 30
0.0
 11
20.49999237
 21
9.00001526
 31
0.0
  0
LINE
  5
BB
330
1D
100
AcDbEntity
  8
SK3
  6
DASH
370
    35
100
AcDbLine
 10
-0.000007629
 20
17.00001526
 30
0.0
 11
-0.000007629
 21
0.000015259
 31
0.0
  0
LINE
  5
BC
330
1D
100
AcDbEntity
  8
SK3
  6
DASH
370
    35
100
AcDbLine
 10
-31.00000763
 20
17.00001526
 30
0.0
 11
-18.99604034
 21
17.00001526
 31
0.0
  0
LINE
  5
BD
330
1D
100
AcDbEntity
  8
SK3
  6
DASH
370
    35
100
AcDbLine
 10
-16.91761017
 20
20.0
 30
0.0
 11
-6.24500275
 21
20.0
 31
0.0
  0
LINE
  5
BE
330
1D
100
AcDbEntity
  8
SK3
  6
DASH
370
    35
100
AcDbLine
 10
-17.43726349
 20
19.69995117
 30
0.0
 11
-18.99610138
 21
16.99993896
 31
0.0
  0
LINE
  5
BF
330
1D
100
AcDbEntity
  8
SK3
  6
DASH
370
    35
100
AcDbLine
 10
-31.00000763
 20
17.00001526
 30
0.0
 11
-32.00000763
 21
17.5773468
 31
0.0
  0
LINE
  5
C0
330
1D
100
AcDbEntity
  8
3
  6
DASH
370
    35
100
AcDbLine
 10
0.0
 20
17.00001526
 30
0.0
 11
9.99999237
 21
17.00001526
 31
0.0
  0
ARC
  5
C1
330
1D
100
AcDbEntity
  8
SK3
  6
DASH
370
    35
100
AcDbCircle
 10
-6.24500275
 20
12.00004578
 30
0.0
 40
8.0
100
AcDbArc
 50
38.68221283
 51
90.00000763
  0
ARC
  5
C2
330
1D
100
AcDbEntity
  8
SK3
  6
DASH
370
    35
100
AcDbCircle
 10
-16.91761017
 20
19.40005493
 30
0.0
 40
0.60000616
100
AcDbArc
 50
90.00000763
 51
150.00013733
  0
LINE
  5
C3
330
1D
100
AcDbEntity
  8
3
  6
DASH
370
    35
100
AcDbLine
 10
20.49999237
 20
9.25001526
 30
0.0
 11
21.99999237
 21
9.25001526
 31
0.0
  0
LINE
  5
C4
330
1D
100
AcDbEntity
  8
3
  6
DASH
370
    35
100
AcDbLine
 10
11.24999237
 20
8.00001526
 30
0.0
 11
20.49999237
 21
8.00001526
 31
0.0
  0
LINE
  5
C5
330
1D
100
AcDbEntity
  8
3
  6
DASH
370
    35
100
AcDbLine
 10
9.99999237
 20
9.25001526
 30
0.0
 11
11.24999237
 21
8.00001526
 31
0.0
  0
LINE
  5
C6
330
1D
100
AcDbEntity
  8
SK3
  6
DASH
370
    35
100
AcDbLine
 10
-31.00000763
 20
-16.99998474
 30
0.0
 11
-31.00000763
 21
16.99995422
 31
0.0
  0
LINE
  5
C7
330
1D
100
AcDbEntity
  8
SK3
  6
DASH
370
    35
100
AcDbLine
 10
-18.99610138
 20
17.00001526
 30
0.0
 11
-18.99610138
 21
-16.99998474
 31
0.0
  0
LINE
  5
C8
330
1D
100
AcDbEntity
  8
SK3
  6
DASH
370
    35
100
AcDbLine
 10
-17.26404572
 20
19.88989258
 30
0.0
 11
-17.26404572
 21
-19.99996948
 31
0.0
  0
LINE
  5
C9
330
1D
100
AcDbEntity
  8
3
  6
DASH
370
    35
100
AcDbLine
 10
9.99999237
 20
17.00001526
 30
0.0
 11
9.99999237
 21
-16.99998474
 31
0.0
  0
LINE
  5
CA
330
1D
100
AcDbEntity
  8
3
  6
DASH
370
    35
100
AcDbLine
 10
11.24999237
 20
8.00001526
 30
0.0
 11
11.24999237
 21
-7.99998474
 31
0.0
  0
LINE
  5
CB
330
1D
100
AcDbEntity
  8
3
  6
DASH
370
    35
100
AcDbLine
 10
20.49999237
 20
9.25001526
 30
0.0
 11
20.49999237
 21
-9.24998474
 31
0.0
  0
LINE
  5
CC
330
1D
100
AcDbEntity
  8
3
  6
DASH
370
    35
100
AcDbLine
 10
21.99999237
 20
9.25001526
 30
0.0
 11
21.99999237
 21
-9.24998474
 31
0.0
  0
LINE
  5
CD
330
1D
100
AcDbEntity
  8
3
  6
DASH
370
    35
100
AcDbLine
 10
10.24999237
 20
-8.99998474
 30
0.0
 11
20.49999237
 21
-8.99998474
 31
0.0
  0
LINE
  5
CE
330
1D
100
AcDbEntity
  8
SK3
  6
DASH
370
    35
100
AcDbLine
 10
-0.000007629
 20
-16.99998474
 30
0.0
 11
-0.000007629
 21
0.000015259
 31
0.0
  0
LINE
  5
CF
330
1D
100
AcDbEntity
  8
SK3
  6
DASH
370
    35
100
AcDbLine
 10
-31.00000763
 20
-16.99998474
 30
0.0
 11
-18.99604034
 21
-16.99998474
 31
0.0
  0
LINE
  5
D0
330
1D
100
AcDbEntity
  8
SK3
  6
DASH
370
    35
100
AcDbLine
 10
-16.91761017
 20
-19.99996948
 30
0.0
 11
-6.24500275
 21
-19.99996948
 31
0.0
  0
LINE
  5
D1
330
1D
100
AcDbEntity
  8
SK3
  6
DASH
370
    35
100
AcDbLine
 10
-17.43726349
 20
-19.69992065
 30
0.0
 11
-18.99610138
 21
-16.99990845
 31
0.0
  0
LINE
  5
D2
330
1D
100
AcDbEntity
  8
SK3
  6
DASH
370
    35
100
AcDbLine
 10
-31.00000763
 20
-16.99998474
 30
0.0
 11
-32.00000763
 21
-17.57731628
 31
0.0
  0
LINE
  5
D3
330
1D
100
AcDbEntity
  8
3
  6
DASH
370
    35
100
AcDbLine
 10
0.0
 20
-16.99998474
 30
0.0
 11
9.99999237
 21
-16.99998474
 31
0.0
  0
ARC
  5
D4
330
1D
100
AcDbEntity
  8
SK3
  6
DASH
370
    35
100
AcDbCircle
 10
-6.24500275
 20
-12.00004578
 30
0.0
 40
8.0
100
AcDbArc
 50
270.0
 51
321.3177795400001
  0
ARC
  5
D5
330
1D
100
AcDbEntity
  8
SK3
  6
DASH
370
    35
100
AcDbCircle
 10
-16.91761017
 20
-19.40007019
 30
0.0
 40
0.60000616
100
AcDbArc
 50
209.99986267
 51
270.0
  0
LINE
  5
D6
330
1D
100
AcDbEntity
  8
3
  6
DASH
370
    35
100
AcDbLine
 10
20.49999237
 20
-9.24998474
 30
0.0
 11
21.99999237
 21
-9.24998474
 31
0.0
  0
LINE
  5
D7
330
1D
100
AcDbEntity
  8
3
  6
DASH
370
    35
100
AcDbLine
 10
11.24999237
 20
-7.99998474
 30
0.0
 11
20.49999237
 21
-7.99998474
 31
0.0
  0
LINE
  5
D8
330
1D
100
AcDbEntity
  8
3
  6
DASH
370
    35
100
AcDbLine
 10
9.99999237
 20
-9.24998474
 30
0.0
 11
11.24999237
 21
-7.99998474
 31
0.0
  0
LINE
  5
D9
330
1D
100
AcDbEntity
  8
1
  6
Continuous
370
    50
100
AcDbLine
 10
27.599999681
 20
12.000000104
 30
0.0
 11
27.450000867
 21
11.850000359
 31
0.0
  0
LINE
  5
DA
330
1D
100
AcDbEntity
  8
1
  6
Continuous
370
    50
100
AcDbLine
 10
27.450000867
 20
-11.850000359
 30
0.0
 11
27.599999681
 21
-12.000000104
 31
0.0
  0
LINE
  5
DB
330
1D
100
AcDbEntity
  8
1
  6
Continuous
370
    50
100
AcDbLine
 10
27.599999681
 20
-12.000000104
 30
0.0
 11
93.297928572
 21
-12.000000104
 31
0.0
  0
LINE
  5
DC
330
1D
100
AcDbEntity
  8
1
  6
Continuous
370
    50
100
AcDbLine
 10
93.297928572
 20
12.000000104
 30
0.0
 11
27.599999681
 21
12.000000104
 31
0.0
  0
LINE
  5
DD
330
1D
100
AcDbEntity
  8
1
  6
Continuous
370
    50
100
AcDbLine
 10
93.297928572
 20
-12.000000104
 30
0.0
 11
93.500003219
 21
-11.649999768
 31
0.0
  0
LINE
  5
DE
330
1D
100
AcDbEntity
  8
1
  6
Continuous
370
    50
100
AcDbLine
 10
93.500003219
 20
11.649999768
 30
0.0
 11
93.297928572
 21
12.000000104
 31
0.0
  0
LINE
  5
DF
330
1D
100
AcDbEntity
  8
1
  6
Continuous
370
    50
100
AcDbLine
 10
26.95
 20
-11.85
 30
0.0
 11
27.450000867
 21
-11.850000359
 31
0.0
  0
LINE
  5
E0
330
1D
100
AcDbEntity
  8
1
  6
Continuous
370
    50
100
AcDbLine
 10
27.450000867
 20
11.850000359
 30
0.0
 11
26.95
 21
11.85
 31
0.0
  0
LINE
  5
E1
330
1D
100
AcDbEntity
  8
1
  6
Continuous
370
    50
100
AcDbLine
 10
93.500003219
 20
-11.649999768
 30
0.0
 11
95.100000501
 21
-11.649999768
 31
0.0
  0
LINE
  5
E2
330
1D
100
AcDbEntity
  8
1
  6
Continuous
370
    50
100
AcDbLine
 10
95.100000501
 20
11.649999768
 30
0.0
 11
93.500003219
 21
11.649999768
 31
0.0
  0
LINE
  5
E3
330
1D
100
AcDbEntity
  8
1
  6
Continuous
370
    50
100
AcDbLine
 10
95.100000501
 20
-11.649999768
 30
0.0
 11
95.499999821
 21
-11.250000447
 31
0.0
  0
LINE
  5
E4
330
1D
100
AcDbEntity
  8
1
  6
Continuous
370
    50
100
AcDbLine
 10
95.499999821
 20
11.250000447
 30
0.0
 11
95.100000501
 21
11.649999768
 31
0.0
  0
LINE
  5
E5
330
1D
100
AcDbEntity
  8
1
  6
Continuous
370
    50
100
AcDbLine
 10
87.700001895
 20
0.721687858
 30
0.0
 11
87.700001895
 21
-0.721687859
 31
0.0
  0
LINE
  5
E6
330
1D
100
AcDbEntity
  8
1
  6
Continuous
370
    50
100
AcDbLine
 10
87.700001895
 20
-0.721687859
 30
0.0
 11
88.950000703
 21
-1.443375717
 31
0.0
  0
LINE
  5
E7
330
1D
100
AcDbEntity
  8
1
  6
Continuous
370
    50
100
AcDbLine
 10
88.950000703
 20
-1.443375717
 30
0.0
 11
90.199999511
 21
-0.721687859
 31
0.0
  0
LINE
  5
E8
330
1D
100
AcDbEntity
  8
1
  6
Continuous
370
    50
100
AcDbLine
 10
90.199999511
 20
-0.721687859
 30
0.0
 11
90.199999511
 21
0.721687858
 31
0.0
  0
LINE
  5
E9
330
1D
100
AcDbEntity
  8
1
  6
Continuous
370
    50
100
AcDbLine
 10
90.199999511
 20
0.721687858
 30
0.0
 11
88.950000703
 21
1.443375717
 31
0.0
  0
LINE
  5
EA
330
1D
100
AcDbEntity
  8
1
  6
Continuous
370
    50
100
AcDbLine
 10
88.950000703
 20
1.443375717
 30
0.0
 11
87.700001895
 21
0.721687858
 31
0.0
  0
LINE
  5
EB
330
1D
100
AcDbEntity
  8
SK4
  6
LONGDASH_DASH
370
    25
100
AcDbLine
 10
88.950000703
 20
3.474092798
 30
0.0
 11
88.950000703
 21
-3.717390947
 31
0.0
  0
LINE
  5
EC
330
1D
100
AcDbEntity
  8
1
  6
Continuous
370
    50
100
AcDbLine
 10
27.450000867
 20
-11.850000359
 30
0.0
 11
27.450000867
 21
11.850000359
 31
0.0
  0
LINE
  5
ED
330
1D
100
AcDbEntity
  8
1
  6
Continuous
370
    50
100
AcDbLine
 10
93.500003219
 20
-11.649999768
 30
0.0
 11
93.500003219
 21
11.649999768
 31
0.0
  0
LINE
  5
EE
330
1D
100
AcDbEntity
  8
1
  6
Continuous
370
    50
100
AcDbLine
 10
93.500003219
 20
-11.649999768
 30
0.0
 11
93.500003219
 21
0.0
 31
0.0
  0
LINE
  5
EF
330
1D
100
AcDbEntity
  8
1
  6
Continuous
370
    50
100
AcDbLine
 10
95.499999821
 20
-11.250000447
 30
0.0
 11
95.499999821
 21
11.250000447
 31
0.0
  0
LINE
  5
F0
330
1D
100
AcDbEntity
  8
1
  6
Continuous
370
    50
100
AcDbLine
 10
93.500003219
 20
11.649999768
 30
0.0
 11
93.500003219
 21
-11.649999768
 31
0.0
  0
LINE
  5
F1
330
1D
100
AcDbEntity
  8
1
  6
Continuous
370
    50
100
AcDbLine
 10
95.499999821
 20
0.0
 30
0.0
 11
95.499999821
 21
-11.250000447
 31
0.0
  0
LINE
  5
F2
330
1D
100
AcDbEntity
  8
1
  6
Continuous
370
    50
100
AcDbLine
 10
95.499999821
 20
11.250000447
 30
0.0
 11
95.499999821
 21
0.0
 31
0.0
  0
LINE
  5
F3
330
1D
100
AcDbEntity
  8
3
  6
DASH
370
    35
100
AcDbLine
 10
78.000001609
 20
-7.249999791
 30
0.0
 11
78.000001609
 21
7.249999791
 31
0.0
  0
LINE
  5
F4
330
1D
100
AcDbEntity
  8
3
  6
DASH
370
    35
100
AcDbLine
 10
76.239079237
 20
4.19999985
 30
0.0
 11
76.239079237
 21
-4.19999985
 31
0.0
  0
LINE
  5
F5
330
1D
100
AcDbEntity
  8
3
  6
DASH
370
    35
100
AcDbLine
 10
80.283492804
 20
-7.000000216
 30
0.0
 11
80.283492804
 21
7.000000216
 31
0.0
  0
LINE
  5
F6
330
1D
100
AcDbEntity
  8
1
  6
Continuous
370
    50
100
AcDbLine
 10
95.499999821
 20
-8.975000121
 30
0.0
 11
95.499999821
 21
-10.158771649
 31
0.0
  0
LINE
  5
F7
330
1D
100
AcDbEntity
  8
3
  6
DASH
370
    35
100
AcDbLine
 10
78.000001609
 20
-7.249999791
 30
0.0
 11
79.85047996
 21
-7.249999791
 31
0.0
  0
LINE
  5
F8
330
1D
100
AcDbEntity
  8
3
  6
DASH
370
    35
100
AcDbLine
 10
79.85047996
 20
7.249999791
 30
0.0
 11
78.000001609
 21
7.249999791
 31
0.0
  0
LINE
  5
F9
330
1D
100
AcDbEntity
  8
3
  6
DASH
370
    35
100
AcDbLine
 10
78.000001609
 20
7.249999791
 30
0.0
 11
76.239079237
 21
4.19999985
 31
0.0
  0
LINE
  5
FA
330
1D
100
AcDbEntity
  8
3
  6
DASH
370
    35
100
AcDbLine
 10
76.239079237
 20
-4.19999985
 30
0.0
 11
78.000001609
 21
-7.249999791
 31
0.0
  0
LINE
  5
FB
330
1D
100
AcDbEntity
  8
3
  6
DASH
370
    35
100
AcDbLine
 10
79.85047996
 20
-7.249999791
 30
0.0
 11
80.283492804
 21
-7.000000216
 31
0.0
  0
LINE
  5
FC
330
1D
100
AcDbEntity
  8
3
  6
DASH
370
    35
100
AcDbLine
 10
80.283492804
 20
7.000000216
 30
0.0
 11
79.85047996
 21
7.249999791
 31
0.0
  0
LINE
  5
FD
330
1D
100
AcDbEntity
  8
3
  6
DASH
370
    35
100
AcDbLine
 10
80.283492804
 20
-7.000000216
 30
0.0
 11
95.499999821
 21
-7.000000216
 31
0.0
  0
LINE
  5
FE
330
1D
100
AcDbEntity
  8
3
  6
DASH
370
    35
100
AcDbLine
 10
95.499999821
 20
7.000000216
 30
0.0
 11
80.283492804
 21
7.000000216
 31
0.0
  0
LINE
  5
FF
330
1D
100
AcDbEntity
  8
3
  6
DASH
370
    35
100
AcDbLine
 10
76.239079237
 20
4.19999985
 30
0.0
 11
21.800000221
 21
4.19999985
 31
0.0
  0
LINE
  5
100
330
1D
100
AcDbEntity
  8
3
  6
DASH
370
    35
100
AcDbLine
 10
21.800000221
 20
-4.19999985
 30
0.0
 11
76.239079237
 21
-4.19999985
 31
0.0
  0
ARC
  5
101
330
1D
100
AcDbEntity
  8
1
  6
Continuous
370
    50
100
AcDbCircle
 10
26.95
 20
-12.85
 30
0.0
 40
1.0
100
AcDbArc
 50
90.0
 51
180.0
  0
ARC
  5
102
330
1D
100
AcDbEntity
  8
1
  6
Continuous
370
    50
100
AcDbCircle
 10
26.95
 20
12.85
 30
0.0
 40
1.0
100
AcDbArc
 50
180.0
 51
270.0
  0
CIRCLE
  5
103
330
1D
100
AcDbEntity
  8
1
  6
Continuous
370
    50
100
AcDbCircle
 10
88.950000703
 20
0.0
 30
0.0
 40
2.600000012
  0
CIRCLE
  5
104
330
1D
100
AcDbEntity
  8
1
  6
Continuous
370
    50
100
AcDbCircle
 10
88.950000703
 20
0.0
 30
0.0
 40
2.6
  0
LINE
  5
105
330
1D
100
AcDbEntity
  8
2
  6
Continuous
370
    25
100
AcDbLine
 10
106.332597554
 20
-7.000000216
 30
0.0
 11
95.499999821
 21
-7.000000216
 31
0.0
  0
LINE
  5
106
330
1D
100
AcDbEntity
  8
2
  6
Continuous
370
    25
100
AcDbLine
 10
104.332597554
 20
-7.000000216
 30
0.0
 11
103.882597554
 21
-3.500000216
 31
0.0
  0
LINE
  5
107
330
1D
100
AcDbEntity
  8
2
  6
Continuous
370
    25
100
AcDbLine
 10
103.882597554
 20
-3.500000216
 30
0.0
 11
104.782597554
 21
-3.500000216
 31
0.0
  0
LINE
  5
108
330
1D
100
AcDbEntity
  8
2
  6
Continuous
370
    25
100
AcDbLine
 10
104.782597554
 20
-3.500000216
 30
0.0
 11
104.332597554
 21
-7.000000216
 31
0.0
  0
LINE
  5
109
330
1D
100
AcDbEntity
  8
2
  6
Continuous
370
    25
100
AcDbLine
 10
106.332597554
 20
7.000000216
 30
0.0
 11
95.499999821
 21
7.000000216
 31
0.0
  0
LINE
  5
10A
330
1D
100
AcDbEntity
  8
2
  6
Continuous
370
    25
100
AcDbLine
 10
104.332597554
 20
7.000000216
 30
0.0
 11
104.782597554
 21
3.500000216
 31
0.0
  0
LINE
  5
10B
330
1D
100
AcDbEntity
  8
2
  6
Continuous
370
    25
100
AcDbLine
 10
104.782597554
 20
3.500000216
 30
0.0
 11
103.882597554
 21
3.500000216
 31
0.0
  0
LINE
  5
10C
330
1D
100
AcDbEntity
  8
2
  6
Continuous
370
    25
100
AcDbLine
 10
103.882597554
 20
3.500000216
 30
0.0
 11
104.332597554
 21
7.000000216
 31
0.0
  0
LINE
  5
10D
330
1D
100
AcDbEntity
  8
2
  6
Continuous
370
    25
100
AcDbLine
 10
104.332597554
 20
-3.500000216
 30
0.0
 11
104.332597554
 21
3.500000216
 31
0.0
  0
TEXT
  5
10E
330
1D
100
AcDbEntity
  8
2
  6
Continuous
370
    25
100
AcDbText
 10
102.832597554
 20
0.468124843
 30
0.0
 40
3.5
  1
14
 50
90.0
  7
BMG_Text
100
AcDbText
  0
CIRCLE
  5
10F
330
1D
100
AcDbEntity
  8
2
  6
Continuous
370
    25
100
AcDbCircle
 10
101.582597554
 20
-1.781875157
 30
0.0
 40
1.25
  0
LINE
  5
110
330
1D
100
AcDbEntity
  8
2
  6
Continuous
370
    25
100
AcDbLine
 10
102.832597554
 20
-3.031875157
 30
0.0
 11
100.332597554
 21
-0.531875157
 31
0.0
  0
LINE
  5
111
330
1D
100
AcDbEntity
  8
2
  6
Continuous
370
    25
100
AcDbLine
 10
114.580218077
 20
-12.000000104
 30
0.0
 11
93.297928572
 21
-12.000000104
 31
0.0
  0
LINE
  5
112
330
1D
100
AcDbEntity
  8
2
  6
Continuous
370
    25
100
AcDbLine
 10
112.580218077
 20
-12.000000104
 30
0.0
 11
112.130218077
 21
-8.500000104
 31
0.0
  0
LINE
  5
113
330
1D
100
AcDbEntity
  8
2
  6
Continuous
370
    25
100
AcDbLine
 10
112.130218077
 20
-8.500000104
 30
0.0
 11
113.030218077
 21
-8.500000104
 31
0.0
  0
LINE
  5
114
330
1D
100
AcDbEntity
  8
2
  6
Continuous
370
    25
100
AcDbLine
 10
113.030218077
 20
-8.500000104
 30
0.0
 11
112.580218077
 21
-12.000000104
 31
0.0
  0
LINE
  5
115
330
1D
100
AcDbEntity
  8
2
  6
Continuous
370
    25
100
AcDbLine
 10
114.580218077
 20
12.000000104
 30
0.0
 11
93.297928572
 21
12.000000104
 31
0.0
  0
LINE
  5
116
330
1D
100
AcDbEntity
  8
2
  6
Continuous
370
    25
100
AcDbLine
 10
112.580218077
 20
12.000000104
 30
0.0
 11
113.030218077
 21
8.500000104
 31
0.0
  0
LINE
  5
117
330
1D
100
AcDbEntity
  8
2
  6
Continuous
370
    25
100
AcDbLine
 10
113.030218077
 20
8.500000104
 30
0.0
 11
112.130218077
 21
8.500000104
 31
0.0
  0
LINE
  5
118
330
1D
100
AcDbEntity
  8
2
  6
Continuous
370
    25
100
AcDbLine
 10
112.130218077
 20
8.500000104
 30
0.0
 11
112.580218077
 21
12.000000104
 31
0.0
  0
LINE
  5
119
330
1D
100
AcDbEntity
  8
2
  6
Continuous
370
    25
100
AcDbLine
 10
112.580218077
 20
-8.500000104
 30
0.0
 11
112.580218077
 21
8.500000104
 31
0.0
  0
TEXT
  5
11A
330
1D
100
AcDbEntity
  8
2
  6
Continuous
370
    25
100
AcDbText
 10
111.080218077
 20
0.085312232
 30
0.0
 40
3.5
  1
24
 50
90.0
  7
BMG_Text
100
AcDbText
  0
CIRCLE
  5
11B
330
1D
100
AcDbEntity
  8
2
  6
Continuous
370
    25
100
AcDbCircle
 10
109.830218077
 20
-2.164687768
 30
0.0
 40
1.25
  0
LINE
  5
11C
330
1D
100
AcDbEntity
  8
2
  6
Continuous
370
    25
100
AcDbLine
 10
111.080218077
 20
-3.414687768
 30
0.0
 11
108.580218077
 21
-0.914687768
 31
0.0
  0
LINE
  5
11D
330
1D
100
AcDbEntity
  8
2
  6
Continuous
370
    25
100
AcDbLine
 10
0.0
 20
39.809148786
 30
0.0
 11
0.0
 21
31.49996948
 31
0.0
  0
LINE
  5
11E
330
1D
100
AcDbEntity
  8
2
  6
Continuous
370
    25
100
AcDbLine
 10
0.0
 20
37.809148786
 30
0.0
 11
3.499999998
 21
38.259148803
 31
0.0
  0
LINE
  5
11F
330
1D
100
AcDbEntity
  8
2
  6
Continuous
370
    25
100
AcDbLine
 10
3.499999998
 20
38.259148803
 30
0.0
 11
3.500000002
 21
37.359148803
 31
0.0
  0
LINE
  5
120
330
1D
100
AcDbEntity
  8
2
  6
Continuous
370
    25
100
AcDbLine
 10
3.500000002
 20
37.359148803
 30
0.0
 11
0.0
 21
37.809148786
 31
0.0
  0
LINE
  5
121
330
1D
100
AcDbEntity
  8
2
  6
Continuous
370
    25
100
AcDbLine
 10
95.499999821
 20
39.809149235
 30
0.0
 11
95.499999821
 21
11.250000447
 31
0.0
  0
LINE
  5
122
330
1D
100
AcDbEntity
  8
2
  6
Continuous
370
    25
100
AcDbLine
 10
95.499999821
 20
37.809149235
 30
0.0
 11
91.999999823
 21
37.359149219
 31
0.0
  0
LINE
  5
123
330
1D
100
AcDbEntity
  8
2
  6
Continuous
370
    25
100
AcDbLine
 10
91.999999823
 20
37.359149219
 30
0.0
 11
91.999999819
 21
38.259149219
 31
0.0
  0
LINE
  5
124
330
1D
100
AcDbEntity
  8
2
  6
Continuous
370
    25
100
AcDbLine
 10
91.999999819
 20
38.259149219
 30
0.0
 11
95.499999821
 21
37.809149235
 31
0.0
  0
LINE
  5
125
330
1D
100
AcDbEntity
  8
2
  6
Continuous
370
    25
100
AcDbLine
 10
3.5
 20
37.809148803
 30
0.0
 11
91.999999821
 21
37.809149219
 31
0.0
  0
TEXT
  5
126
330
1D
100
AcDbEntity
  8
2
  6
Continuous
370
    25
100
AcDbText
 10
44.745467586
 20
39.309148997
 30
0.0
 40
3.5
  1
95.5
 50
0.00000027
  7
BMG_Text
100
AcDbText
  0
LINE
  5
1D3
330
1D
100
AcDbEntity
  8
NOCUT
100
AcDbLine
 10
26.95
 20
11.85
 30
0.0
 11
27.44756947162801
 21
11.85
 31
0.0
  0
LINE
  5
1D4
330
1D
100
AcDbEntity
  8
NOCUT
100
AcDbLine
 10
27.44756947162801
 20
11.85
 30
0.0
 11
27.599999681
 21
12.000000104
 31
0.0
  0
LINE
  5
1D5
330
1D
100
AcDbEntity
  8
NOCUT
100
AcDbLine
 10
27.599999681
 20
12.000000104
 30
0.0
 11
93.297928572
 21
12.000000104
 31
0.0
  0
LINE
  5
1D6
330
1D
100
AcDbEntity
  8
NOCUT
100
AcDbLine
 10
93.297928572
 20
12.000000104
 30
0.0
 11
93.500003219
 21
11.649999768
 31
0.0
  0
LINE
  5
1D7
330
1D
100
AcDbEntity
  8
NOCUT
100
AcDbLine
 10
93.500003219
 20
11.649999768
 30
0.0
 11
95.100000501
 21
11.649999768
 31
0.0
  0
LINE
  5
1D8
330
1D
100
AcDbEntity
  8
NOCUT
100
AcDbLine
 10
95.100000501
 20
11.649999768
 30
0.0
 11
95.499999821
 21
11.250000447
 31
0.0
  0
LINE
  5
1D9
330
1D
100
AcDbEntity
  8
NOCUT
100
AcDbLine
 10
95.499999821
 20
11.250000447
 30
0.0
 11
95.499999821
 21
0.0
 31
0.0
  0
LINE
  5
1DA
330
1D
100
AcDbEntity
  8
NOCUT
100
AcDbLine
 10
95.499999821
 20
0.0
 30
0.0
 11
0.0
 21
0.0
 31
0.0
  0
LINE
  5
1DB
330
1D
100
AcDbEntity
  8
NOCUT
100
AcDbLine
 10
0.0
 20
0.0
 30
0.0
 11
0.0
 21
31.49996948
 31
0.0
  0
LINE
  5
1DC
330
1D
100
AcDbEntity
  8
NOCUT
100
AcDbLine
 10
0.0
 20
31.49996948
 30
0.0
 11
14.62243652
 21
31.49996948
 31
0.0
  0
LINE
  5
1DD
330
1D
100
AcDbEntity
  8
NOCUT
100
AcDbLine
 10
14.62243652
 20
31.49996948
 30
0.0
 11
16.12493896
 21
28.89755249
 31
0.0
  0
LINE
  5
1DE
330
1D
100
AcDbEntity
  8
NOCUT
100
AcDbLine
 10
16.12493896
 20
28.89755249
 30
0.0
 11
16.12493896
 21
28.48388938477784
 31
0.0
  0
LINE
  5
1DF
330
1D
100
AcDbEntity
  8
NOCUT
100
AcDbLine
 10
17.12498474
 20
27.49996954
 30
0.0
 11
18.87493896
 21
27.49996948
 31
0.0
  0
LINE
  5
1E5
330
1D
100
AcDbEntity
  8
NOCUT
100
AcDbLine
 10
19.87498468
 20
28.49996948
 30
0.0
 11
19.87493896
 21
28.89755249
 31
0.0
  0
LINE
  5
1E6
330
1D
100
AcDbEntity
  8
NOCUT
100
AcDbLine
 10
19.87493896
 20
28.89755249
 30
0.0
 11
21.37744141
 21
31.49996948
 31
0.0
  0
LINE
  5
1E7
330
1D
100
AcDbEntity
  8
NOCUT
100
AcDbLine
 10
21.37744141
 20
31.49996948
 30
0.0
 11
25.99993896
 21
31.49996948
 31
0.0
  0
LINE
  5
1E8
330
1D
100
AcDbEntity
  8
NOCUT
100
AcDbLine
 10
25.99993896
 20
31.49996948
 30
0.0
 11
25.99993896
 21
12.53793587153581
 31
0.0
  0
ARC
  5
1E9
330
1D
100
AcDbEntity
  8
NOCUT
100
AcDbCircle
 10
17.12511218688777
 20
28.50027693553319
 30
0.0
 40
1.00030747053236
100
AcDbArc
 50
180.9386908798577
 51
269.9900778811423
  0
ARC
  5
1EA
330
1D
100
AcDbEntity
  8
NOCUT
100
AcDbCircle
 10
18.87498474
 20
28.49996948
 30
0.0
 40
0.9999999399999976
100
AcDbArc
 50
269.9999999999998
 51
359.4521112174581
  0
ARC
  5
1EB
330
1D
100
AcDbEntity
  8
NOCUT
100
AcDbCircle
 10
26.95
 20
12.85
 30
0.0
 40
1.000000000000002
100
AcDbArc
 50
180.0000000000001
 51
269.9999999999998
  0
LWPOLYLINE
  5
1ED
330
1D
100
AcDbEntity
  8
INFTOTAL
100
AcDbPolyline
 90
        4
 70
     1
 43
0.0
 10
-84.91861686003676
 20
63.6132148018434
 10
-84.91861686003676
 20
-81.80437621035507
 10
136.7204380752688
 20
-81.80437621035507
 10
136.7204380752688
 20
63.6132148018434
  0
LINE
  5
22E
330
1D
100
AcDbEntity
  8
SK1
100
AcDbLine
 10
-0.0000267729567411
 20
24.03498366037783
 30
0.0
 11
-0.0000268262935069
 21
-24.03498362037423
 31
0.0
  0
LINE
  5
242
330
1D
100
AcDbEntity
  8
4
100
AcDbLine
 10
96.883834957
 20
0.0
 30
0.0
 11
0.0
 21
0.0
 31
0.0
  0
LINE
  5
243
330
1D
100
AcDbEntity
  8
4
100
AcDbLine
 10
88.950000703
 20
3.474092798
 30
0.0
 11
88.950000703
 21
-3.717390947
 31
0.0
  0
LINE
  5
265
330
1D
100
AcDbEntity
  8
SK3
100
AcDbLine
 10
-0.000007629
 20
17.00001526
 30
0.0
 11
0.0
 21
17.00001526
 31
0.0
  0
LINE
  5
266
330
1D
100
AcDbEntity
  8
SK3
100
AcDbLine
 10
-0.000007629
 20
-16.99998474
 30
0.0
 11
0.0
 21
-16.99998474
 31
0.0
  0
ENDSEC
  0
SECTION
  2
OBJECTS
  0
DICTIONARY
  5
C
330
0
100
AcDbDictionary
281
     1
  3
ACAD_DETAILVIEWSTYLE
350
1E3
  3
ACAD_GROUP
350
D
  3
ACAD_LAYOUT
350
1A
  3
ACAD_MLINESTYLE
350
17
  3
ACAD_PLOTSETTINGS
350
19
  3
ACAD_PLOTSTYLENAME
350
E
  3
ACAD_SCALELIST
350
12D
  3
ACAD_SECTIONVIEWSTYLE
350
1E4
  3
AcDbVariableDictionary
350
16F
  3
APPDATA
350
1BD
  3
DWGPROPS
350
2DB
  0
DICTIONARY
  5
1BE
330
2
100
AcDbDictionary
280
     1
281
     1
  3
ACAD_LAYERSTATES
360
1BF
  0
DICTIONARY
  5
1E3
102
{ACAD_REACTORS
330
C
102
}
330
C
100
AcDbDictionary
281
     1
  0
DICTIONARY
  5
D
102
{ACAD_REACTORS
330
C
102
}
330
C
100
AcDbDictionary
281
     1
  0
DICTIONARY
  5
1A
102
{ACAD_REACTORS
330
C
102
}
330
C
100
AcDbDictionary
281
     1
  3
Layout1
350
1C
  3
Model
350
1E
  0
DICTIONARY
  5
17
102
{ACAD_REACTORS
330
C
102
}
330
C
100
AcDbDictionary
281
     1
  3
Standard
350
18
  0
DICTIONARY
  5
19
102
{ACAD_REACTORS
330
C
102
}
330
C
100
AcDbDictionary
281
     1
  0
ACDBDICTIONARYWDFLT
  5
E
102
{ACAD_REACTORS
330
C
102
}
330
C
100
AcDbDictionary
281
     1
  3
Normal
350
F
100
AcDbDictionaryWithDefault
340
F
  0
DICTIONARY
  5
12D
102
{ACAD_REACTORS
330
C
102
}
330
C
100
AcDbDictionary
281
     1
  3
A0
350
12E
  3
A1
350
12F
  3
A2
350
130
  3
A3
350
131
  3
A4
350
132
  3
A5
350
133
  3
A6
350
134
  3
A7
350
135
  3
A8
350
136
  3
A9
350
137
  3
B0
350
138
  3
B1
350
139
  3
B2
350
13A
  3
B3
350
13B
  3
B4
350
13C
  3
B5
350
13D
  3
B6
350
13E
  3
B7
350
13F
  3
B8
350
140
  3
B9
350
141
  3
C0
350
142
  3
C1
350
143
  3
C2
350
144
  3
C3
350
145
  3
C4
350
146
  3
C5
350
147
  3
C6
350
148
  3
C7
350
149
  3
C8
350
14A
  3
C9
350
14B
  3
D0
350
14C
  3
D1
350
14D
  3
D2
350
14E
  0
DICTIONARY
  5
1E4
102
{ACAD_REACTORS
330
C
102
}
330
C
100
AcDbDictionary
281
     1
  0
DICTIONARY
  5
16F
102
{ACAD_REACTORS
330
C
102
}
330
C
100
AcDbDictionary
281
     1
  3
DIMASSOC
350
173
  3
HIDETEXT
350
174
  0
DICTIONARY
  5
1BD
102
{ACAD_REACTORS
330
C
102
}
330
C
100
AcDbDictionary
281
     1
  0
XRECORD
  5
2DB
102
{ACAD_REACTORS
330
C
102
}
330
C
100
AcDbXrecord
280
     1
  1
DWGPROPS COOKIE
  2

  3

  4

  6

  7

  8
matthias.ochs
  9

300
=
301
=
302
=
303
=
304
=
305
=
306
=
307
=
308
=
309
=
 40
0.0
 41
2458327.466037373
 42
2458589.529193553
  1

 90
        0
  0
DICTIONARY
  5
1BF
102
{ACAD_REACTORS
330
1BE
102
}
330
1BE
100
AcDbDictionary
281
     1
  0
LAYOUT
  5
1C
102
{ACAD_REACTORS
330
1A
102
}
330
1A
100
AcDbPlotSettings
  1

  2
none_device
  4

  6

 40
0.0
 41
0.0
 42
0.0
 43
0.0
 44
0.0
 45
0.0
 46
0.0
 47
0.0
 48
0.0
 49
0.0
140
0.0
141
0.0
142
1.0
143
1.0
 70
   688
 72
     0
 73
     0
 74
     5
  7

 75
    16
147
1.0
148
0.0
149
0.0
100
AcDbLayout
  1
Layout1
 70
     1
 71
     1
 10
0.0
 20
0.0
 11
12.0
 21
9.0
 12
0.0
 22
0.0
 32
0.0
 14
1.000000000000000E+20
 24
1.000000000000000E+20
 34
1.000000000000000E+20
 15
-1.000000000000000E+20
 25
-1.000000000000000E+20
 35
-1.000000000000000E+20
146
0.0
 13
0.0
 23
0.0
 33
0.0
 16
1.0
 26
0.0
 36
0.0
 17
0.0
 27
1.0
 37
0.0
 76
     0
330
1B
  0
LAYOUT
  5
1E
102
{ACAD_REACTORS
330
1A
102
}
330
1A
100
AcDbPlotSettings
  1

  2
none_device
  4

  6

 40
0.0
 41
0.0
 42
0.0
 43
0.0
 44
0.0
 45
0.0
 46
0.0
 47
0.0
 48
0.0
 49
0.0
140
0.0
141
0.0
142
1.0
143
1.0
 70
  1712
 72
     0
 73
     0
 74
     0
  7

 75
     0
147
1.0
148
0.0
149
0.0
100
AcDbLayout
  1
Model
 70
     1
 71
     0
 10
0.0
 20
0.0
 11
12.0
 21
9.0
 12
0.0
 22
0.0
 32
0.0
 14
-84.91861686003676
 24
-81.80437621035507
 34
0.0
 15
136.7204380752688
 25
63.6132148018434
 35
0.0
146
0.0
 13
0.0
 23
0.0
 33
0.0
 16
1.0
 26
0.0
 36
0.0
 17
0.0
 27
1.0
 37
0.0
 76
     0
330
1D
331
127
  0
MLINESTYLE
  5
18
102
{ACAD_REACTORS
330
17
102
}
330
17
100
AcDbMlineStyle
  2
Standard
 70
     0
  3

 62
   256
 51
90.0
 52
90.0
 71
     2
 49
0.5
 62
   256
  6
BYLAYER
 49
-0.5
 62
   256
  6
BYLAYER
  0
ACDBPLACEHOLDER
  5
F
102
{ACAD_REACTORS
330
E
102
}
330
E
  0
SCALE
  5
12E
102
{ACAD_REACTORS
330
12D
102
}
330
12D
100
AcDbScale
 70
     0
300
1:1
140
1.0
141
1.0
290
     1
  0
SCALE
  5
12F
102
{ACAD_REACTORS
330
12D
102
}
330
12D
100
AcDbScale
 70
     0
300
1:2
140
1.0
141
2.0
290
     0
  0
SCALE
  5
130
102
{ACAD_REACTORS
330
12D
102
}
330
12D
100
AcDbScale
 70
     0
300
1:4
140
1.0
141
4.0
290
     0
  0
SCALE
  5
131
102
{ACAD_REACTORS
330
12D
102
}
330
12D
100
AcDbScale
 70
     0
300
1:5
140
1.0
141
5.0
290
     0
  0
SCALE
  5
132
102
{ACAD_REACTORS
330
12D
102
}
330
12D
100
AcDbScale
 70
     0
300
1:8
140
1.0
141
8.0
290
     0
  0
SCALE
  5
133
102
{ACAD_REACTORS
330
12D
102
}
330
12D
100
AcDbScale
 70
     0
300
1:10
140
1.0
141
10.0
290
     0
  0
SCALE
  5
134
102
{ACAD_REACTORS
330
12D
102
}
330
12D
100
AcDbScale
 70
     0
300
1:16
140
1.0
141
16.0
290
     0
  0
SCALE
  5
135
102
{ACAD_REACTORS
330
12D
102
}
330
12D
100
AcDbScale
 70
     0
300
1:20
140
1.0
141
20.0
290
     0
  0
SCALE
  5
136
102
{ACAD_REACTORS
330
12D
102
}
330
12D
100
AcDbScale
 70
     0
300
1:30
140
1.0
141
30.0
290
     0
  0
SCALE
  5
137
102
{ACAD_REACTORS
330
12D
102
}
330
12D
100
AcDbScale
 70
     0
300
1:40
140
1.0
141
40.0
290
     0
  0
SCALE
  5
138
102
{ACAD_REACTORS
330
12D
102
}
330
12D
100
AcDbScale
 70
     0
300
1:50
140
1.0
141
50.0
290
     0
  0
SCALE
  5
139
102
{ACAD_REACTORS
330
12D
102
}
330
12D
100
AcDbScale
 70
     0
300
1:100
140
1.0
141
100.0
290
     0
  0
SCALE
  5
13A
102
{ACAD_REACTORS
330
12D
102
}
330
12D
100
AcDbScale
 70
     0
300
2:1
140
2.0
141
1.0
290
     0
  0
SCALE
  5
13B
102
{ACAD_REACTORS
330
12D
102
}
330
12D
100
AcDbScale
 70
     0
300
4:1
140
4.0
141
1.0
290
     0
  0
SCALE
  5
13C
102
{ACAD_REACTORS
330
12D
102
}
330
12D
100
AcDbScale
 70
     0
300
8:1
140
8.0
141
1.0
290
     0
  0
SCALE
  5
13D
102
{ACAD_REACTORS
330
12D
102
}
330
12D
100
AcDbScale
 70
     0
300
10:1
140
10.0
141
1.0
290
     0
  0
SCALE
  5
13E
102
{ACAD_REACTORS
330
12D
102
}
330
12D
100
AcDbScale
 70
     0
300
100:1
140
100.0
141
1.0
290
     0
  0
SCALE
  5
13F
102
{ACAD_REACTORS
330
12D
102
}
330
12D
100
AcDbScale
 70
     0
300
1/128" = 1'-0"
140
0.0078125
141
12.0
290
     0
  0
SCALE
  5
140
102
{ACAD_REACTORS
330
12D
102
}
330
12D
100
AcDbScale
 70
     0
300
1/64" = 1'-0"
140
0.015625
141
12.0
290
     0
  0
SCALE
  5
141
102
{ACAD_REACTORS
330
12D
102
}
330
12D
100
AcDbScale
 70
     0
300
1/32" = 1'-0"
140
0.03125
141
12.0
290
     0
  0
SCALE
  5
142
102
{ACAD_REACTORS
330
12D
102
}
330
12D
100
AcDbScale
 70
     0
300
1/16" = 1'-0"
140
0.0625
141
12.0
290
     0
  0
SCALE
  5
143
102
{ACAD_REACTORS
330
12D
102
}
330
12D
100
AcDbScale
 70
     0
300
3/32" = 1'-0"
140
0.09375
141
12.0
290
     0
  0
SCALE
  5
144
102
{ACAD_REACTORS
330
12D
102
}
330
12D
100
AcDbScale
 70
     0
300
1/8" = 1'-0"
140
0.125
141
12.0
290
     0
  0
SCALE
  5
145
102
{ACAD_REACTORS
330
12D
102
}
330
12D
100
AcDbScale
 70
     0
300
3/16" = 1'-0"
140
0.1875
141
12.0
290
     0
  0
SCALE
  5
146
102
{ACAD_REACTORS
330
12D
102
}
330
12D
100
AcDbScale
 70
     0
300
1/4" = 1'-0"
140
0.25
141
12.0
290
     0
  0
SCALE
  5
147
102
{ACAD_REACTORS
330
12D
102
}
330
12D
100
AcDbScale
 70
     0
300
3/8" = 1'-0"
140
0.375
141
12.0
290
     0
  0
SCALE
  5
148
102
{ACAD_REACTORS
330
12D
102
}
330
12D
100
AcDbScale
 70
     0
300
1/2" = 1'-0"
140
0.5
141
12.0
290
     0
  0
SCALE
  5
149
102
{ACAD_REACTORS
330
12D
102
}
330
12D
100
AcDbScale
 70
     0
300
3/4" = 1'-0"
140
0.75
141
12.0
290
     0
  0
SCALE
  5
14A
102
{ACAD_REACTORS
330
12D
102
}
330
12D
100
AcDbScale
 70
     0
300
1" = 1'-0"
140
1.0
141
12.0
290
     0
  0
SCALE
  5
14B
102
{ACAD_REACTORS
330
12D
102
}
330
12D
100
AcDbScale
 70
     0
300
1-1/2" = 1'-0"
140
1.5
141
12.0
290
     0
  0
SCALE
  5
14C
102
{ACAD_REACTORS
330
12D
102
}
330
12D
100
AcDbScale
 70
     0
300
3" = 1'-0"
140
3.0
141
12.0
290
     0
  0
SCALE
  5
14D
102
{ACAD_REACTORS
330
12D
102
}
330
12D
100
AcDbScale
 70
     0
300
6" = 1'-0"
140
6.0
141
12.0
290
     0
  0
SCALE
  5
14E
102
{ACAD_REACTORS
330
12D
102
}
330
12D
100
AcDbScale
 70
     0
300
1'-0" = 1'-0"
140
12.0
141
12.0
290
     0
  0
DICTIONARYVAR
  5
173
102
{ACAD_REACTORS
330
16F
102
}
330
16F
100
DictionaryVariables
280
     0
  1
2
  0
DICTIONARYVAR
  5
174
102
{ACAD_REACTORS
330
16F
102
}
330
16F
100
DictionaryVariables
280
     0
  1
1
  0
ENDSEC
  0
EOF
