  0
SECTION
  2
HEADER
  9
$ACADVER
  1
AC1015
  9
$ACADMAINTVER
 70
     6
  9
$DWGCODEPAGE
  3
ANSI_1252
  9
$INSBASE
 10
0.0
 20
0.0
 30
0.0
  9
$EXTMIN
 10
-75.88883507655761
 20
-54.44440558823079
 30
0.0
  9
$EXTMAX
 10
98.22725947011342
 20
45.5392906252506
 30
0.0
  9
$LIMMIN
 10
-89.742779471
 20
-44.804899436
  9
$LIMMAX
 10
96.26488161
 20
37.602307162
  9
$ORTHOMODE
 70
     0
  9
$REGENMODE
 70
     1
  9
$FILLMODE
 70
     1
  9
$QTEXTMODE
 70
     0
  9
$MIRRTEXT
 70
     1
  9
$LTSCALE
 40
1.0
  9
$ATTMODE
 70
     1
  9
$TEXTSIZE
 40
0.2
  9
$TRACEWID
 40
0.05
  9
$TEXTSTYLE
  7
Standard
  9
$CLAYER
  8
SK1
  9
$CELTYPE
  6
ByLayer
  9
$CECOLOR
 62
   256
  9
$CELTSCALE
 40
1.0
  9
$DISPSILH
 70
     0
  9
$DIMSCALE
 40
1.0
  9
$DIMASZ
 40
0.18
  9
$DIMEXO
 40
0.0625
  9
$DIMDLI
 40
0.38
  9
$DIMRND
 40
0.0
  9
$DIMDLE
 40
0.0
  9
$DIMEXE
 40
0.18
  9
$DIMTP
 40
0.0
  9
$DIMTM
 40
0.0
  9
$DIMTXT
 40
0.18
  9
$DIMCEN
 40
0.09
  9
$DIMTSZ
 40
0.0
  9
$DIMTOL
 70
     0
  9
$DIMLIM
 70
     0
  9
$DIMTIH
 70
     1
  9
$DIMTOH
 70
     1
  9
$DIMSE1
 70
     0
  9
$DIMSE2
 70
     0
  9
$DIMTAD
 70
     0
  9
$DIMZIN
 70
     0
  9
$DIMBLK
  1

  9
$DIMASO
 70
     1
  9
$DIMSHO
 70
     1
  9
$DIMPOST
  1

  9
$DIMAPOST
  1

  9
$DIMALT
 70
     0
  9
$DIMALTD
 70
     2
  9
$DIMALTF
 40
25.4
  9
$DIMLFAC
 40
1.0
  9
$DIMTOFL
 70
     0
  9
$DIMTVP
 40
0.0
  9
$DIMTIX
 70
     0
  9
$DIMSOXD
 70
     0
  9
$DIMSAH
 70
     0
  9
$DIMBLK1
  1

  9
$DIMBLK2
  1

  9
$DIMSTYLE
  2
Standard
  9
$DIMCLRD
 70
     0
  9
$DIMCLRE
 70
     0
  9
$DIMCLRT
 70
     0
  9
$DIMTFAC
 40
1.0
  9
$DIMGAP
 40
0.09
  9
$DIMJUST
 70
     0
  9
$DIMSD1
 70
     0
  9
$DIMSD2
 70
     0
  9
$DIMTOLJ
 70
     1
  9
$DIMTZIN
 70
     0
  9
$DIMALTZ
 70
     0
  9
$DIMALTTZ
 70
     0
  9
$DIMUPT
 70
     0
  9
$DIMDEC
 70
     4
  9
$DIMTDEC
 70
     4
  9
$DIMALTU
 70
     2
  9
$DIMALTTD
 70
     2
  9
$DIMTXSTY
  7
Standard
  9
$DIMAUNIT
 70
     0
  9
$DIMADEC
 70
     0
  9
$DIMALTRND
 40
0.0
  9
$DIMAZIN
 70
     0
  9
$DIMDSEP
 70
    46
  9
$DIMATFIT
 70
     3
  9
$DIMFRAC
 70
     0
  9
$DIMLDRBLK
  1

  9
$DIMLUNIT
 70
     2
  9
$DIMLWD
 70
    -2
  9
$DIMLWE
 70
    -2
  9
$DIMTMOVE
 70
     2
  9
$LUNITS
 70
     2
  9
$LUPREC
 70
     4
  9
$SKETCHINC
 40
0.1
  9
$FILLETRAD
 40
0.5
  9
$AUNITS
 70
     2
  9
$AUPREC
 70
     0
  9
$MENU
  1
.
  9
$ELEVATION
 40
0.0
  9
$PELEVATION
 40
0.0
  9
$THICKNESS
 40
0.0
  9
$LIMCHECK
 70
     0
  9
$CHAMFERA
 40
0.5
  9
$CHAMFERB
 40
0.5
  9
$CHAMFERC
 40
1.0
  9
$CHAMFERD
 40
0.0
  9
$SKPOLY
 70
     0
  9
$TDCREATE
 40
2458327.549367882
  9
$TDUCREATE
 40
2458327.466034549
  9
$TDUPDATE
 40
2458589.612286655
  9
$TDUUPDATE
 40
2458589.528953322
  9
$TDINDWG
 40
0.0049420255
  9
$TDUSRTIMER
 40
0.0001321296
  9
$USRTIMER
 70
     1
  9
$ANGBASE
 50
0.0
  9
$ANGDIR
 70
     0
  9
$PDMODE
 70
     0
  9
$PDSIZE
 40
0.0
  9
$PLINEWID
 40
0.0
  9
$SPLFRAME
 70
     0
  9
$SPLINETYPE
 70
     6
  9
$SPLINESEGS
 70
     8
  9
$HANDSEED
  5
2FF
  9
$SURFTAB1
 70
     6
  9
$SURFTAB2
 70
     6
  9
$SURFTYPE
 70
     6
  9
$SURFU
 70
     6
  9
$SURFV
 70
     6
  9
$UCSBASE
  2

  9
$UCSNAME
  2

  9
$UCSORG
 10
0.0
 20
0.0
 30
0.0
  9
$UCSXDIR
 10
1.0
 20
0.0
 30
0.0
  9
$UCSYDIR
 10
0.0
 20
1.0
 30
0.0
  9
$UCSORTHOREF
  2

  9
$UCSORTHOVIEW
 70
     0
  9
$UCSORGTOP
 10
0.0
 20
0.0
 30
0.0
  9
$UCSORGBOTTOM
 10
0.0
 20
0.0
 30
0.0
  9
$UCSORGLEFT
 10
0.0
 20
0.0
 30
0.0
  9
$UCSORGRIGHT
 10
0.0
 20
0.0
 30
0.0
  9
$UCSORGFRONT
 10
0.0
 20
0.0
 30
0.0
  9
$UCSORGBACK
 10
0.0
 20
0.0
 30
0.0
  9
$PUCSBASE
  2

  9
$PUCSNAME
  2

  9
$PUCSORG
 10
0.0
 20
0.0
 30
0.0
  9
$PUCSXDIR
 10
1.0
 20
0.0
 30
0.0
  9
$PUCSYDIR
 10
0.0
 20
1.0
 30
0.0
  9
$PUCSORTHOREF
  2

  9
$PUCSORTHOVIEW
 70
     0
  9
$PUCSORGTOP
 10
0.0
 20
0.0
 30
0.0
  9
$PUCSORGBOTTOM
 10
0.0
 20
0.0
 30
0.0
  9
$PUCSORGLEFT
 10
0.0
 20
0.0
 30
0.0
  9
$PUCSORGRIGHT
 10
0.0
 20
0.0
 30
0.0
  9
$PUCSORGFRONT
 10
0.0
 20
0.0
 30
0.0
  9
$PUCSORGBACK
 10
0.0
 20
0.0
 30
0.0
  9
$USERI1
 70
     0
  9
$USERI2
 70
     0
  9
$USERI3
 70
     0
  9
$USERI4
 70
     0
  9
$USERI5
 70
     0
  9
$USERR1
 40
0.0
  9
$USERR2
 40
0.0
  9
$USERR3
 40
0.0
  9
$USERR4
 40
0.0
  9
$USERR5
 40
0.0
  9
$WORLDVIEW
 70
     1
  9
$SHADEDGE
 70
     3
  9
$SHADEDIF
 70
    70
  9
$TILEMODE
 70
     1
  9
$MAXACTVP
 70
    64
  9
$PINSBASE
 10
0.0
 20
0.0
 30
0.0
  9
$PLIMCHECK
 70
     0
  9
$PEXTMIN
 10
1.000000000000000E+20
 20
1.000000000000000E+20
 30
1.000000000000000E+20
  9
$PEXTMAX
 10
-1.000000000000000E+20
 20
-1.000000000000000E+20
 30
-1.000000000000000E+20
  9
$PLIMMIN
 10
0.0
 20
0.0
  9
$PLIMMAX
 10
0.0
 20
0.0
  9
$UNITMODE
 70
     0
  9
$VISRETAIN
 70
     1
  9
$PLINEGEN
 70
     0
  9
$PSLTSCALE
 70
     1
  9
$TREEDEPTH
 70
  3020
  9
$CMLSTYLE
  2
Standard
  9
$CMLJUST
 70
     0
  9
$CMLSCALE
 40
1.0
  9
$PROXYGRAPHICS
 70
     1
  9
$MEASUREMENT
 70
     0
  9
$CELWEIGHT
370
    -1
  9
$ENDCAPS
280
     0
  9
$JOINSTYLE
280
     0
  9
$LWDISPLAY
290
     0
  9
$INSUNITS
 70
     0
  9
$HYPERLINKBASE
  1

  9
$STYLESHEET
  1

  9
$XEDIT
290
     1
  9
$CEPSNTYPE
380
     0
  9
$PSTYLEMODE
290
     1
  9
$FINGERPRINTGUID
  2
{499CBD22-D3FA-4BBB-AEE5-BB3805CA9E4C}
  9
$VERSIONGUID
  2
{FAEB1C32-E019-11D5-929B-00C0DF256EC4}
  9
$EXTNAMES
290
     1
  9
$PSVPSCALE
 40
0.0
  9
$OLESTARTUP
290
     0
  0
ENDSEC
  0
SECTION
  2
CLASSES
  0
CLASS
  1
ACDBDICTIONARYWDFLT
  2
AcDbDictionaryWithDefault
  3
ObjectDBX Classes
 90
        0
280
     0
281
     0
  0
CLASS
  1
SCALE
  2
AcDbScale
  3
ObjectDBX Classes
 90
     1153
280
     0
281
     0
  0
CLASS
  1
VISUALSTYLE
  2
AcDbVisualStyle
  3
ObjectDBX Classes
 90
     4095
280
     0
281
     0
  0
CLASS
  1
MATERIAL
  2
AcDbMaterial
  3
ObjectDBX Classes
 90
     1153
280
     0
281
     0
  0
CLASS
  1
DICTIONARYVAR
  2
AcDbDictionaryVar
  3
ObjectDBX Classes
 90
        0
280
     0
281
     0
  0
CLASS
  1
ACDBPLACEHOLDER
  2
AcDbPlaceHolder
  3
ObjectDBX Classes
 90
        0
280
     0
281
     0
  0
CLASS
  1
LAYOUT
  2
AcDbLayout
  3
ObjectDBX Classes
 90
        0
280
     0
281
     0
  0
CLASS
  1
TABLESTYLE
  2
AcDbTableStyle
  3
ObjectDBX Classes
 90
     4095
280
     0
281
     0
  0
CLASS
  1
MLEADERSTYLE
  2
AcDbMLeaderStyle
  3
ACDB_MLEADERSTYLE_CLASS
 90
     4095
280
     0
281
     0
  0
CLASS
  1
SUN
  2
AcDbSun
  3
SCENEOE
 90
     1153
280
     0
281
     0
  0
CLASS
  1
CELLSTYLEMAP
  2
AcDbCellStyleMap
  3
ObjectDBX Classes
 90
     1152
280
     0
281
     0
  0
ENDSEC
  0
SECTION
  2
TABLES
  0
TABLE
  2
VPORT
  5
8
330
0
100
AcDbSymbolTable
 70
     1
  0
VPORT
  5
179
330
8
100
AcDbSymbolTableRecord
100
AcDbViewportTableRecord
  2
*Active
 70
     0
 10
0.0
 20
0.0
 11
1.0
 21
1.0
 12
5.74987855039813
 22
-11.52702543053563
 13
0.0
 23
0.0
 14
0.5
 24
0.5
 15
0.5
 25
0.5
 16
0.0
 26
0.0
 36
1.0
 17
0.0
 27
0.0
 37
0.0
 40
110.9049427465573
 41
1.70021645021645
 42
50.0
 43
0.0
 44
0.0
 50
0.0
 51
0.0
 71
    16
 72
   100
 73
     1
 74
     3
 75
     0
 76
     0
 77
     0
 78
     0
281
     0
 65
     1
110
0.0
120
0.0
130
0.0
111
1.0
121
0.0
131
0.0
112
0.0
122
1.0
132
0.0
 79
     0
146
0.0
  0
ENDTAB
  0
TABLE
  2
LTYPE
  5
5
330
0
100
AcDbSymbolTable
 70
     8
  0
LTYPE
  5
14
330
5
100
AcDbSymbolTableRecord
100
AcDbLinetypeTableRecord
  2
ByBlock
 70
     0
  3

 72
    65
 73
     0
 40
0.0
  0
LTYPE
  5
15
330
5
100
AcDbSymbolTableRecord
100
AcDbLinetypeTableRecord
  2
ByLayer
 70
     0
  3

 72
    65
 73
     0
 40
0.0
  0
LTYPE
  5
16
330
5
100
AcDbSymbolTableRecord
100
AcDbLinetypeTableRecord
  2
Continuous
 70
     0
  3
Solid line
 72
    65
 73
     0
 40
0.0
  0
LTYPE
  5
20
330
5
100
AcDbSymbolTableRecord
100
AcDbLinetypeTableRecord
  2
PUNKT
 70
     0
  3
..............
 72
    65
 73
     2
 40
1.5
 49
0.7
 74
     0
 49
-0.8
 74
     0
  0
LTYPE
  5
21
330
5
100
AcDbSymbolTableRecord
100
AcDbLinetypeTableRecord
  2
GESTRICHELT
 70
     0
  3
-- -- -- -- --
 72
    65
 73
     7
 40
2.8
 49
0.9
 74
     0
 49
0.0
 74
     0
 49
0.9
 74
     0
 49
0.0
 74
     0
 49
0.2
 74
     0
 49
0.0
 74
     0
 49
-0.8
 74
     0
  0
LTYPE
  5
22
330
5
100
AcDbSymbolTableRecord
100
AcDbLinetypeTableRecord
  2
STRICHPUNKT
 70
     0
  3
--.--.--.--.--
 72
    65
 73
     4
 40
8.8
 49
5.5
 74
     0
 49
-1.3
 74
     0
 49
0.7
 74
     0
 49
-1.3
 74
     0
  0
LTYPE
  5
25
330
5
100
AcDbSymbolTableRecord
100
AcDbLinetypeTableRecord
  2
PHANTOM
 70
     0
  3
--..--..--..--
 72
    65
 73
     6
 40
14.2
 49
7.0
 74
     0
 49
-1.8
 74
     0
 49
0.9
 74
     0
 49
-1.8
 74
     0
 49
0.9
 74
     0
 49
-1.8
 74
     0
  0
LTYPE
  5
1F1
330
5
100
AcDbSymbolTableRecord
100
AcDbLinetypeTableRecord
  2
DASH
 70
     0
  3
DASH _ _ _ _ _
 72
    65
 73
     2
 40
0.75
 49
0.4
 74
     0
 49
-0.35
 74
     0
  0
LTYPE
  5
1F2
330
5
100
AcDbSymbolTableRecord
100
AcDbLinetypeTableRecord
  2
LONGDASH_DASH
 70
     0
  3
LONGDASH_DASH __ . __ . __
 72
    65
 73
     4
 40
0.85
 49
0.4
 74
     0
 49
-0.2
 74
     0
 49
0.05
 74
     0
 49
-0.2
 74
     0
  0
LTYPE
  5
1F3
330
5
100
AcDbSymbolTableRecord
100
AcDbLinetypeTableRecord
  2
LONGDASH_DASH_DASH
 70
     0
  3
LONGDASH_DASH_DASH __ . . __ . . __
 72
    65
 73
     6
 40
1.1
 49
0.4
 74
     0
 49
-0.2
 74
     0
 49
0.05
 74
     0
 49
-0.2
 74
     0
 49
0.05
 74
     0
 49
-0.2
 74
     0
  0
ENDTAB
  0
TABLE
  2
LAYER
  5
2
102
{ACAD_XDICTIONARY
360
210
102
}
330
0
100
AcDbSymbolTable
 70
    15
  0
LAYER
  5
1BB
330
2
100
AcDbSymbolTableRecord
100
AcDbLayerTableRecord
  2
200
 70
     0
 62
     2
  6
Continuous
370
    50
390
F
  0
LAYER
  5
1F4
330
2
100
AcDbSymbolTableRecord
100
AcDbLayerTableRecord
  2
0
 70
     0
 62
     1
  6
Continuous
370
    -3
390
F
  0
LAYER
  5
1F5
330
2
100
AcDbSymbolTableRecord
100
AcDbLayerTableRecord
  2
1
 70
     0
 62
     4
  6
Continuous
370
    50
390
F
  0
LAYER
  5
1F6
330
2
100
AcDbSymbolTableRecord
100
AcDbLayerTableRecord
  2
2
 70
     0
 62
     7
  6
Continuous
370
    25
390
F
  0
LAYER
  5
1F7
330
2
100
AcDbSymbolTableRecord
100
AcDbLayerTableRecord
  2
3
 70
     0
 62
     1
  6
DASH
370
    35
390
F
  0
LAYER
  5
1F8
330
2
100
AcDbSymbolTableRecord
100
AcDbLayerTableRecord
  2
4
 70
     0
 62
     2
  6
LONGDASH_DASH
370
    25
390
F
  0
LAYER
  5
1F9
330
2
100
AcDbSymbolTableRecord
100
AcDbLayerTableRecord
  2
6
 70
     0
 62
     5
  6
Continuous
370
    -3
390
F
  0
LAYER
  5
1FA
330
2
100
AcDbSymbolTableRecord
100
AcDbLayerTableRecord
  2
CUT
 70
     0
 62
     1
  6
Continuous
370
    25
390
F
  0
LAYER
  5
1FB
330
2
100
AcDbSymbolTableRecord
100
AcDbLayerTableRecord
  2
NOCUT
 70
     0
 62
     7
  6
Continuous
370
    25
390
F
  0
LAYER
  5
1FC
330
2
100
AcDbSymbolTableRecord
100
AcDbLayerTableRecord
  2
SK1
 70
     0
 62
     4
  6
Continuous
370
    50
390
F
  0
LAYER
  5
1FD
330
2
100
AcDbSymbolTableRecord
100
AcDbLayerTableRecord
  2
SK2
 70
     0
 62
     7
  6
Continuous
370
    25
390
F
  0
LAYER
  5
1FE
330
2
100
AcDbSymbolTableRecord
100
AcDbLayerTableRecord
  2
SK3
 70
     0
 62
     1
  6
DASH
370
    35
390
F
  0
LAYER
  5
1FF
330
2
100
AcDbSymbolTableRecord
100
AcDbLayerTableRecord
  2
SK4
 70
     0
 62
     2
  6
LONGDASH_DASH
370
    25
390
F
  0
LAYER
  5
200
330
2
100
AcDbSymbolTableRecord
100
AcDbLayerTableRecord
  2
SK6
 70
     0
 62
     5
  6
Continuous
370
    -3
390
F
  0
LAYER
  5
201
330
2
100
AcDbSymbolTableRecord
100
AcDbLayerTableRecord
  2
INFTOTAL
 70
     0
 62
     9
  6
Continuous
370
    18
390
F
  0
ENDTAB
  0
TABLE
  2
STYLE
  5
3
330
0
100
AcDbSymbolTable
 70
     2
  0
STYLE
  5
11
330
3
100
AcDbSymbolTableRecord
100
AcDbTextStyleTableRecord
  2
Standard
 70
     0
 40
0.0
 41
1.0
 50
0.0
 71
     0
 42
0.2
  3
txt
  4

  0
STYLE
  5
1BA
330
3
100
AcDbSymbolTableRecord
100
AcDbTextStyleTableRecord
  2
BMG_Text
 70
     0
 40
3.5
 41
1.0
 50
0.0
 71
     0
 42
0.2
  3
monos.ttf
  4

1001
ACAD
1000
Monospac821 BT
1071
       49
  0
ENDTAB
  0
TABLE
  2
VIEW
  5
6
330
0
100
AcDbSymbolTable
 70
     0
  0
ENDTAB
  0
TABLE
  2
UCS
  5
7
330
0
100
AcDbSymbolTable
 70
     0
  0
ENDTAB
  0
TABLE
  2
APPID
  5
9
330
0
100
AcDbSymbolTable
 70
     1
  0
APPID
  5
12
330
9
100
AcDbSymbolTableRecord
100
AcDbRegAppTableRecord
  2
ACAD
 70
     0
  0
ENDTAB
  0
TABLE
  2
DIMSTYLE
  5
A
330
0
100
AcDbSymbolTable
 70
     1
100
AcDbDimStyleTable
  0
DIMSTYLE
105
28
330
A
100
AcDbSymbolTableRecord
100
AcDbDimStyleTableRecord
  2
Standard
 70
     0
178
     0
340
11
  0
ENDTAB
  0
TABLE
  2
BLOCK_RECORD
  5
1
330
0
100
AcDbSymbolTable
 70
     0
  0
BLOCK_RECORD
  5
1D
330
1
100
AcDbSymbolTableRecord
100
AcDbBlockTableRecord
  2
*Model_Space
340
1E
  0
BLOCK_RECORD
  5
1B
330
1
100
AcDbSymbolTableRecord
100
AcDbBlockTableRecord
  2
*Paper_Space
340
1C
  0
ENDTAB
  0
ENDSEC
  0
SECTION
  2
BLOCKS
  0
BLOCK
  5
1A3
330
1D
100
AcDbEntity
  8
0
100
AcDbBlockBegin
  2
*Model_Space
 70
     0
 10
0.0
 20
0.0
 30
0.0
  3
*Model_Space
  1

  0
ENDBLK
  5
1A4
330
1D
100
AcDbEntity
  8
0
100
AcDbBlockEnd
  0
BLOCK
  5
1A1
330
1B
100
AcDbEntity
 67
     1
  8
0
100
AcDbBlockBegin
  2
*Paper_Space
 70
     0
 10
0.0
 20
0.0
 30
0.0
  3
*Paper_Space
  1

  0
ENDBLK
  5
1A2
330
1B
100
AcDbEntity
 67
     1
  8
0
100
AcDbBlockEnd
  0
ENDSEC
  0
SECTION
  2
ENTITIES
  0
LINE
  5
29
330
1D
100
AcDbEntity
  8
1
100
AcDbLine
 10
14.559103466
 20
-24.975
 30
0.0
 11
14.709103466
 21
-24.825
 31
0.0
  0
LINE
  5
2A
330
1D
100
AcDbEntity
  8
1
100
AcDbLine
 10
14.709103466
 20
24.825
 30
0.0
 11
14.559103466
 21
24.975
 31
0.0
  0
LINE
  5
2B
330
1D
100
AcDbEntity
  8
1
100
AcDbLine
 10
0.48
 20
-24.975
 30
0.0
 11
14.559103466
 21
-24.975
 31
0.0
  0
LINE
  5
2C
330
1D
100
AcDbEntity
  8
1
100
AcDbLine
 10
14.559103466
 20
24.975
 30
0.0
 11
0.48
 21
24.975
 31
0.0
  0
LINE
  5
2D
330
1D
100
AcDbEntity
  8
1
100
AcDbLine
 10
21.440896534
 20
-24.975
 30
0.0
 11
25.55
 21
-24.975
 31
0.0
  0
LINE
  5
2E
330
1D
100
AcDbEntity
  8
1
100
AcDbLine
 10
25.55
 20
24.975
 30
0.0
 11
21.440896534
 21
24.975
 31
0.0
  0
LINE
  5
2F
330
1D
100
AcDbEntity
  8
1
100
AcDbLine
 10
25.55
 20
-24.975
 30
0.0
 11
25.95
 21
-24.575
 31
0.0
  0
LINE
  5
30
330
1D
100
AcDbEntity
  8
1
100
AcDbLine
 10
25.95
 20
24.575
 30
0.0
 11
25.55
 21
24.975
 31
0.0
  0
LINE
  5
31
330
1D
100
AcDbEntity
  8
1
100
AcDbLine
 10
0.48
 20
24.975
 30
0.0
 11
0.0
 21
24.495
 31
0.0
  0
LINE
  5
32
330
1D
100
AcDbEntity
  8
1
100
AcDbLine
 10
0.0
 20
-24.495
 30
0.0
 11
0.48
 21
-24.975
 31
0.0
  0
LINE
  5
33
330
1D
100
AcDbEntity
  8
1
100
AcDbLine
 10
21.440896534
 20
24.975
 30
0.0
 11
21.290896534
 21
24.825
 31
0.0
  0
LINE
  5
34
330
1D
100
AcDbEntity
  8
1
100
AcDbLine
 10
21.290896534
 20
-24.825
 30
0.0
 11
21.440896534
 21
-24.975
 31
0.0
  0
LINE
  5
35
330
1D
100
AcDbEntity
  8
1
100
AcDbLine
 10
21.290896534
 20
24.825
 30
0.0
 11
19.9125
 21
22.437547169
 31
0.0
  0
LINE
  5
36
330
1D
100
AcDbEntity
  8
1
100
AcDbLine
 10
19.9125
 20
-22.43754717
 30
0.0
 11
21.290896534
 21
-24.825
 31
0.0
  0
LINE
  5
37
330
1D
100
AcDbEntity
  8
1
100
AcDbLine
 10
14.709103466
 20
-24.825
 30
0.0
 11
16.0875
 21
-22.43754717
 31
0.0
  0
LINE
  5
38
330
1D
100
AcDbEntity
  8
1
100
AcDbLine
 10
16.0875
 20
22.437547169
 30
0.0
 11
14.709103466
 21
24.825
 31
0.0
  0
ARC
  5
39
330
1D
100
AcDbEntity
  8
1
100
AcDbCircle
 10
16.8375
 20
-22.225
 30
0.0
 40
0.75
100
AcDbArc
 50
90.0
 51
180.0
  0
ARC
  5
3A
330
1D
100
AcDbEntity
  8
1
100
AcDbCircle
 10
16.8375
 20
22.225
 30
0.0
 40
0.75
100
AcDbArc
 50
180.0
 51
270.0
  0
ARC
  5
3B
330
1D
100
AcDbEntity
  8
1
100
AcDbCircle
 10
19.1625
 20
-22.225
 30
0.0
 40
0.75
100
AcDbArc
 50
0.0
 51
90.0
  0
ARC
  5
3C
330
1D
100
AcDbEntity
  8
1
100
AcDbCircle
 10
19.1625
 20
22.225
 30
0.0
 40
0.75
100
AcDbArc
 50
270.0
 51
0.0
  0
LINE
  5
3D
330
1D
100
AcDbEntity
  8
1
100
AcDbLine
 10
16.8375
 20
-21.475
 30
0.0
 11
19.1625
 21
-21.475
 31
0.0
  0
LINE
  5
3E
330
1D
100
AcDbEntity
  8
1
100
AcDbLine
 10
19.1625
 20
21.475
 30
0.0
 11
16.8375
 21
21.475
 31
0.0
  0
ARC
  5
3F
330
1D
100
AcDbEntity
  8
SK1
100
AcDbCircle
 10
-0.75
 20
-19.961564972
 30
0.0
 40
1.0
100
AcDbArc
 50
41.409622109
 51
105.0
  0
ARC
  5
40
330
1D
100
AcDbEntity
  8
SK1
100
AcDbCircle
 10
-0.75
 20
19.961564972
 30
0.0
 40
1.0
100
AcDbArc
 50
255.0
 51
318.590377891
  0
LINE
  5
41
330
1D
100
AcDbEntity
  8
SK1
100
AcDbLine
 10
-1.665383167
 20
19.171564972
 30
0.0
 11
-24.187228795
 21
18.043215992
 31
0.0
  0
LINE
  5
42
330
1D
100
AcDbEntity
  8
SK1
100
AcDbLine
 10
-24.187228795
 20
-18.043215992
 30
0.0
 11
-1.665383167
 21
-19.171564972
 31
0.0
  0
LINE
  5
43
330
1D
100
AcDbEntity
  8
SK1
100
AcDbLine
 10
-1.665383167
 20
-19.171564972
 30
0.0
 11
-1.008819045
 21
-18.995639145
 31
0.0
  0
LINE
  5
44
330
1D
100
AcDbEntity
  8
SK1
100
AcDbLine
 10
-1.008819045
 20
18.995639145
 30
0.0
 11
-1.665383167
 21
19.171564972
 31
0.0
  0
ARC
  5
45
330
1D
100
AcDbEntity
  8
1
100
AcDbCircle
 10
28.95
 20
-18.35
 30
0.0
 40
3.0
100
AcDbArc
 50
90.0
 51
180.0
  0
ARC
  5
46
330
1D
100
AcDbEntity
  8
1
100
AcDbCircle
 10
28.95
 20
18.35
 30
0.0
 40
3.0
100
AcDbArc
 50
180.0
 51
270.0
  0
ARC
  5
47
330
1D
100
AcDbEntity
  8
SK1
100
AcDbCircle
 10
-23.9
 20
17.085353988
 30
0.0
 40
1.0
100
AcDbArc
 50
106.692120544
 51
168.036251176
  0
ARC
  5
48
330
1D
100
AcDbEntity
  8
SK1
100
AcDbCircle
 10
-23.9
 20
-17.085353988
 30
0.0
 40
1.0
100
AcDbArc
 50
191.963748824
 51
253.307879456
  0
ARC
  5
49
330
1D
100
AcDbEntity
  8
SK1
100
AcDbCircle
 10
-23.75
 20
-17.070190904
 30
0.0
 40
1.15
100
AcDbArc
 50
180.0
 51
191.15359987
  0
ARC
  5
4A
330
1D
100
AcDbEntity
  8
SK1
100
AcDbCircle
 10
-23.75
 20
17.070190904
 30
0.0
 40
1.15
100
AcDbArc
 50
168.84640013
 51
180.0
  0
LINE
  5
4B
330
1D
100
AcDbEntity
  8
1
100
AcDbLine
 10
30.1
 20
15.5
 30
0.0
 11
29.95
 21
15.35
 31
0.0
  0
LINE
  5
4C
330
1D
100
AcDbEntity
  8
1
100
AcDbLine
 10
29.95
 20
-15.35
 30
0.0
 11
30.1
 21
-15.5
 31
0.0
  0
LINE
  5
4D
330
1D
100
AcDbEntity
  8
1
100
AcDbLine
 10
41.797927406
 20
15.5
 30
0.0
 11
30.1
 21
15.5
 31
0.0
  0
LINE
  5
4E
330
1D
100
AcDbEntity
  8
1
100
AcDbLine
 10
30.1
 20
-15.5
 30
0.0
 11
41.797927406
 21
-15.5
 31
0.0
  0
LINE
  5
4F
330
1D
100
AcDbEntity
  8
1
100
AcDbLine
 10
41.797927406
 20
-15.5
 30
0.0
 11
42.0
 21
-15.15
 31
0.0
  0
LINE
  5
50
330
1D
100
AcDbEntity
  8
1
100
AcDbLine
 10
42.0
 20
15.15
 30
0.0
 11
41.797927406
 21
15.5
 31
0.0
  0
LINE
  5
51
330
1D
100
AcDbEntity
  8
1
100
AcDbLine
 10
28.95
 20
-15.35
 30
0.0
 11
29.95
 21
-15.35
 31
0.0
  0
LINE
  5
52
330
1D
100
AcDbEntity
  8
1
100
AcDbLine
 10
29.95
 20
15.35
 30
0.0
 11
28.95
 21
15.35
 31
0.0
  0
LINE
  5
53
330
1D
100
AcDbEntity
  8
1
100
AcDbLine
 10
43.6
 20
-15.15
 30
0.0
 11
44.0
 21
-14.75
 31
0.0
  0
LINE
  5
54
330
1D
100
AcDbEntity
  8
1
100
AcDbLine
 10
44.0
 20
14.75
 30
0.0
 11
43.6
 21
15.15
 31
0.0
  0
LINE
  5
55
330
1D
100
AcDbEntity
  8
1
100
AcDbLine
 10
43.6
 20
15.15
 30
0.0
 11
42.0
 21
15.15
 31
0.0
  0
LINE
  5
56
330
1D
100
AcDbEntity
  8
1
100
AcDbLine
 10
42.0
 20
-15.15
 30
0.0
 11
43.6
 21
-15.15
 31
0.0
  0
LINE
  5
57
330
1D
100
AcDbEntity
  8
1
100
AcDbLine
 10
14.559103466
 20
0.0
 30
0.0
 11
14.559103466
 21
15.2
 31
0.0
  0
LINE
  5
58
330
1D
100
AcDbEntity
  8
1
100
AcDbLine
 10
14.559103466
 20
19.740779899
 30
0.0
 11
14.559103466
 21
24.975
 31
0.0
  0
LINE
  5
59
330
1D
100
AcDbEntity
  8
1
100
AcDbLine
 10
14.559103466
 20
-24.975
 30
0.0
 11
14.559103466
 21
0.0
 31
0.0
  0
LINE
  5
5A
330
1D
100
AcDbEntity
  8
1
100
AcDbLine
 10
0.48
 20
-24.975
 30
0.0
 11
0.48
 21
24.975
 31
0.0
  0
LINE
  5
5B
330
1D
100
AcDbEntity
  8
1
100
AcDbLine
 10
21.440896534
 20
24.975
 30
0.0
 11
21.440896534
 21
19.740779899
 31
0.0
  0
LINE
  5
5C
330
1D
100
AcDbEntity
  8
1
100
AcDbLine
 10
21.440896534
 20
15.2
 30
0.0
 11
21.440896534
 21
-24.975
 31
0.0
  0
LINE
  5
5D
330
1D
100
AcDbEntity
  8
1
100
AcDbLine
 10
25.55
 20
0.0
 30
0.0
 11
25.55
 21
-24.975
 31
0.0
  0
LINE
  5
5E
330
1D
100
AcDbEntity
  8
1
100
AcDbLine
 10
25.55
 20
24.975
 30
0.0
 11
25.55
 21
19.740779899
 31
0.0
  0
LINE
  5
5F
330
1D
100
AcDbEntity
  8
1
100
AcDbLine
 10
25.55
 20
15.2
 30
0.0
 11
25.55
 21
0.0
 31
0.0
  0
LINE
  5
60
330
1D
100
AcDbEntity
  8
1
100
AcDbLine
 10
25.95
 20
0.0
 30
0.0
 11
25.95
 21
-24.575
 31
0.0
  0
LINE
  5
61
330
1D
100
AcDbEntity
  8
1
100
AcDbLine
 10
25.95
 20
24.575
 30
0.0
 11
25.95
 21
0.0
 31
0.0
  0
LINE
  5
62
330
1D
100
AcDbEntity
  8
1
100
AcDbLine
 10
0.0
 20
-24.495
 30
0.0
 11
0.0
 21
24.495
 31
0.0
  0
LINE
  5
63
330
1D
100
AcDbEntity
  8
1
100
AcDbLine
 10
19.9125
 20
-22.43754717
 30
0.0
 11
19.9125
 21
15.2
 31
0.0
  0
LINE
  5
64
330
1D
100
AcDbEntity
  8
1
100
AcDbLine
 10
19.9125
 20
16.386851158
 30
0.0
 11
19.9125
 21
22.437547169
 31
0.0
  0
LINE
  5
65
330
1D
100
AcDbEntity
  8
1
100
AcDbLine
 10
16.0875
 20
22.437547169
 30
0.0
 11
16.0875
 21
16.386851158
 31
0.0
  0
LINE
  5
66
330
1D
100
AcDbEntity
  8
1
100
AcDbLine
 10
16.0875
 20
15.2
 30
0.0
 11
16.0875
 21
-22.43754717
 31
0.0
  0
LINE
  5
67
330
1D
100
AcDbEntity
  8
SK1
100
AcDbLine
 10
-1.665383167
 20
19.171564972
 30
0.0
 11
-1.665383167
 21
-19.171564972
 31
0.0
  0
LINE
  5
68
330
1D
100
AcDbEntity
  8
SK1
100
AcDbLine
 10
-24.9
 20
0.0
 30
0.0
 11
-24.9
 21
17.070190904
 31
0.0
  0
LINE
  5
69
330
1D
100
AcDbEntity
  8
SK1
100
AcDbLine
 10
-24.9
 20
-17.070190904
 30
0.0
 11
-24.9
 21
0.0
 31
0.0
  0
LINE
  5
6A
330
1D
100
AcDbEntity
  8
1
100
AcDbLine
 10
29.95
 20
-15.35
 30
0.0
 11
29.95
 21
15.35
 31
0.0
  0
LINE
  5
6B
330
1D
100
AcDbEntity
  8
1
100
AcDbLine
 10
41.797927406
 20
0.0
 30
0.0
 11
41.797927406
 21
15.5
 31
0.0
  0
LINE
  5
6C
330
1D
100
AcDbEntity
  8
1
100
AcDbLine
 10
41.797927406
 20
-15.5
 30
0.0
 11
41.797927406
 21
0.0
 31
0.0
  0
CIRCLE
  5
6D
330
1D
100
AcDbEntity
  8
1
100
AcDbCircle
 10
35.950161948
 20
-0.000020628
 30
0.0
 40
3.099838052
  0
LINE
  5
6E
330
1D
100
AcDbEntity
  8
1
100
AcDbLine
 10
42.0
 20
15.15
 30
0.0
 11
42.0
 21
-15.15
 31
0.0
  0
LINE
  5
6F
330
1D
100
AcDbEntity
  8
1
100
AcDbLine
 10
44.0
 20
14.75
 30
0.0
 11
44.0
 21
-14.75
 31
0.0
  0
LINE
  5
70
330
1D
100
AcDbEntity
  8
1
100
AcDbLine
 10
43.6
 20
15.15
 30
0.0
 11
43.6
 21
-15.15
 31
0.0
  0
LINE
  5
71
330
1D
100
AcDbEntity
  8
SK3
100
AcDbLine
 10
-0.05
 20
0.0
 30
0.0
 11
-0.05
 21
-13.02
 31
0.0
  0
LINE
  5
72
330
1D
100
AcDbEntity
  8
SK3
100
AcDbLine
 10
-0.05
 20
13.02
 30
0.0
 11
-0.05
 21
0.0
 31
0.0
  0
LINE
  5
73
330
1D
100
AcDbEntity
  8
SK3
100
AcDbLine
 10
-13.125484145
 20
0.0
 30
0.0
 11
-13.125484145
 21
15.910458709
 31
0.0
  0
LINE
  5
74
330
1D
100
AcDbEntity
  8
SK3
100
AcDbLine
 10
-13.125484145
 20
-15.910458709
 30
0.0
 11
-13.125484145
 21
0.0
 31
0.0
  0
LINE
  5
75
330
1D
100
AcDbEntity
  8
SK3
100
AcDbLine
 10
-14.975889689
 20
13.02
 30
0.0
 11
-14.975889689
 21
-13.02
 31
0.0
  0
LINE
  5
76
330
1D
100
AcDbEntity
  8
3
100
AcDbLine
 10
9.95
 20
11.774999998
 30
0.0
 11
9.95
 21
-11.775
 31
0.0
  0
LINE
  5
77
330
1D
100
AcDbEntity
  8
3
100
AcDbLine
 10
7.570608741
 20
13.02
 30
0.0
 11
7.570608741
 21
-13.02
 31
0.0
  0
LINE
  5
78
330
1D
100
AcDbEntity
  8
3
100
AcDbLine
 10
22.0
 20
-9.25
 30
0.0
 11
22.0
 21
9.25
 31
0.0
  0
LINE
  5
79
330
1D
100
AcDbEntity
  8
3
100
AcDbLine
 10
23.566987298
 20
9.25
 30
0.0
 11
23.566987298
 21
-9.25
 31
0.0
  0
LINE
  5
7A
330
1D
100
AcDbEntity
  8
3
100
AcDbLine
 10
24.0
 20
0.0
 30
0.0
 11
24.0
 21
-9.0
 31
0.0
  0
LINE
  5
7B
330
1D
100
AcDbEntity
  8
3
100
AcDbLine
 10
24.0
 20
9.0
 30
0.0
 11
24.0
 21
0.0
 31
0.0
  0
LINE
  5
7C
330
1D
100
AcDbEntity
  8
3
100
AcDbLine
 10
18.3
 20
8.25
 30
0.0
 11
18.3
 21
-8.25
 31
0.0
  0
LINE
  5
7D
330
1D
100
AcDbEntity
  8
3
100
AcDbLine
 10
17.000961894
 20
7.5
 30
0.0
 11
17.000961894
 21
-7.5
 31
0.0
  0
LINE
  5
7E
330
1D
100
AcDbEntity
  8
3
100
AcDbLine
 10
19.8
 20
8.25
 30
0.0
 11
19.8
 21
-8.25
 31
0.0
  0
LINE
  5
7F
330
1D
100
AcDbEntity
  8
3
100
AcDbLine
 10
10.5
 20
7.5
 30
0.0
 11
10.5
 21
-7.5
 31
0.0
  0
LINE
  5
80
330
1D
100
AcDbEntity
  8
SK3
100
AcDbLine
 10
-5.257648222
 20
16.04
 30
0.0
 11
-12.789686073
 21
16.04
 31
0.0
  0
LINE
  5
81
330
1D
100
AcDbEntity
  8
SK3
100
AcDbLine
 10
-12.789686073
 20
-16.04
 30
0.0
 11
-5.257648222
 21
-16.04
 31
0.0
  0
ARC
  5
82
330
1D
100
AcDbEntity
  8
SK3
100
AcDbCircle
 10
-5.257648222
 20
10.04
 30
0.0
 40
6.0
100
AcDbArc
 50
29.779712392
 51
90.0
  0
ARC
  5
83
330
1D
100
AcDbEntity
  8
SK3
100
AcDbCircle
 10
-5.257648222
 20
-10.04
 30
0.0
 40
6.0
100
AcDbArc
 50
270.0
 51
330.220287608
  0
ARC
  5
84
330
1D
100
AcDbEntity
  8
SK3
100
AcDbCircle
 10
-12.789686073
 20
15.54
 30
0.0
 40
0.5
100
AcDbArc
 50
90.0
 51
132.190375764
  0
ARC
  5
85
330
1D
100
AcDbEntity
  8
SK3
100
AcDbCircle
 10
-12.789686073
 20
-15.54
 30
0.0
 40
0.5
100
AcDbArc
 50
227.809624236
 51
270.0
  0
ARC
  5
86
330
1D
100
AcDbEntity
  8
SK3
100
AcDbCircle
 10
-13.028271724
 20
15.42
 30
0.0
 40
0.5
100
AcDbArc
 50
101.211126459
 51
150.25
  0
ARC
  5
87
330
1D
100
AcDbEntity
  8
SK3
100
AcDbCircle
 10
-13.028271724
 20
-15.42
 30
0.0
 40
0.5
100
AcDbArc
 50
209.75
 51
258.788873541
  0
LINE
  5
88
330
1D
100
AcDbEntity
  8
SK3
100
AcDbLine
 10
-13.462371131
 20
15.668108252
 30
0.0
 11
-14.975889689
 21
13.02
 31
0.0
  0
LINE
  5
89
330
1D
100
AcDbEntity
  8
SK3
100
AcDbLine
 10
-14.975889689
 20
-13.02
 30
0.0
 11
-13.462371131
 21
-15.668108252
 31
0.0
  0
ARC
  5
8A
330
1D
100
AcDbEntity
  8
SK1
100
AcDbCircle
 10
-22.75
 20
15.025
 30
0.0
 40
2.15
100
AcDbArc
 50
180.0
 51
183.750477427
  0
ARC
  5
8B
330
1D
100
AcDbEntity
  8
SK1
100
AcDbCircle
 10
-22.75
 20
-15.025
 30
0.0
 40
2.15
100
AcDbArc
 50
176.249522573
 51
180.0
  0
ARC
  5
8C
330
1D
100
AcDbEntity
  8
SK3
100
AcDbCircle
 10
-22.9
 20
15.02
 30
0.0
 40
2.0
100
AcDbArc
 50
183.888629852
 51
232.819244219
  0
ARC
  5
8D
330
1D
100
AcDbEntity
  8
SK3
100
AcDbCircle
 10
-22.9
 20
-15.02
 30
0.0
 40
2.0
100
AcDbArc
 50
127.180755782
 51
176.111370148
  0
LINE
  5
8E
330
1D
100
AcDbEntity
  8
SK3
100
AcDbLine
 10
-24.108663093
 20
-13.426534114
 30
0.0
 11
-23.675650391
 21
-13.176534114
 31
0.0
  0
LINE
  5
8F
330
1D
100
AcDbEntity
  8
SK3
100
AcDbLine
 10
-23.675650391
 20
13.176534114
 30
0.0
 11
-24.108663093
 21
13.426534114
 31
0.0
  0
ARC
  5
90
330
1D
100
AcDbEntity
  8
3
100
AcDbCircle
 10
8.45
 20
11.775
 30
0.0
 40
1.5
100
AcDbArc
 50
0.0
 51
115.0
  0
ARC
  5
91
330
1D
100
AcDbEntity
  8
3
100
AcDbCircle
 10
8.45
 20
-11.775
 30
0.0
 40
1.5
100
AcDbArc
 50
245.0
 51
0.0
  0
ARC
  5
92
330
1D
100
AcDbEntity
  8
SK3
100
AcDbCircle
 10
-22.9
 20
15.02
 30
0.0
 40
2.0
100
AcDbArc
 50
247.180755781
 51
270.0
  0
ARC
  5
93
330
1D
100
AcDbEntity
  8
SK3
100
AcDbCircle
 10
-22.9
 20
-15.02
 30
0.0
 40
2.0
100
AcDbArc
 50
90.0
 51
112.819244218
  0
LINE
  5
94
330
1D
100
AcDbEntity
  8
3
100
AcDbLine
 10
7.816072607
 20
13.134461681
 30
0.0
 11
7.570608741
 21
13.02
 31
0.0
  0
LINE
  5
95
330
1D
100
AcDbEntity
  8
3
100
AcDbLine
 10
7.570608741
 20
-13.02
 30
0.0
 11
7.816072607
 21
-13.134461681
 31
0.0
  0
LINE
  5
96
330
1D
100
AcDbEntity
  8
SK3
100
AcDbLine
 10
-14.975889689
 20
13.02
 30
0.0
 11
-22.9
 21
13.02
 31
0.0
  0
LINE
  5
97
330
1D
100
AcDbEntity
  8
SK3
100
AcDbLine
 10
-22.9
 20
-13.02
 30
0.0
 11
-14.975889689
 21
-13.02
 31
0.0
  0
LINE
  5
98
330
1D
100
AcDbEntity
  8
3
100
AcDbLine
 10
7.570608741
 20
13.02
 30
0.0
 11
0.0000000000000027
 21
13.02
 31
0.0
  0
LINE
  5
99
330
1D
100
AcDbEntity
  8
3
100
AcDbLine
 10
0.0
 20
-13.02
 30
0.0
 11
7.570608741
 21
-13.02
 31
0.0
  0
LINE
  5
9A
330
1D
100
AcDbEntity
  8
3
100
AcDbLine
 10
23.566987298
 20
9.25
 30
0.0
 11
22.0
 21
9.25
 31
0.0
  0
LINE
  5
9B
330
1D
100
AcDbEntity
  8
3
100
AcDbLine
 10
22.0
 20
-9.25
 30
0.0
 11
23.566987298
 21
-9.25
 31
0.0
  0
LINE
  5
9C
330
1D
100
AcDbEntity
  8
3
100
AcDbLine
 10
23.566987298
 20
-9.25
 30
0.0
 11
24.0
 21
-9.0
 31
0.0
  0
LINE
  5
9D
330
1D
100
AcDbEntity
  8
3
100
AcDbLine
 10
24.0
 20
9.0
 30
0.0
 11
23.566987298
 21
9.25
 31
0.0
  0
LINE
  5
9E
330
1D
100
AcDbEntity
  8
3
100
AcDbLine
 10
44.0
 20
9.0
 30
0.0
 11
24.0
 21
9.0
 31
0.0
  0
LINE
  5
9F
330
1D
100
AcDbEntity
  8
3
100
AcDbLine
 10
24.0
 20
-9.0
 30
0.0
 11
44.0
 21
-9.0
 31
0.0
  0
LINE
  5
A0
330
1D
100
AcDbEntity
  8
3
100
AcDbLine
 10
18.3
 20
8.25
 30
0.0
 11
17.000961894
 21
7.5
 31
0.0
  0
LINE
  5
A1
330
1D
100
AcDbEntity
  8
3
100
AcDbLine
 10
17.000961894
 20
-7.5
 30
0.0
 11
18.3
 21
-8.25
 31
0.0
  0
LINE
  5
A2
330
1D
100
AcDbEntity
  8
3
100
AcDbLine
 10
19.8
 20
8.25
 30
0.0
 11
18.3
 21
8.25
 31
0.0
  0
LINE
  5
A3
330
1D
100
AcDbEntity
  8
3
100
AcDbLine
 10
18.3
 20
-8.25
 30
0.0
 11
19.8
 21
-8.25
 31
0.0
  0
LINE
  5
A4
330
1D
100
AcDbEntity
  8
3
100
AcDbLine
 10
9.95
 20
-8.05
 30
0.0
 11
10.5
 21
-7.5
 31
0.0
  0
LINE
  5
A5
330
1D
100
AcDbEntity
  8
3
100
AcDbLine
 10
10.5
 20
7.5
 30
0.0
 11
9.95
 21
8.05
 31
0.0
  0
LINE
  5
A6
330
1D
100
AcDbEntity
  8
3
100
AcDbLine
 10
17.000961894
 20
7.5
 30
0.0
 11
10.5
 21
7.5
 31
0.0
  0
LINE
  5
A7
330
1D
100
AcDbEntity
  8
3
100
AcDbLine
 10
10.5
 20
-7.5
 30
0.0
 11
17.000961894
 21
-7.5
 31
0.0
  0
LINE
  5
A8
330
1D
100
AcDbEntity
  8
3
100
AcDbLine
 10
22.0
 20
3.4
 30
0.0
 11
19.8
 21
3.4
 31
0.0
  0
LINE
  5
A9
330
1D
100
AcDbEntity
  8
3
100
AcDbLine
 10
19.8
 20
-3.4
 30
0.0
 11
22.0
 21
-3.4
 31
0.0
  0
LINE
  5
AA
330
1D
100
AcDbEntity
  8
1
100
AcDbLine
 10
37.682212756
 20
-0.000020628
 30
0.0
 11
36.816187352
 21
1.499979372
 31
0.0
  0
LINE
  5
AB
330
1D
100
AcDbEntity
  8
1
100
AcDbLine
 10
36.816187352
 20
1.499979372
 30
0.0
 11
35.084136545
 21
1.499979372
 31
0.0
  0
LINE
  5
AC
330
1D
100
AcDbEntity
  8
1
100
AcDbLine
 10
35.084136545
 20
1.499979372
 30
0.0
 11
34.218111141
 21
-0.000020628
 31
0.0
  0
LINE
  5
AD
330
1D
100
AcDbEntity
  8
1
100
AcDbLine
 10
34.218111141
 20
-0.000020628
 30
0.0
 11
35.084136545
 21
-1.500020628
 31
0.0
  0
LINE
  5
AE
330
1D
100
AcDbEntity
  8
1
100
AcDbLine
 10
35.084136545
 20
-1.500020628
 30
0.0
 11
36.816187352
 21
-1.500020628
 31
0.0
  0
LINE
  5
AF
330
1D
100
AcDbEntity
  8
1
100
AcDbLine
 10
36.816187352
 20
-1.500020628
 30
0.0
 11
37.682212756
 21
-0.000020628
 31
0.0
  0
LINE
  5
B0
330
1D
100
AcDbEntity
  8
4
100
AcDbLine
 10
0.0
 20
0.0
 30
0.0
 11
44.94373983600001
 21
0.0
 31
0.0
  0
LINE
  5
B2
330
1D
100
AcDbEntity
  8
SK3
100
AcDbLine
 10
-5.08982
 20
19.0
 30
0.0
 11
-5.08982
 21
-19.0
 31
0.0
  0
LINE
  5
B3
330
1D
100
AcDbEntity
  8
SK2
100
AcDbLine
 10
-33.766629311
 20
-19.0
 30
0.0
 11
-5.08982
 21
-19.0
 31
0.0
  0
LINE
  5
B4
330
1D
100
AcDbEntity
  8
SK2
100
AcDbLine
 10
-31.766629311
 20
-19.0
 30
0.0
 11
-32.216629311
 21
-15.5
 31
0.0
  0
LINE
  5
B5
330
1D
100
AcDbEntity
  8
SK2
100
AcDbLine
 10
-32.216629311
 20
-15.5
 30
0.0
 11
-31.316629311
 21
-15.5
 31
0.0
  0
LINE
  5
B6
330
1D
100
AcDbEntity
  8
SK2
100
AcDbLine
 10
-31.316629311
 20
-15.5
 30
0.0
 11
-31.766629311
 21
-19.0
 31
0.0
  0
LINE
  5
B7
330
1D
100
AcDbEntity
  8
SK2
100
AcDbLine
 10
-31.766629311
 20
-15.6
 30
0.0
 11
-31.766629311
 21
-18.9
 31
0.0
  0
LINE
  5
B8
330
1D
100
AcDbEntity
  8
SK2
100
AcDbLine
 10
-31.566629311
 20
-15.6
 30
0.0
 11
-31.566629311
 21
-17.344444444
 31
0.0
  0
LINE
  5
B9
330
1D
100
AcDbEntity
  8
SK2
100
AcDbLine
 10
-31.966629311
 20
-15.6
 30
0.0
 11
-31.966629311
 21
-17.344444444
 31
0.0
  0
LINE
  5
BA
330
1D
100
AcDbEntity
  8
SK2
100
AcDbLine
 10
-31.366629311
 20
-15.6
 30
0.0
 11
-31.366629311
 21
-15.788888889
 31
0.0
  0
LINE
  5
BB
330
1D
100
AcDbEntity
  8
SK2
100
AcDbLine
 10
-32.166629311
 20
-15.6
 30
0.0
 11
-32.166629311
 21
-15.788888889
 31
0.0
  0
LINE
  5
BC
330
1D
100
AcDbEntity
  8
SK2
100
AcDbLine
 10
-33.766629311
 20
19.0
 30
0.0
 11
-5.08982
 21
19.0
 31
0.0
  0
LINE
  5
BD
330
1D
100
AcDbEntity
  8
SK2
100
AcDbLine
 10
-31.766629311
 20
19.0
 30
0.0
 11
-31.316629311
 21
15.5
 31
0.0
  0
LINE
  5
BE
330
1D
100
AcDbEntity
  8
SK2
100
AcDbLine
 10
-31.316629311
 20
15.5
 30
0.0
 11
-32.216629311
 21
15.5
 31
0.0
  0
LINE
  5
BF
330
1D
100
AcDbEntity
  8
SK2
100
AcDbLine
 10
-32.216629311
 20
15.5
 30
0.0
 11
-31.766629311
 21
19.0
 31
0.0
  0
LINE
  5
C0
330
1D
100
AcDbEntity
  8
SK2
100
AcDbLine
 10
-31.766629311
 20
15.6
 30
0.0
 11
-31.766629311
 21
18.9
 31
0.0
  0
LINE
  5
C1
330
1D
100
AcDbEntity
  8
SK2
100
AcDbLine
 10
-31.966629311
 20
15.6
 30
0.0
 11
-31.966629311
 21
17.344444444
 31
0.0
  0
LINE
  5
C2
330
1D
100
AcDbEntity
  8
SK2
100
AcDbLine
 10
-31.566629311
 20
15.6
 30
0.0
 11
-31.566629311
 21
17.344444444
 31
0.0
  0
LINE
  5
C3
330
1D
100
AcDbEntity
  8
SK2
100
AcDbLine
 10
-32.166629311
 20
15.6
 30
0.0
 11
-32.166629311
 21
15.788888889
 31
0.0
  0
LINE
  5
C4
330
1D
100
AcDbEntity
  8
SK2
100
AcDbLine
 10
-31.366629311
 20
15.6
 30
0.0
 11
-31.366629311
 21
15.788888889
 31
0.0
  0
LINE
  5
C5
330
1D
100
AcDbEntity
  8
SK2
100
AcDbLine
 10
-31.766629311
 20
-15.5
 30
0.0
 11
-31.766629311
 21
15.5
 31
0.0
  0
TEXT
  5
C6
330
1D
100
AcDbEntity
  8
SK2
100
AcDbText
 10
-33.266629311
 20
0.276718325
 30
0.0
 40
3.5
  1
38
 50
90.0
  7
BMG_Text
100
AcDbText
  0
CIRCLE
  5
C7
330
1D
100
AcDbEntity
  8
SK2
100
AcDbCircle
 10
-34.516629311
 20
-1.973281675
 30
0.0
 40
1.25
  0
LINE
  5
C8
330
1D
100
AcDbEntity
  8
SK2
100
AcDbLine
 10
-33.266629311
 20
-3.223281675
 30
0.0
 11
-35.766629311
 21
-0.723281675
 31
0.0
  0
LINE
  5
C9
330
1D
100
AcDbEntity
  8
2
100
AcDbLine
 10
0.0
 20
33.794393177
 30
0.0
 11
0.0
 21
24.495
 31
0.0
  0
LINE
  5
CA
330
1D
100
AcDbEntity
  8
2
100
AcDbLine
 10
0.0
 20
31.794393177
 30
0.0
 11
3.499999996
 21
32.244393206
 31
0.0
  0
LINE
  5
CB
330
1D
100
AcDbEntity
  8
2
100
AcDbLine
 10
3.499999996
 20
32.244393206
 30
0.0
 11
3.500000004
 21
31.344393206
 31
0.0
  0
LINE
  5
CC
330
1D
100
AcDbEntity
  8
2
100
AcDbLine
 10
3.500000004
 20
31.344393206
 30
0.0
 11
0.0
 21
31.794393177
 31
0.0
  0
LINE
  5
CD
330
1D
100
AcDbEntity
  8
2
100
AcDbLine
 10
3.4
 20
31.794393205
 30
0.0
 11
0.1
 21
31.794393178
 31
0.0
  0
LINE
  5
CE
330
1D
100
AcDbEntity
  8
2
100
AcDbLine
 10
3.400000002
 20
31.594393205
 30
0.0
 11
1.655555557
 21
31.594393191
 31
0.0
  0
LINE
  5
CF
330
1D
100
AcDbEntity
  8
2
100
AcDbLine
 10
3.399999998
 20
31.994393205
 30
0.0
 11
1.655555554
 21
31.994393191
 31
0.0
  0
LINE
  5
D0
330
1D
100
AcDbEntity
  8
2
100
AcDbLine
 10
3.400000003
 20
31.394393205
 30
0.0
 11
3.211111114
 21
31.394393203
 31
0.0
  0
LINE
  5
D1
330
1D
100
AcDbEntity
  8
2
100
AcDbLine
 10
3.399999997
 20
32.194393205
 30
0.0
 11
3.211111108
 21
32.194393203
 31
0.0
  0
LINE
  5
D2
330
1D
100
AcDbEntity
  8
2
100
AcDbLine
 10
44.0
 20
33.794393539
 30
0.0
 11
44.0
 21
14.75
 31
0.0
  0
LINE
  5
D3
330
1D
100
AcDbEntity
  8
2
100
AcDbLine
 10
44.0
 20
31.794393539
 30
0.0
 11
40.500000004
 21
31.344393511
 31
0.0
  0
LINE
  5
D4
330
1D
100
AcDbEntity
  8
2
100
AcDbLine
 10
40.500000004
 20
31.344393511
 30
0.0
 11
40.499999996
 21
32.244393511
 31
0.0
  0
LINE
  5
D5
330
1D
100
AcDbEntity
  8
2
100
AcDbLine
 10
40.499999996
 20
32.244393511
 30
0.0
 11
44.0
 21
31.794393539
 31
0.0
  0
LINE
  5
D6
330
1D
100
AcDbEntity
  8
2
100
AcDbLine
 10
40.6
 20
31.794393511
 30
0.0
 11
43.9
 21
31.794393539
 31
0.0
  0
LINE
  5
D7
330
1D
100
AcDbEntity
  8
2
100
AcDbLine
 10
40.599999998
 20
31.994393511
 30
0.0
 11
42.344444443
 21
31.994393526
 31
0.0
  0
LINE
  5
D8
330
1D
100
AcDbEntity
  8
2
100
AcDbLine
 10
40.600000002
 20
31.594393511
 30
0.0
 11
42.344444446
 21
31.594393526
 31
0.0
  0
LINE
  5
D9
330
1D
100
AcDbEntity
  8
2
100
AcDbLine
 10
40.599999997
 20
32.194393511
 30
0.0
 11
40.788888886
 21
32.194393513
 31
0.0
  0
LINE
  5
DA
330
1D
100
AcDbEntity
  8
2
100
AcDbLine
 10
40.600000003
 20
31.394393511
 30
0.0
 11
40.788888892
 21
31.394393513
 31
0.0
  0
LINE
  5
DB
330
1D
100
AcDbEntity
  8
2
100
AcDbLine
 10
3.5
 20
31.794393206
 30
0.0
 11
40.5
 21
31.794393511
 31
0.0
  0
TEXT
  5
DC
330
1D
100
AcDbEntity
  8
2
100
AcDbText
 10
20.335311996
 20
33.294393345
 30
0.0
 40
3.5
  1
44
 50
0.000000472
  7
BMG_Text
100
AcDbText
  0
LINE
  5
DD
330
1D
100
AcDbEntity
  8
2
100
AcDbLine
 10
56.817983627
 20
-9.0
 30
0.0
 11
44.0
 21
-9.0
 31
0.0
  0
LINE
  5
DE
330
1D
100
AcDbEntity
  8
2
100
AcDbLine
 10
54.817983627
 20
-9.0
 30
0.0
 11
54.367983627
 21
-5.5
 31
0.0
  0
LINE
  5
DF
330
1D
100
AcDbEntity
  8
2
100
AcDbLine
 10
54.367983627
 20
-5.5
 30
0.0
 11
55.267983627
 21
-5.5
 31
0.0
  0
LINE
  5
E0
330
1D
100
AcDbEntity
  8
2
100
AcDbLine
 10
55.267983627
 20
-5.5
 30
0.0
 11
54.817983627
 21
-9.0
 31
0.0
  0
LINE
  5
E1
330
1D
100
AcDbEntity
  8
2
100
AcDbLine
 10
54.817983627
 20
-5.6
 30
0.0
 11
54.817983627
 21
-8.9
 31
0.0
  0
LINE
  5
E2
330
1D
100
AcDbEntity
  8
2
100
AcDbLine
 10
55.017983627
 20
-5.6
 30
0.0
 11
55.017983627
 21
-7.344444444
 31
0.0
  0
LINE
  5
E3
330
1D
100
AcDbEntity
  8
2
100
AcDbLine
 10
54.617983627
 20
-5.6
 30
0.0
 11
54.617983627
 21
-7.344444444
 31
0.0
  0
LINE
  5
E4
330
1D
100
AcDbEntity
  8
2
100
AcDbLine
 10
55.217983627
 20
-5.6
 30
0.0
 11
55.217983627
 21
-5.788888889
 31
0.0
  0
LINE
  5
E5
330
1D
100
AcDbEntity
  8
2
100
AcDbLine
 10
54.417983627
 20
-5.6
 30
0.0
 11
54.417983627
 21
-5.788888889
 31
0.0
  0
LINE
  5
E6
330
1D
100
AcDbEntity
  8
2
100
AcDbLine
 10
56.817983627
 20
9.0
 30
0.0
 11
44.0
 21
9.0
 31
0.0
  0
LINE
  5
E7
330
1D
100
AcDbEntity
  8
2
100
AcDbLine
 10
54.817983627
 20
9.0
 30
0.0
 11
55.267983627
 21
5.5
 31
0.0
  0
LINE
  5
E8
330
1D
100
AcDbEntity
  8
2
100
AcDbLine
 10
55.267983627
 20
5.5
 30
0.0
 11
54.367983627
 21
5.5
 31
0.0
  0
LINE
  5
E9
330
1D
100
AcDbEntity
  8
2
100
AcDbLine
 10
54.367983627
 20
5.5
 30
0.0
 11
54.817983627
 21
9.0
 31
0.0
  0
LINE
  5
EA
330
1D
100
AcDbEntity
  8
2
100
AcDbLine
 10
54.817983627
 20
5.6
 30
0.0
 11
54.817983627
 21
8.9
 31
0.0
  0
LINE
  5
EB
330
1D
100
AcDbEntity
  8
2
100
AcDbLine
 10
54.617983627
 20
5.6
 30
0.0
 11
54.617983627
 21
7.344444444
 31
0.0
  0
LINE
  5
EC
330
1D
100
AcDbEntity
  8
2
100
AcDbLine
 10
55.017983627
 20
5.6
 30
0.0
 11
55.017983627
 21
7.344444444
 31
0.0
  0
LINE
  5
ED
330
1D
100
AcDbEntity
  8
2
100
AcDbLine
 10
54.417983627
 20
5.6
 30
0.0
 11
54.417983627
 21
5.788888889
 31
0.0
  0
LINE
  5
EE
330
1D
100
AcDbEntity
  8
2
100
AcDbLine
 10
55.217983627
 20
5.6
 30
0.0
 11
55.217983627
 21
5.788888889
 31
0.0
  0
LINE
  5
EF
330
1D
100
AcDbEntity
  8
2
100
AcDbLine
 10
54.817983627
 20
-5.5
 30
0.0
 11
54.817983627
 21
5.5
 31
0.0
  0
TEXT
  5
F0
330
1D
100
AcDbEntity
  8
2
100
AcDbText
 10
53.317983627
 20
0.468124799
 30
0.0
 40
3.5
  1
18
 50
90.0
  7
BMG_Text
100
AcDbText
  0
CIRCLE
  5
F1
330
1D
100
AcDbEntity
  8
2
100
AcDbCircle
 10
52.067983627
 20
-1.781875201
 30
0.0
 40
1.25
  0
LINE
  5
F2
330
1D
100
AcDbEntity
  8
2
100
AcDbLine
 10
53.317983627
 20
-3.031875201
 30
0.0
 11
50.817983627
 21
-0.531875201
 31
0.0
  0
LINE
  5
F3
330
1D
100
AcDbEntity
  8
2
100
AcDbLine
 10
67.451716926
 20
-15.5
 30
0.0
 11
41.797927406
 21
-15.5
 31
0.0
  0
LINE
  5
F4
330
1D
100
AcDbEntity
  8
2
100
AcDbLine
 10
65.451716926
 20
-15.5
 30
0.0
 11
65.001716926
 21
-12.0
 31
0.0
  0
LINE
  5
F5
330
1D
100
AcDbEntity
  8
2
100
AcDbLine
 10
65.001716926
 20
-12.0
 30
0.0
 11
65.901716926
 21
-12.0
 31
0.0
  0
LINE
  5
F6
330
1D
100
AcDbEntity
  8
2
100
AcDbLine
 10
65.901716926
 20
-12.0
 30
0.0
 11
65.451716926
 21
-15.5
 31
0.0
  0
LINE
  5
F7
330
1D
100
AcDbEntity
  8
2
100
AcDbLine
 10
65.451716926
 20
-12.1
 30
0.0
 11
65.451716926
 21
-15.4
 31
0.0
  0
LINE
  5
F8
330
1D
100
AcDbEntity
  8
2
100
AcDbLine
 10
65.651716926
 20
-12.1
 30
0.0
 11
65.651716926
 21
-13.844444444
 31
0.0
  0
LINE
  5
F9
330
1D
100
AcDbEntity
  8
2
100
AcDbLine
 10
65.251716926
 20
-12.1
 30
0.0
 11
65.251716926
 21
-13.844444444
 31
0.0
  0
LINE
  5
FA
330
1D
100
AcDbEntity
  8
2
100
AcDbLine
 10
65.851716926
 20
-12.1
 30
0.0
 11
65.851716926
 21
-12.288888889
 31
0.0
  0
LINE
  5
FB
330
1D
100
AcDbEntity
  8
2
100
AcDbLine
 10
65.051716926
 20
-12.1
 30
0.0
 11
65.051716926
 21
-12.288888889
 31
0.0
  0
LINE
  5
FC
330
1D
100
AcDbEntity
  8
2
100
AcDbLine
 10
67.451716926
 20
15.5
 30
0.0
 11
41.797927406
 21
15.5
 31
0.0
  0
LINE
  5
FD
330
1D
100
AcDbEntity
  8
2
100
AcDbLine
 10
65.451716926
 20
15.5
 30
0.0
 11
65.901716926
 21
12.0
 31
0.0
  0
LINE
  5
FE
330
1D
100
AcDbEntity
  8
2
100
AcDbLine
 10
65.901716926
 20
12.0
 30
0.0
 11
65.001716926
 21
12.0
 31
0.0
  0
LINE
  5
FF
330
1D
100
AcDbEntity
  8
2
100
AcDbLine
 10
65.001716926
 20
12.0
 30
0.0
 11
65.451716926
 21
15.5
 31
0.0
  0
LINE
  5
100
330
1D
100
AcDbEntity
  8
2
100
AcDbLine
 10
65.451716926
 20
12.1
 30
0.0
 11
65.451716926
 21
15.4
 31
0.0
  0
LINE
  5
101
330
1D
100
AcDbEntity
  8
2
100
AcDbLine
 10
65.251716926
 20
12.1
 30
0.0
 11
65.251716926
 21
13.844444444
 31
0.0
  0
LINE
  5
102
330
1D
100
AcDbEntity
  8
2
100
AcDbLine
 10
65.651716926
 20
12.1
 30
0.0
 11
65.651716926
 21
13.844444444
 31
0.0
  0
LINE
  5
103
330
1D
100
AcDbEntity
  8
2
100
AcDbLine
 10
65.051716926
 20
12.1
 30
0.0
 11
65.051716926
 21
12.288888889
 31
0.0
  0
LINE
  5
104
330
1D
100
AcDbEntity
  8
2
100
AcDbLine
 10
65.851716926
 20
12.1
 30
0.0
 11
65.851716926
 21
12.288888889
 31
0.0
  0
LINE
  5
105
330
1D
100
AcDbEntity
  8
2
100
AcDbLine
 10
65.451716926
 20
-12.0
 30
0.0
 11
65.451716926
 21
12.0
 31
0.0
  0
TEXT
  5
106
330
1D
100
AcDbEntity
  8
2
100
AcDbText
 10
63.951716926
 20
0.659530904
 30
0.0
 40
3.5
  1
31
 50
90.0
  7
BMG_Text
100
AcDbText
  0
CIRCLE
  5
107
330
1D
100
AcDbEntity
  8
2
100
AcDbCircle
 10
62.701716926
 20
-1.590469096
 30
0.0
 40
1.25
  0
LINE
  5
108
330
1D
100
AcDbEntity
  8
2
100
AcDbLine
 10
63.951716926
 20
-2.840469096
 30
0.0
 11
61.451716926
 21
-0.340469096
 31
0.0
  0
LINE
  5
109
330
1D
100
AcDbEntity
  8
2
100
AcDbLine
 10
0.0
 20
-36.056573982
 30
0.0
 11
0.0
 21
-24.495
 31
0.0
  0
LINE
  5
10A
330
1D
100
AcDbEntity
  8
2
100
AcDbLine
 10
0.0
 20
-34.056573982
 30
0.0
 11
3.5
 21
-33.606573982
 31
0.0
  0
LINE
  5
10B
330
1D
100
AcDbEntity
  8
2
100
AcDbLine
 10
3.5
 20
-33.606573982
 30
0.0
 11
3.5
 21
-34.506573982
 31
0.0
  0
LINE
  5
10C
330
1D
100
AcDbEntity
  8
2
100
AcDbLine
 10
3.5
 20
-34.506573982
 30
0.0
 11
0.0
 21
-34.056573982
 31
0.0
  0
LINE
  5
10D
330
1D
100
AcDbEntity
  8
2
100
AcDbLine
 10
3.4
 20
-34.056573982
 30
0.0
 11
0.1
 21
-34.056573982
 31
0.0
  0
LINE
  5
10E
330
1D
100
AcDbEntity
  8
2
100
AcDbLine
 10
3.4
 20
-34.256573982
 30
0.0
 11
1.655555556
 21
-34.256573982
 31
0.0
  0
LINE
  5
10F
330
1D
100
AcDbEntity
  8
2
100
AcDbLine
 10
3.4
 20
-33.856573982
 30
0.0
 11
1.655555556
 21
-33.856573982
 31
0.0
  0
LINE
  5
110
330
1D
100
AcDbEntity
  8
2
100
AcDbLine
 10
3.4
 20
-34.456573982
 30
0.0
 11
3.211111111
 21
-34.456573982
 31
0.0
  0
LINE
  5
111
330
1D
100
AcDbEntity
  8
2
100
AcDbLine
 10
3.4
 20
-33.656573982
 30
0.0
 11
3.211111111
 21
-33.656573982
 31
0.0
  0
LINE
  5
112
330
1D
100
AcDbEntity
  8
2
100
AcDbLine
 10
31.0
 20
-36.056573982
 30
0.0
 11
31.0
 21
-24.495
 31
0.0
  0
LINE
  5
113
330
1D
100
AcDbEntity
  8
2
100
AcDbLine
 10
31.0
 20
-34.056573982
 30
0.0
 11
27.5
 21
-34.506573982
 31
0.0
  0
LINE
  5
114
330
1D
100
AcDbEntity
  8
2
100
AcDbLine
 10
27.5
 20
-34.506573982
 30
0.0
 11
27.5
 21
-33.606573982
 31
0.0
  0
LINE
  5
115
330
1D
100
AcDbEntity
  8
2
100
AcDbLine
 10
27.5
 20
-33.606573982
 30
0.0
 11
31.0
 21
-34.056573982
 31
0.0
  0
LINE
  5
116
330
1D
100
AcDbEntity
  8
2
100
AcDbLine
 10
27.6
 20
-34.056573982
 30
0.0
 11
30.9
 21
-34.056573982
 31
0.0
  0
LINE
  5
117
330
1D
100
AcDbEntity
  8
2
100
AcDbLine
 10
27.6
 20
-33.856573982
 30
0.0
 11
29.344444444
 21
-33.856573982
 31
0.0
  0
LINE
  5
118
330
1D
100
AcDbEntity
  8
2
100
AcDbLine
 10
27.6
 20
-34.256573982
 30
0.0
 11
29.344444444
 21
-34.256573982
 31
0.0
  0
LINE
  5
119
330
1D
100
AcDbEntity
  8
2
100
AcDbLine
 10
27.6
 20
-33.656573982
 30
0.0
 11
27.788888889
 21
-33.656573982
 31
0.0
  0
LINE
  5
11A
330
1D
100
AcDbEntity
  8
2
100
AcDbLine
 10
27.6
 20
-34.456573982
 30
0.0
 11
27.788888889
 21
-34.456573982
 31
0.0
  0
LINE
  5
11B
330
1D
100
AcDbEntity
  8
2
100
AcDbLine
 10
3.5
 20
-34.056573982
 30
0.0
 11
27.5
 21
-34.056573982
 31
0.0
  0
TEXT
  5
11C
330
1D
100
AcDbEntity
  8
2
100
AcDbText
 10
14.409530904
 20
-32.556573982
 30
0.0
 40
3.5
  1
31
  7
BMG_Text
100
AcDbText
  0
LINE
  5
11D
330
1D
100
AcDbEntity
  8
2
100
AcDbLine
 10
31.0
 20
-36.056573982
 30
0.0
 11
31.0
 21
-24.495
 31
0.0
  0
LINE
  5
11E
330
1D
100
AcDbEntity
  8
2
100
AcDbLine
 10
31.0
 20
-34.056573982
 30
0.0
 11
34.5
 21
-33.606573982
 31
0.0
  0
LINE
  5
11F
330
1D
100
AcDbEntity
  8
2
100
AcDbLine
 10
34.5
 20
-33.606573982
 30
0.0
 11
34.5
 21
-34.506573982
 31
0.0
  0
LINE
  5
120
330
1D
100
AcDbEntity
  8
2
100
AcDbLine
 10
34.5
 20
-34.506573982
 30
0.0
 11
31.0
 21
-34.056573982
 31
0.0
  0
LINE
  5
121
330
1D
100
AcDbEntity
  8
2
100
AcDbLine
 10
34.4
 20
-34.056573982
 30
0.0
 11
31.1
 21
-34.056573982
 31
0.0
  0
LINE
  5
122
330
1D
100
AcDbEntity
  8
2
100
AcDbLine
 10
34.4
 20
-34.256573982
 30
0.0
 11
32.655555556
 21
-34.256573982
 31
0.0
  0
LINE
  5
123
330
1D
100
AcDbEntity
  8
2
100
AcDbLine
 10
34.4
 20
-33.856573982
 30
0.0
 11
32.655555556
 21
-33.856573982
 31
0.0
  0
LINE
  5
124
330
1D
100
AcDbEntity
  8
2
100
AcDbLine
 10
34.4
 20
-34.456573982
 30
0.0
 11
34.211111111
 21
-34.456573982
 31
0.0
  0
LINE
  5
125
330
1D
100
AcDbEntity
  8
2
100
AcDbLine
 10
34.4
 20
-33.656573982
 30
0.0
 11
34.211111111
 21
-33.656573982
 31
0.0
  0
LINE
  5
126
330
1D
100
AcDbEntity
  8
2
100
AcDbLine
 10
34.5
 20
-34.056573982
 30
0.0
 11
64.0
 21
-34.056573982
 31
0.0
  0
TEXT
  5
127
330
1D
100
AcDbEntity
  8
2
100
AcDbText
 10
73.86853645487145
 20
-32.556573982
 30
0.0
 40
3.5
  1
53
  7
BMG_Text
100
AcDbText
  0
TEXT
  5
128
330
1D
100
AcDbEntity
  8
2
100
AcDbText
 10
35.026093381
 20
-32.556573982
 30
0.0
 40
3.5
  1
Ausdrehtiefe
  7
BMG_Text
100
AcDbText
  0
TEXT
  5
129
330
1D
100
AcDbEntity
  8
SK6
100
AcDbText
 10
28.544700425
 20
-20.373234922
 30
0.0
 40
3.5
  1
324.232F
  7
BMG_Text
100
AcDbText
  0
LINE
  5
12A
330
1D
100
AcDbEntity
  8
SK6
100
AcDbLine
 10
-25.089618447
 20
-28.246970386
 30
0.0
 11
-25.089618447
 21
-30.316962456
 31
0.0
  0
ARC
  5
12B
330
1D
100
AcDbEntity
  8
SK6
100
AcDbCircle
 10
-27.969604257
 20
-31.396971916
 30
0.0
 40
1.08000004
100
AcDbArc
 50
90.00000763
 51
206.54360962
  0
LINE
  5
12C
330
1D
100
AcDbEntity
  8
SK6
100
AcDbLine
 10
-27.969604257
 20
-30.316992966
 30
0.0
 11
-25.089606997
 21
-30.316992966
 31
0.0
  0
ARC
  5
12D
330
1D
100
AcDbEntity
  8
SK6
100
AcDbCircle
 10
-29.139613867
 20
-30.946967336
 30
0.0
 40
2.70000005
100
AcDbArc
 50
90.00000763
 51
206.5436554
  0
ARC
  5
12E
330
1D
100
AcDbEntity
  8
SK6
100
AcDbCircle
 10
-28.419597387
 20
-40.846976486
 30
0.0
 40
1.08000004
100
AcDbArc
 50
270.0
 51
26.54360962
  0
LINE
  5
12F
330
1D
100
AcDbEntity
  8
SK6
100
AcDbLine
 10
-28.419597387
 20
-41.926978326
 30
0.0
 11
-31.839595557
 21
-41.926978326
 31
0.0
  0
LINE
  5
130
330
1D
100
AcDbEntity
  8
SK6
100
AcDbLine
 10
-31.555015327
 20
-32.153540826
 30
0.0
 11
-27.453449007
 21
-40.364333366
 31
0.0
  0
ARC
  5
131
330
1D
100
AcDbEntity
  8
SK6
100
AcDbCircle
 10
-27.249610667
 20
-41.296981066
 30
0.0
 40
2.70000005
100
AcDbArc
 50
270.0
 51
26.54364014
  0
LINE
  5
132
330
1D
100
AcDbEntity
  8
SK6
100
AcDbLine
 10
-28.935771707
 20
-31.879599786
 30
0.0
 11
-24.834201577
 21
-40.090399956
 31
0.0
  0
LINE
  5
133
330
1D
100
AcDbEntity
  8
SK6
100
AcDbLine
 10
-31.839618447
 20
-41.926978326
 30
0.0
 11
-31.839618447
 21
-43.996985646
 31
0.0
  0
LINE
  5
134
330
1D
100
AcDbEntity
  8
SK6
100
AcDbLine
 10
-31.839618447
 20
-43.996985646
 30
0.0
 11
-27.249614477
 21
-43.996985646
 31
0.0
  0
LINE
  5
135
330
1D
100
AcDbEntity
  8
SK6
100
AcDbLine
 10
-22.389613867
 20
-43.996985646
 30
0.0
 11
-22.389613867
 21
-28.246985646
 31
0.0
  0
LINE
  5
136
330
1D
100
AcDbEntity
  8
SK6
100
AcDbLine
 10
-14.109607457
 20
-43.996985646
 30
0.0
 11
-14.109607457
 21
-28.246985646
 31
0.0
  0
LINE
  5
137
330
1D
100
AcDbEntity
  8
SK6
100
AcDbLine
 10
-14.109607457
 20
-43.996985646
 30
0.0
 11
-11.409614327
 21
-43.996985646
 31
0.0
  0
LINE
  5
138
330
1D
100
AcDbEntity
  8
SK6
100
AcDbLine
 10
-11.409614327
 20
-43.996985646
 30
0.0
 11
-11.409614327
 21
-37.156989306
 31
0.0
  0
ARC
  5
139
330
1D
100
AcDbEntity
  8
SK6
100
AcDbCircle
 10
-10.059600597
 20
-38.236975876
 30
0.0
 40
1.08000004
100
AcDbArc
 50
0.0
 51
90.00000763
  0
LINE
  5
13A
330
1D
100
AcDbEntity
  8
SK6
100
AcDbLine
 10
-10.059600597
 20
-37.156974046
 30
0.0
 11
-11.409602877
 21
-37.156974046
 31
0.0
  0
LINE
  5
13B
330
1D
100
AcDbEntity
  8
SK6
100
AcDbLine
 10
-8.979621647
 20
-41.476981376
 30
0.0
 11
-8.979621647
 21
-42.466971606
 31
0.0
  0
ARC
  5
13C
330
1D
100
AcDbEntity
  8
SK6
100
AcDbCircle
 10
-3.849624397
 20
-42.466979236
 30
0.0
 40
2.51999998
100
AcDbArc
 50
180.0
 51
217.38319397
  0
ARC
  5
13D
330
1D
100
AcDbEntity
  8
SK6
100
AcDbCircle
 10
-6.459632637
 20
-42.466979236
 30
0.0
 40
2.51999998
100
AcDbArc
 50
180.0
 51
217.38319397
  0
LINE
  5
13E
330
1D
100
AcDbEntity
  8
SK6
100
AcDbLine
 10
-5.942016367
 20
-43.996985646
 30
0.0
 11
-8.462016817
 21
-43.996985646
 31
0.0
  0
LINE
  5
13F
330
1D
100
AcDbEntity
  8
SK6
100
AcDbLine
 10
-8.979621647
 20
-38.236991136
 30
0.0
 11
-8.979621647
 21
-42.466979236
 31
0.0
  0
ARC
  5
140
330
1D
100
AcDbEntity
  8
SK6
100
AcDbCircle
 10
-8.889602427
 20
-38.416983816
 30
0.0
 40
2.51999998
100
AcDbArc
 50
358.70883179
 51
93.06652832
  0
ARC
  5
141
330
1D
100
AcDbEntity
  8
SK6
100
AcDbCircle
 10
-9.159614327
 20
-33.376982896
 30
0.0
 40
2.51999998
100
AcDbArc
 50
273.06652832
 51
0.0
  0
ARC
  5
142
330
1D
100
AcDbEntity
  8
SK6
100
AcDbCircle
 10
-9.159614327
 20
-30.766989916
 30
0.0
 40
2.51999998
100
AcDbArc
 50
0.0
 51
90.00000763
  0
LINE
  5
143
330
1D
100
AcDbEntity
  8
SK6
100
AcDbLine
 10
-6.639602427
 20
-30.766989916
 30
0.0
 11
-6.639602427
 21
-33.376990526
 31
0.0
  0
ARC
  5
144
330
1D
100
AcDbEntity
  8
SK6
100
AcDbCircle
 10
-9.789611577
 20
-31.216986866
 30
0.0
 40
0.90000004
100
AcDbArc
 50
0.0
 51
90.00000763
  0
LINE
  5
145
330
1D
100
AcDbEntity
  8
SK6
100
AcDbLine
 10
-9.789611577
 20
-30.316992966
 30
0.0
 11
-11.409614327
 21
-30.316992966
 31
0.0
  0
ARC
  5
146
330
1D
100
AcDbEntity
  8
SK6
100
AcDbCircle
 10
-9.789611577
 20
-34.096976486
 30
0.0
 40
0.90000004
100
AcDbArc
 50
270.0
 51
0.0
  0
LINE
  5
147
330
1D
100
AcDbEntity
  8
SK6
100
AcDbLine
 10
-8.889602427
 20
-31.216986866
 30
0.0
 11
-8.889602427
 21
-34.096984116
 31
0.0
  0
LINE
  5
148
330
1D
100
AcDbEntity
  8
SK6
100
AcDbLine
 10
-11.409614327
 20
-30.316992966
 30
0.0
 11
-11.409614327
 21
-34.996985646
 31
0.0
  0
LINE
  5
149
330
1D
100
AcDbEntity
  8
SK6
100
AcDbLine
 10
-9.789611577
 20
-34.996985646
 30
0.0
 11
-11.409614327
 21
-34.996985646
 31
0.0
  0
LINE
  5
14A
330
1D
100
AcDbEntity
  8
SK6
100
AcDbLine
 10
-6.370254277
 20
-38.473769396
 30
0.0
 11
-6.369624857
 21
-42.467383596
 31
0.0
  0
LINE
  5
14B
330
1D
100
AcDbEntity
  8
SK6
100
AcDbLine
 10
-5.942016367
 20
-43.996985646
 30
0.0
 11
-5.852020027
 21
-43.996985646
 31
0.0
  0
LINE
  5
14C
330
1D
100
AcDbEntity
  8
SK6
100
AcDbLine
 10
-29.139613867
 20
-28.246970386
 30
0.0
 11
-25.089610817
 21
-28.246970386
 31
0.0
  0
LINE
  5
14D
330
1D
100
AcDbEntity
  8
SK6
100
AcDbLine
 10
-9.159614327
 20
-28.246970386
 30
0.0
 11
-14.109618907
 21
-28.246970386
 31
0.0
  0
LINE
  5
14E
330
1D
100
AcDbEntity
  8
SK6
100
AcDbLine
 10
-56.139613867
 20
-43.996985646
 30
0.0
 11
-58.929614787
 21
-43.996985646
 31
0.0
  0
LINE
  5
14F
330
1D
100
AcDbEntity
  8
SK6
100
AcDbLine
 10
-56.139613867
 20
-40.576987476
 30
0.0
 11
-56.139613867
 21
-43.996985646
 31
0.0
  0
LINE
  5
150
330
1D
100
AcDbEntity
  8
SK6
100
AcDbLine
 10
-55.059612037
 20
-38.506980156
 30
0.0
 11
-56.139613867
 21
-40.576987476
 31
0.0
  0
LINE
  5
151
330
1D
100
AcDbEntity
  8
SK6
100
AcDbLine
 10
-52.629619357
 20
-43.996985646
 30
0.0
 11
-55.059612037
 21
-38.506980156
 31
0.0
  0
LINE
  5
152
330
1D
100
AcDbEntity
  8
SK6
100
AcDbLine
 10
-49.839618447
 20
-43.996985646
 30
0.0
 11
-52.629611727
 21
-43.996985646
 31
0.0
  0
LINE
  5
153
330
1D
100
AcDbEntity
  8
SK6
100
AcDbLine
 10
-53.439624547
 20
-34.996985646
 30
0.0
 11
-49.839618447
 21
-43.996985646
 31
0.0
  0
LINE
  5
154
330
1D
100
AcDbEntity
  8
SK6
100
AcDbLine
 10
-50.379619357
 20
-28.246985646
 30
0.0
 11
-53.439609287
 21
-34.996985646
 31
0.0
  0
LINE
  5
155
330
1D
100
AcDbEntity
  8
SK6
100
AcDbLine
 10
-56.139613867
 20
-35.356993886
 30
0.0
 11
-53.169620277
 21
-28.247000906
 31
0.0
  0
LINE
  5
156
330
1D
100
AcDbEntity
  8
SK6
100
AcDbLine
 10
-56.139613867
 20
-28.246985646
 30
0.0
 11
-56.139613867
 21
-35.356993886
 31
0.0
  0
LINE
  5
157
330
1D
100
AcDbEntity
  8
SK6
100
AcDbLine
 10
-58.929614787
 20
-43.996985646
 30
0.0
 11
-58.929614787
 21
-28.246985646
 31
0.0
  0
LINE
  5
158
330
1D
100
AcDbEntity
  8
SK6
100
AcDbLine
 10
-53.169620277
 20
-28.246985646
 30
0.0
 11
-50.379619357
 21
-28.246985646
 31
0.0
  0
LINE
  5
159
330
1D
100
AcDbEntity
  8
SK6
100
AcDbLine
 10
-58.929614787
 20
-28.246985646
 30
0.0
 11
-56.139613867
 21
-28.246985646
 31
0.0
  0
LINE
  5
15A
330
1D
100
AcDbEntity
  8
SK6
100
AcDbLine
 10
-36.879607917
 20
-28.246985646
 30
0.0
 11
-36.879607917
 21
-43.996985646
 31
0.0
  0
LINE
  5
15B
330
1D
100
AcDbEntity
  8
SK6
100
AcDbLine
 10
-33.999610667
 20
-43.996985646
 30
0.0
 11
-33.999610667
 21
-28.246985646
 31
0.0
  0
LINE
  5
15C
330
1D
100
AcDbEntity
  8
SK6
100
AcDbLine
 10
-36.879607917
 20
-43.996985646
 30
0.0
 11
-33.999610667
 21
-43.996985646
 31
0.0
  0
LINE
  5
15D
330
1D
100
AcDbEntity
  8
SK6
100
AcDbLine
 10
-33.999610667
 20
-28.246985646
 30
0.0
 11
-36.879619357
 21
-28.246985646
 31
0.0
  0
LINE
  5
15E
330
1D
100
AcDbEntity
  8
SK6
100
AcDbLine
 10
-16.539611577
 20
-43.996985646
 30
0.0
 11
-16.539611577
 21
-41.926978326
 31
0.0
  0
LINE
  5
15F
330
1D
100
AcDbEntity
  8
SK6
100
AcDbLine
 10
-22.389613867
 20
-43.996985646
 30
0.0
 11
-16.539611577
 21
-43.996985646
 31
0.0
  0
LINE
  5
160
330
1D
100
AcDbEntity
  8
SK6
100
AcDbLine
 10
-16.539623027
 20
-30.316977716
 30
0.0
 11
-16.539623027
 21
-28.246985646
 31
0.0
  0
LINE
  5
161
330
1D
100
AcDbEntity
  8
SK6
100
AcDbLine
 10
-19.509639507
 20
-30.316977716
 30
0.0
 11
-16.539634467
 21
-30.316977716
 31
0.0
  0
LINE
  5
162
330
1D
100
AcDbEntity
  8
SK6
100
AcDbLine
 10
-19.509639507
 20
-34.996985646
 30
0.0
 11
-19.509639507
 21
-30.316992966
 31
0.0
  0
LINE
  5
163
330
1D
100
AcDbEntity
  8
SK6
100
AcDbLine
 10
-16.539623027
 20
-34.996985646
 30
0.0
 11
-19.509628057
 21
-34.996985646
 31
0.0
  0
LINE
  5
164
330
1D
100
AcDbEntity
  8
SK6
100
AcDbLine
 10
-16.539623027
 20
-37.156966416
 30
0.0
 11
-16.539623027
 21
-34.996962756
 31
0.0
  0
LINE
  5
165
330
1D
100
AcDbEntity
  8
SK6
100
AcDbLine
 10
-19.509639507
 20
-37.156966416
 30
0.0
 11
-16.539634467
 21
-37.156966416
 31
0.0
  0
LINE
  5
166
330
1D
100
AcDbEntity
  8
SK6
100
AcDbLine
 10
-19.509639507
 20
-41.926978326
 30
0.0
 11
-19.509639507
 21
-37.156966416
 31
0.0
  0
LINE
  5
167
330
1D
100
AcDbEntity
  8
SK6
100
AcDbLine
 10
-16.539623027
 20
-41.926978326
 30
0.0
 11
-19.509628057
 21
-41.926978326
 31
0.0
  0
LINE
  5
168
330
1D
100
AcDbEntity
  8
SK6
100
AcDbLine
 10
-16.539623027
 20
-28.246985646
 30
0.0
 11
-22.389625307
 21
-28.246985646
 31
0.0
  0
LINE
  5
169
330
1D
100
AcDbEntity
  8
SK6
100
AcDbLine
 10
-42.459613567
 20
-43.996985646
 30
0.0
 11
-48.759616617
 21
-43.996985646
 31
0.0
  0
LINE
  5
16A
330
1D
100
AcDbEntity
  8
SK6
100
AcDbLine
 10
-42.909602877
 20
-41.476973746
 30
0.0
 11
-42.459613567
 21
-43.996970386
 31
0.0
  0
LINE
  5
16B
330
1D
100
AcDbEntity
  8
SK6
100
AcDbLine
 10
-45.789623027
 20
-41.476973746
 30
0.0
 11
-42.909625767
 21
-41.476973746
 31
0.0
  0
LINE
  5
16C
330
1D
100
AcDbEntity
  8
SK6
100
AcDbLine
 10
-44.259616617
 20
-32.116988396
 30
0.0
 11
-45.789615397
 21
-41.476996636
 31
0.0
  0
LINE
  5
16D
330
1D
100
AcDbEntity
  8
SK6
100
AcDbLine
 10
-41.199619057
 20
-43.996985646
 30
0.0
 11
-44.259616617
 21
-32.116988396
 31
0.0
  0
LINE
  5
16E
330
1D
100
AcDbEntity
  8
SK6
100
AcDbLine
 10
-38.229610207
 20
-43.996985646
 30
0.0
 11
-41.199603797
 21
-43.996985646
 31
0.0
  0
LINE
  5
16F
330
1D
100
AcDbEntity
  8
SK6
100
AcDbLine
 10
-42.639613867
 20
-27.796981066
 30
0.0
 11
-38.229621647
 21
-43.996985646
 31
0.0
  0
LINE
  5
170
330
1D
100
AcDbEntity
  8
SK6
100
AcDbLine
 10
-45.699619057
 20
-27.796981066
 30
0.0
 11
-42.639621497
 21
-27.796981066
 31
0.0
  0
LINE
  5
171
330
1D
100
AcDbEntity
  8
SK6
100
AcDbLine
 10
-48.759616617
 20
-43.996985646
 30
0.0
 11
-45.699619057
 21
-27.796981066
 31
0.0
  0
LINE
  5
172
330
1D
100
AcDbEntity
  8
1
100
AcDbLine
 10
16.0875
 20
16.386851158
 30
0.0
 11
14.559103466
 21
19.740779899
 31
0.0
  0
LINE
  5
173
330
1D
100
AcDbEntity
  8
1
100
AcDbLine
 10
14.559103466
 20
19.740779899
 30
0.0
 11
12.83930914
 21
19.740779899
 31
0.0
  0
ARC
  5
174
330
1D
100
AcDbEntity
  8
1
100
AcDbCircle
 10
12.333410293
 20
14.389183137
 30
0.0
 40
5.375455474
100
AcDbArc
 50
84.599745205
 51
171.324572663
  0
LINE
  5
175
330
1D
100
AcDbEntity
  8
1
100
AcDbLine
 10
7.019457192
 20
15.2
 30
0.0
 11
25.95
 21
15.2
 31
0.0
  0
LINE
  5
176
330
1D
100
AcDbEntity
  8
1
100
AcDbLine
 10
19.9125
 20
16.386851158
 30
0.0
 11
21.440896534
 21
19.740779899
 31
0.0
  0
LINE
  5
177
330
1D
100
AcDbEntity
  8
1
100
AcDbLine
 10
25.95
 20
19.740779899
 30
0.0
 11
21.440896534
 21
19.740779899
 31
0.0
  0
LINE
  5
178
330
1D
100
AcDbEntity
  8
1
100
AcDbLine
 10
16.0875
 20
16.386851158
 30
0.0
 11
19.9125
 21
16.386851158
 31
0.0
  0
LWPOLYLINE
  5
216
330
1D
100
AcDbEntity
  8
INFTOTAL
100
AcDbPolyline
 90
        4
 70
     1
 43
0.0
 10
-75.88883507655761
 20
45.5392906252506
 10
-75.88883507655761
 20
-54.44440558823079
 10
98.22725947011342
 20
-54.44440558823079
 10
98.22725947011342
 20
45.5392906252506
  0
LINE
  5
220
330
1D
100
AcDbEntity
  8
NOCUT
100
AcDbLine
 10
16.0875
 20
22.225
 30
0.0
 11
16.0875
 21
22.437547169
 31
0.0
  0
LINE
  5
221
330
1D
100
AcDbEntity
  8
NOCUT
100
AcDbLine
 10
16.0875
 20
22.437547169
 30
0.0
 11
14.709103466
 21
24.825
 31
0.0
  0
LINE
  5
222
330
1D
100
AcDbEntity
  8
NOCUT
100
AcDbLine
 10
14.709103466
 20
24.825
 30
0.0
 11
14.559103466
 21
24.975
 31
0.0
  0
LINE
  5
223
330
1D
100
AcDbEntity
  8
NOCUT
100
AcDbLine
 10
14.559103466
 20
24.975
 30
0.0
 11
0.48
 21
24.975
 31
0.0
  0
LINE
  5
224
330
1D
100
AcDbEntity
  8
NOCUT
100
AcDbLine
 10
0.48
 20
24.975
 30
0.0
 11
0.0
 21
24.495
 31
0.0
  0
LINE
  5
225
330
1D
100
AcDbEntity
  8
NOCUT
100
AcDbLine
 10
0.0
 20
24.495
 30
0.0
 11
0.0
 21
0.0
 31
0.0
  0
LINE
  5
226
330
1D
100
AcDbEntity
  8
NOCUT
100
AcDbLine
 10
0.0
 20
0.0
 30
0.0
 11
44.0
 21
0.0
 31
0.0
  0
LINE
  5
227
330
1D
100
AcDbEntity
  8
NOCUT
100
AcDbLine
 10
44.0
 20
0.0
 30
0.0
 11
44.0
 21
14.75
 31
0.0
  0
LINE
  5
228
330
1D
100
AcDbEntity
  8
NOCUT
100
AcDbLine
 10
44.0
 20
14.75
 30
0.0
 11
43.6
 21
15.15
 31
0.0
  0
LINE
  5
229
330
1D
100
AcDbEntity
  8
NOCUT
100
AcDbLine
 10
43.6
 20
15.15
 30
0.0
 11
42.0
 21
15.15
 31
0.0
  0
LINE
  5
22A
330
1D
100
AcDbEntity
  8
NOCUT
100
AcDbLine
 10
42.0
 20
15.15
 30
0.0
 11
41.797927406
 21
15.5
 31
0.0
  0
LINE
  5
22B
330
1D
100
AcDbEntity
  8
NOCUT
100
AcDbLine
 10
41.797927406
 20
15.5
 30
0.0
 11
30.1
 21
15.5
 31
0.0
  0
LINE
  5
22C
330
1D
100
AcDbEntity
  8
NOCUT
100
AcDbLine
 10
30.1
 20
15.5
 30
0.0
 11
29.95
 21
15.35
 31
0.0
  0
LINE
  5
22D
330
1D
100
AcDbEntity
  8
NOCUT
100
AcDbLine
 10
29.95
 20
15.35
 30
0.0
 11
28.95
 21
15.35
 31
0.0
  0
LINE
  5
22E
330
1D
100
AcDbEntity
  8
NOCUT
100
AcDbLine
 10
25.95
 20
18.35
 30
0.0
 11
25.95
 21
24.575
 31
0.0
  0
LINE
  5
22F
330
1D
100
AcDbEntity
  8
NOCUT
100
AcDbLine
 10
25.95
 20
24.575
 30
0.0
 11
25.55
 21
24.975
 31
0.0
  0
LINE
  5
230
330
1D
100
AcDbEntity
  8
NOCUT
100
AcDbLine
 10
25.55
 20
24.975
 30
0.0
 11
21.440896534
 21
24.975
 31
0.0
  0
LINE
  5
231
330
1D
100
AcDbEntity
  8
NOCUT
100
AcDbLine
 10
21.440896534
 20
24.975
 30
0.0
 11
21.290896534
 21
24.825
 31
0.0
  0
LINE
  5
232
330
1D
100
AcDbEntity
  8
NOCUT
100
AcDbLine
 10
21.290896534
 20
24.825
 30
0.0
 11
19.9125
 21
22.437547169
 31
0.0
  0
LINE
  5
233
330
1D
100
AcDbEntity
  8
NOCUT
100
AcDbLine
 10
19.9125
 20
22.437547169
 30
0.0
 11
19.9125
 21
22.225
 31
0.0
  0
LINE
  5
234
330
1D
100
AcDbEntity
  8
NOCUT
100
AcDbLine
 10
19.1625
 20
21.475
 30
0.0
 11
16.8375
 21
21.475
 31
0.0
  0
ARC
  5
235
330
1D
100
AcDbEntity
  8
NOCUT
100
AcDbCircle
 10
16.8375
 20
22.225
 30
0.0
 40
0.7499999999999976
100
AcDbArc
 50
179.9999999999997
 51
270.0000000000002
  0
ARC
  5
236
330
1D
100
AcDbEntity
  8
NOCUT
100
AcDbCircle
 10
19.1625
 20
22.225
 30
0.0
 40
0.7499999999999976
100
AcDbArc
 50
269.9999999999997
 51
0.0000000000002714
  0
ARC
  5
237
330
1D
100
AcDbEntity
  8
NOCUT
100
AcDbCircle
 10
28.95
 20
18.35
 30
0.0
 40
3.000000000000005
100
AcDbArc
 50
180.0
 51
269.9999999999999
  0
LINE
  5
273
330
1D
100
AcDbEntity
  8
SK3
100
AcDbLine
 10
-0.0500000003901953
 20
13.019999999994
 30
0.0
 11
0.0
 21
13.019999999994
 31
0.0
  0
LINE
  5
274
330
1D
100
AcDbEntity
  8
SK3
100
AcDbLine
 10
0.0
 20
-13.02
 30
0.0
 11
-0.05
 21
-13.02
 31
0.0
  0
LINE
  5
29A
330
1D
100
AcDbEntity
  8
SK4
100
AcDbLine
 10
-26.302470566
 20
0.0
 30
0.0
 11
44.94373983600001
 21
0.0
 31
0.0
  0
LINE
  5
2F9
330
1D
100
AcDbEntity
  8
SK1
100
AcDbLine
 10
0.0000000000031268
 20
-19.3001271442374
 30
0.0
 11
0.0000000000031267
 21
19.3001271442374
 31
0.0
  0
ENDSEC
  0
SECTION
  2
OBJECTS
  0
DICTIONARY
  5
C
330
0
100
AcDbDictionary
281
     1
  3
ACAD_DETAILVIEWSTYLE
350
23B
  3
ACAD_GROUP
350
D
  3
ACAD_LAYOUT
350
1A
  3
ACAD_MLINESTYLE
350
17
  3
ACAD_PLOTSETTINGS
350
19
  3
ACAD_PLOTSTYLENAME
350
E
  3
ACAD_SCALELIST
350
17F
  3
ACAD_SECTIONVIEWSTYLE
350
23C
  3
AcDbVariableDictionary
350
1C1
  3
APPDATA
350
20F
  3
DWGPROPS
350
2FE
  0
DICTIONARY
  5
210
330
2
100
AcDbDictionary
280
     1
281
     1
  3
ACAD_LAYERSTATES
360
211
  0
DICTIONARY
  5
23B
102
{ACAD_REACTORS
330
C
102
}
330
C
100
AcDbDictionary
281
     1
  0
DICTIONARY
  5
D
102
{ACAD_REACTORS
330
C
102
}
330
C
100
AcDbDictionary
281
     1
  0
DICTIONARY
  5
1A
102
{ACAD_REACTORS
330
C
102
}
330
C
100
AcDbDictionary
281
     1
  3
Layout1
350
1C
  3
Model
350
1E
  0
DICTIONARY
  5
17
102
{ACAD_REACTORS
330
C
102
}
330
C
100
AcDbDictionary
281
     1
  3
Standard
350
18
  0
DICTIONARY
  5
19
102
{ACAD_REACTORS
330
C
102
}
330
C
100
AcDbDictionary
281
     1
  0
ACDBDICTIONARYWDFLT
  5
E
102
{ACAD_REACTORS
330
C
102
}
330
C
100
AcDbDictionary
281
     1
  3
Normal
350
F
100
AcDbDictionaryWithDefault
340
F
  0
DICTIONARY
  5
17F
102
{ACAD_REACTORS
330
C
102
}
330
C
100
AcDbDictionary
281
     1
  3
A0
350
180
  3
A1
350
181
  3
A2
350
182
  3
A3
350
183
  3
A4
350
184
  3
A5
350
185
  3
A6
350
186
  3
A7
350
187
  3
A8
350
188
  3
A9
350
189
  3
B0
350
18A
  3
B1
350
18B
  3
B2
350
18C
  3
B3
350
18D
  3
B4
350
18E
  3
B5
350
18F
  3
B6
350
190
  3
B7
350
191
  3
B8
350
192
  3
B9
350
193
  3
C0
350
194
  3
C1
350
195
  3
C2
350
196
  3
C3
350
197
  3
C4
350
198
  3
C5
350
199
  3
C6
350
19A
  3
C7
350
19B
  3
C8
350
19C
  3
C9
350
19D
  3
D0
350
19E
  3
D1
350
19F
  3
D2
350
1A0
  0
DICTIONARY
  5
23C
102
{ACAD_REACTORS
330
C
102
}
330
C
100
AcDbDictionary
281
     1
  0
DICTIONARY
  5
1C1
102
{ACAD_REACTORS
330
C
102
}
330
C
100
AcDbDictionary
281
     1
  3
DIMASSOC
350
1C5
  3
HIDETEXT
350
1C6
  0
DICTIONARY
  5
20F
102
{ACAD_REACTORS
330
C
102
}
330
C
100
AcDbDictionary
281
     1
  0
XRECORD
  5
2FE
102
{ACAD_REACTORS
330
C
102
}
330
C
100
AcDbXrecord
280
     1
  1
DWGPROPS COOKIE
  2

  3

  4

  6

  7

  8
matthias.ochs
  9

300
=
301
=
302
=
303
=
304
=
305
=
306
=
307
=
308
=
309
=
 40
0.0
 41
2458327.466034549
 42
2458589.528953322
  1

 90
        0
  0
DICTIONARY
  5
211
102
{ACAD_REACTORS
330
210
102
}
330
210
100
AcDbDictionary
281
     1
  0
LAYOUT
  5
1C
102
{ACAD_REACTORS
330
1A
102
}
330
1A
100
AcDbPlotSettings
  1

  2
none_device
  4

  6

 40
0.0
 41
0.0
 42
0.0
 43
0.0
 44
0.0
 45
0.0
 46
0.0
 47
0.0
 48
0.0
 49
0.0
140
0.0
141
0.0
142
1.0
143
1.0
 70
   688
 72
     0
 73
     0
 74
     5
  7

 75
    16
147
1.0
148
0.0
149
0.0
100
AcDbLayout
  1
Layout1
 70
     1
 71
     1
 10
0.0
 20
0.0
 11
12.0
 21
9.0
 12
0.0
 22
0.0
 32
0.0
 14
1.000000000000000E+20
 24
1.000000000000000E+20
 34
1.000000000000000E+20
 15
-1.000000000000000E+20
 25
-1.000000000000000E+20
 35
-1.000000000000000E+20
146
0.0
 13
0.0
 23
0.0
 33
0.0
 16
1.0
 26
0.0
 36
0.0
 17
0.0
 27
1.0
 37
0.0
 76
     0
330
1B
  0
LAYOUT
  5
1E
102
{ACAD_REACTORS
330
1A
102
}
330
1A
100
AcDbPlotSettings
  1

  2
none_device
  4

  6

 40
0.0
 41
0.0
 42
0.0
 43
0.0
 44
0.0
 45
0.0
 46
0.0
 47
0.0
 48
0.0
 49
0.0
140
0.0
141
0.0
142
1.0
143
1.0
 70
  1712
 72
     0
 73
     0
 74
     0
  7

 75
     0
147
1.0
148
0.0
149
0.0
100
AcDbLayout
  1
Model
 70
     1
 71
     0
 10
0.0
 20
0.0
 11
12.0
 21
9.0
 12
0.0
 22
0.0
 32
0.0
 14
-75.88883507655761
 24
-54.44440558823079
 34
0.0
 15
98.22725947011342
 25
45.5392906252506
 35
0.0
146
0.0
 13
0.0
 23
0.0
 33
0.0
 16
1.0
 26
0.0
 36
0.0
 17
0.0
 27
1.0
 37
0.0
 76
     0
330
1D
331
179
  0
MLINESTYLE
  5
18
102
{ACAD_REACTORS
330
17
102
}
330
17
100
AcDbMlineStyle
  2
Standard
 70
     0
  3

 62
   256
 51
90.0
 52
90.0
 71
     2
 49
0.5
 62
   256
  6
BYLAYER
 49
-0.5
 62
   256
  6
BYLAYER
  0
ACDBPLACEHOLDER
  5
F
102
{ACAD_REACTORS
330
E
102
}
330
E
  0
SCALE
  5
180
102
{ACAD_REACTORS
330
17F
102
}
330
17F
100
AcDbScale
 70
     0
300
1:1
140
1.0
141
1.0
290
     1
  0
SCALE
  5
181
102
{ACAD_REACTORS
330
17F
102
}
330
17F
100
AcDbScale
 70
     0
300
1:2
140
1.0
141
2.0
290
     0
  0
SCALE
  5
182
102
{ACAD_REACTORS
330
17F
102
}
330
17F
100
AcDbScale
 70
     0
300
1:4
140
1.0
141
4.0
290
     0
  0
SCALE
  5
183
102
{ACAD_REACTORS
330
17F
102
}
330
17F
100
AcDbScale
 70
     0
300
1:5
140
1.0
141
5.0
290
     0
  0
SCALE
  5
184
102
{ACAD_REACTORS
330
17F
102
}
330
17F
100
AcDbScale
 70
     0
300
1:8
140
1.0
141
8.0
290
     0
  0
SCALE
  5
185
102
{ACAD_REACTORS
330
17F
102
}
330
17F
100
AcDbScale
 70
     0
300
1:10
140
1.0
141
10.0
290
     0
  0
SCALE
  5
186
102
{ACAD_REACTORS
330
17F
102
}
330
17F
100
AcDbScale
 70
     0
300
1:16
140
1.0
141
16.0
290
     0
  0
SCALE
  5
187
102
{ACAD_REACTORS
330
17F
102
}
330
17F
100
AcDbScale
 70
     0
300
1:20
140
1.0
141
20.0
290
     0
  0
SCALE
  5
188
102
{ACAD_REACTORS
330
17F
102
}
330
17F
100
AcDbScale
 70
     0
300
1:30
140
1.0
141
30.0
290
     0
  0
SCALE
  5
189
102
{ACAD_REACTORS
330
17F
102
}
330
17F
100
AcDbScale
 70
     0
300
1:40
140
1.0
141
40.0
290
     0
  0
SCALE
  5
18A
102
{ACAD_REACTORS
330
17F
102
}
330
17F
100
AcDbScale
 70
     0
300
1:50
140
1.0
141
50.0
290
     0
  0
SCALE
  5
18B
102
{ACAD_REACTORS
330
17F
102
}
330
17F
100
AcDbScale
 70
     0
300
1:100
140
1.0
141
100.0
290
     0
  0
SCALE
  5
18C
102
{ACAD_REACTORS
330
17F
102
}
330
17F
100
AcDbScale
 70
     0
300
2:1
140
2.0
141
1.0
290
     0
  0
SCALE
  5
18D
102
{ACAD_REACTORS
330
17F
102
}
330
17F
100
AcDbScale
 70
     0
300
4:1
140
4.0
141
1.0
290
     0
  0
SCALE
  5
18E
102
{ACAD_REACTORS
330
17F
102
}
330
17F
100
AcDbScale
 70
     0
300
8:1
140
8.0
141
1.0
290
     0
  0
SCALE
  5
18F
102
{ACAD_REACTORS
330
17F
102
}
330
17F
100
AcDbScale
 70
     0
300
10:1
140
10.0
141
1.0
290
     0
  0
SCALE
  5
190
102
{ACAD_REACTORS
330
17F
102
}
330
17F
100
AcDbScale
 70
     0
300
100:1
140
100.0
141
1.0
290
     0
  0
SCALE
  5
191
102
{ACAD_REACTORS
330
17F
102
}
330
17F
100
AcDbScale
 70
     0
300
1/128" = 1'-0"
140
0.0078125
141
12.0
290
     0
  0
SCALE
  5
192
102
{ACAD_REACTORS
330
17F
102
}
330
17F
100
AcDbScale
 70
     0
300
1/64" = 1'-0"
140
0.015625
141
12.0
290
     0
  0
SCALE
  5
193
102
{ACAD_REACTORS
330
17F
102
}
330
17F
100
AcDbScale
 70
     0
300
1/32" = 1'-0"
140
0.03125
141
12.0
290
     0
  0
SCALE
  5
194
102
{ACAD_REACTORS
330
17F
102
}
330
17F
100
AcDbScale
 70
     0
300
1/16" = 1'-0"
140
0.0625
141
12.0
290
     0
  0
SCALE
  5
195
102
{ACAD_REACTORS
330
17F
102
}
330
17F
100
AcDbScale
 70
     0
300
3/32" = 1'-0"
140
0.09375
141
12.0
290
     0
  0
SCALE
  5
196
102
{ACAD_REACTORS
330
17F
102
}
330
17F
100
AcDbScale
 70
     0
300
1/8" = 1'-0"
140
0.125
141
12.0
290
     0
  0
SCALE
  5
197
102
{ACAD_REACTORS
330
17F
102
}
330
17F
100
AcDbScale
 70
     0
300
3/16" = 1'-0"
140
0.1875
141
12.0
290
     0
  0
SCALE
  5
198
102
{ACAD_REACTORS
330
17F
102
}
330
17F
100
AcDbScale
 70
     0
300
1/4" = 1'-0"
140
0.25
141
12.0
290
     0
  0
SCALE
  5
199
102
{ACAD_REACTORS
330
17F
102
}
330
17F
100
AcDbScale
 70
     0
300
3/8" = 1'-0"
140
0.375
141
12.0
290
     0
  0
SCALE
  5
19A
102
{ACAD_REACTORS
330
17F
102
}
330
17F
100
AcDbScale
 70
     0
300
1/2" = 1'-0"
140
0.5
141
12.0
290
     0
  0
SCALE
  5
19B
102
{ACAD_REACTORS
330
17F
102
}
330
17F
100
AcDbScale
 70
     0
300
3/4" = 1'-0"
140
0.75
141
12.0
290
     0
  0
SCALE
  5
19C
102
{ACAD_REACTORS
330
17F
102
}
330
17F
100
AcDbScale
 70
     0
300
1" = 1'-0"
140
1.0
141
12.0
290
     0
  0
SCALE
  5
19D
102
{ACAD_REACTORS
330
17F
102
}
330
17F
100
AcDbScale
 70
     0
300
1-1/2" = 1'-0"
140
1.5
141
12.0
290
     0
  0
SCALE
  5
19E
102
{ACAD_REACTORS
330
17F
102
}
330
17F
100
AcDbScale
 70
     0
300
3" = 1'-0"
140
3.0
141
12.0
290
     0
  0
SCALE
  5
19F
102
{ACAD_REACTORS
330
17F
102
}
330
17F
100
AcDbScale
 70
     0
300
6" = 1'-0"
140
6.0
141
12.0
290
     0
  0
SCALE
  5
1A0
102
{ACAD_REACTORS
330
17F
102
}
330
17F
100
AcDbScale
 70
     0
300
1'-0" = 1'-0"
140
12.0
141
12.0
290
     0
  0
DICTIONARYVAR
  5
1C5
102
{ACAD_REACTORS
330
1C1
102
}
330
1C1
100
DictionaryVariables
280
     0
  1
2
  0
DICTIONARYVAR
  5
1C6
102
{ACAD_REACTORS
330
1C1
102
}
330
1C1
100
DictionaryVariables
280
     0
  1
1
  0
ENDSEC
  0
EOF
