  0
SECTION
  2
HEADER
  9
$ACADVER
  1
AC1015
  9
$ACADMAINTVER
 70
     6
  9
$DWGCODEPAGE
  3
ANSI_1252
  9
$INSBASE
 10
0.0
 20
0.0
 30
0.0
  9
$EXTMIN
 10
-84.29614816072888
 20
-58.19051544710895
 30
0.0
  9
$EXTMAX
 10
89.05961409534513
 20
44.26426071081208
 30
0.0
  9
$LIMMIN
 10
-90.170066881
 20
-53.395745546
  9
$LIMMAX
 10
101.254578533
 20
31.411354393
  9
$ORTHOMODE
 70
     0
  9
$REGENMODE
 70
     1
  9
$FILLMODE
 70
     1
  9
$QTEXTMODE
 70
     0
  9
$MIRRTEXT
 70
     1
  9
$LTSCALE
 40
1.0
  9
$ATTMODE
 70
     1
  9
$TEXTSIZE
 40
0.2
  9
$TRACEWID
 40
0.05
  9
$TEXTSTYLE
  7
Standard
  9
$CLAYER
  8
4
  9
$CELTYPE
  6
ByLayer
  9
$CECOLOR
 62
   256
  9
$CELTSCALE
 40
1.0
  9
$DISPSILH
 70
     0
  9
$DIMSCALE
 40
1.0
  9
$DIMASZ
 40
0.18
  9
$DIMEXO
 40
0.0625
  9
$DIMDLI
 40
0.38
  9
$DIMRND
 40
0.0
  9
$DIMDLE
 40
0.0
  9
$DIMEXE
 40
0.18
  9
$DIMTP
 40
0.0
  9
$DIMTM
 40
0.0
  9
$DIMTXT
 40
0.18
  9
$DIMCEN
 40
0.09
  9
$DIMTSZ
 40
0.0
  9
$DIMTOL
 70
     0
  9
$DIMLIM
 70
     0
  9
$DIMTIH
 70
     1
  9
$DIMTOH
 70
     1
  9
$DIMSE1
 70
     0
  9
$DIMSE2
 70
     0
  9
$DIMTAD
 70
     0
  9
$DIMZIN
 70
     0
  9
$DIMBLK
  1

  9
$DIMASO
 70
     1
  9
$DIMSHO
 70
     1
  9
$DIMPOST
  1

  9
$DIMAPOST
  1

  9
$DIMALT
 70
     0
  9
$DIMALTD
 70
     2
  9
$DIMALTF
 40
25.4
  9
$DIMLFAC
 40
1.0
  9
$DIMTOFL
 70
     0
  9
$DIMTVP
 40
0.0
  9
$DIMTIX
 70
     0
  9
$DIMSOXD
 70
     0
  9
$DIMSAH
 70
     0
  9
$DIMBLK1
  1

  9
$DIMBLK2
  1

  9
$DIMSTYLE
  2
Standard
  9
$DIMCLRD
 70
     0
  9
$DIMCLRE
 70
     0
  9
$DIMCLRT
 70
     0
  9
$DIMTFAC
 40
1.0
  9
$DIMGAP
 40
0.09
  9
$DIMJUST
 70
     0
  9
$DIMSD1
 70
     0
  9
$DIMSD2
 70
     0
  9
$DIMTOLJ
 70
     1
  9
$DIMTZIN
 70
     0
  9
$DIMALTZ
 70
     0
  9
$DIMALTTZ
 70
     0
  9
$DIMUPT
 70
     0
  9
$DIMDEC
 70
     4
  9
$DIMTDEC
 70
     4
  9
$DIMALTU
 70
     2
  9
$DIMALTTD
 70
     2
  9
$DIMTXSTY
  7
Standard
  9
$DIMAUNIT
 70
     0
  9
$DIMADEC
 70
     0
  9
$DIMALTRND
 40
0.0
  9
$DIMAZIN
 70
     0
  9
$DIMDSEP
 70
    46
  9
$DIMATFIT
 70
     3
  9
$DIMFRAC
 70
     0
  9
$DIMLDRBLK
  1

  9
$DIMLUNIT
 70
     2
  9
$DIMLWD
 70
    -2
  9
$DIMLWE
 70
    -2
  9
$DIMTMOVE
 70
     2
  9
$LUNITS
 70
     2
  9
$LUPREC
 70
     4
  9
$SKETCHINC
 40
0.1
  9
$FILLETRAD
 40
0.5
  9
$AUNITS
 70
     2
  9
$AUPREC
 70
     0
  9
$MENU
  1
.
  9
$ELEVATION
 40
0.0
  9
$PELEVATION
 40
0.0
  9
$THICKNESS
 40
0.0
  9
$LIMCHECK
 70
     0
  9
$CHAMFERA
 40
0.5
  9
$CHAMFERB
 40
0.5
  9
$CHAMFERC
 40
1.0
  9
$CHAMFERD
 40
0.0
  9
$SKPOLY
 70
     0
  9
$TDCREATE
 40
2458327.549367002
  9
$TDUCREATE
 40
2458327.466033669
  9
$TDUPDATE
 40
2458589.612136493
  9
$TDUUPDATE
 40
2458589.52880316
  9
$TDINDWG
 40
0.0047383102
  9
$TDUSRTIMER
 40
0.0001235301
  9
$USRTIMER
 70
     1
  9
$ANGBASE
 50
0.0
  9
$ANGDIR
 70
     0
  9
$PDMODE
 70
     0
  9
$PDSIZE
 40
0.0
  9
$PLINEWID
 40
0.0
  9
$SPLFRAME
 70
     0
  9
$SPLINETYPE
 70
     6
  9
$SPLINESEGS
 70
     8
  9
$HANDSEED
  5
219
  9
$SURFTAB1
 70
     6
  9
$SURFTAB2
 70
     6
  9
$SURFTYPE
 70
     6
  9
$SURFU
 70
     6
  9
$SURFV
 70
     6
  9
$UCSBASE
  2

  9
$UCSNAME
  2

  9
$UCSORG
 10
0.0
 20
0.0
 30
0.0
  9
$UCSXDIR
 10
1.0
 20
0.0
 30
0.0
  9
$UCSYDIR
 10
0.0
 20
1.0
 30
0.0
  9
$UCSORTHOREF
  2

  9
$UCSORTHOVIEW
 70
     0
  9
$UCSORGTOP
 10
0.0
 20
0.0
 30
0.0
  9
$UCSORGBOTTOM
 10
0.0
 20
0.0
 30
0.0
  9
$UCSORGLEFT
 10
0.0
 20
0.0
 30
0.0
  9
$UCSORGRIGHT
 10
0.0
 20
0.0
 30
0.0
  9
$UCSORGFRONT
 10
0.0
 20
0.0
 30
0.0
  9
$UCSORGBACK
 10
0.0
 20
0.0
 30
0.0
  9
$PUCSBASE
  2

  9
$PUCSNAME
  2

  9
$PUCSORG
 10
0.0
 20
0.0
 30
0.0
  9
$PUCSXDIR
 10
1.0
 20
0.0
 30
0.0
  9
$PUCSYDIR
 10
0.0
 20
1.0
 30
0.0
  9
$PUCSORTHOREF
  2

  9
$PUCSORTHOVIEW
 70
     0
  9
$PUCSORGTOP
 10
0.0
 20
0.0
 30
0.0
  9
$PUCSORGBOTTOM
 10
0.0
 20
0.0
 30
0.0
  9
$PUCSORGLEFT
 10
0.0
 20
0.0
 30
0.0
  9
$PUCSORGRIGHT
 10
0.0
 20
0.0
 30
0.0
  9
$PUCSORGFRONT
 10
0.0
 20
0.0
 30
0.0
  9
$PUCSORGBACK
 10
0.0
 20
0.0
 30
0.0
  9
$USERI1
 70
     0
  9
$USERI2
 70
     0
  9
$USERI3
 70
     0
  9
$USERI4
 70
     0
  9
$USERI5
 70
     0
  9
$USERR1
 40
0.0
  9
$USERR2
 40
0.0
  9
$USERR3
 40
0.0
  9
$USERR4
 40
0.0
  9
$USERR5
 40
0.0
  9
$WORLDVIEW
 70
     1
  9
$SHADEDGE
 70
     3
  9
$SHADEDIF
 70
    70
  9
$TILEMODE
 70
     1
  9
$MAXACTVP
 70
    64
  9
$PINSBASE
 10
0.0
 20
0.0
 30
0.0
  9
$PLIMCHECK
 70
     0
  9
$PEXTMIN
 10
1.000000000000000E+20
 20
1.000000000000000E+20
 30
1.000000000000000E+20
  9
$PEXTMAX
 10
-1.000000000000000E+20
 20
-1.000000000000000E+20
 30
-1.000000000000000E+20
  9
$PLIMMIN
 10
0.0
 20
0.0
  9
$PLIMMAX
 10
0.0
 20
0.0
  9
$UNITMODE
 70
     0
  9
$VISRETAIN
 70
     1
  9
$PLINEGEN
 70
     0
  9
$PSLTSCALE
 70
     1
  9
$TREEDEPTH
 70
  3020
  9
$CMLSTYLE
  2
Standard
  9
$CMLJUST
 70
     0
  9
$CMLSCALE
 40
1.0
  9
$PROXYGRAPHICS
 70
     1
  9
$MEASUREMENT
 70
     0
  9
$CELWEIGHT
370
    -1
  9
$ENDCAPS
280
     0
  9
$JOINSTYLE
280
     0
  9
$LWDISPLAY
290
     0
  9
$INSUNITS
 70
     0
  9
$HYPERLINKBASE
  1

  9
$STYLESHEET
  1

  9
$XEDIT
290
     1
  9
$CEPSNTYPE
380
     0
  9
$PSTYLEMODE
290
     1
  9
$FINGERPRINTGUID
  2
{0C4835C8-8427-40BE-B5AF-5FAF532CF344}
  9
$VERSIONGUID
  2
{FAEB1C32-E019-11D5-929B-00C0DF256EC4}
  9
$EXTNAMES
290
     1
  9
$PSVPSCALE
 40
0.0
  9
$OLESTARTUP
290
     0
  0
ENDSEC
  0
SECTION
  2
CLASSES
  0
CLASS
  1
ACDBDICTIONARYWDFLT
  2
AcDbDictionaryWithDefault
  3
ObjectDBX Classes
 90
        0
280
     0
281
     0
  0
CLASS
  1
SCALE
  2
AcDbScale
  3
ObjectDBX Classes
 90
     1153
280
     0
281
     0
  0
CLASS
  1
VISUALSTYLE
  2
AcDbVisualStyle
  3
ObjectDBX Classes
 90
     4095
280
     0
281
     0
  0
CLASS
  1
MATERIAL
  2
AcDbMaterial
  3
ObjectDBX Classes
 90
     1153
280
     0
281
     0
  0
CLASS
  1
DICTIONARYVAR
  2
AcDbDictionaryVar
  3
ObjectDBX Classes
 90
        0
280
     0
281
     0
  0
CLASS
  1
ACDBPLACEHOLDER
  2
AcDbPlaceHolder
  3
ObjectDBX Classes
 90
        0
280
     0
281
     0
  0
CLASS
  1
LAYOUT
  2
AcDbLayout
  3
ObjectDBX Classes
 90
        0
280
     0
281
     0
  0
CLASS
  1
TABLESTYLE
  2
AcDbTableStyle
  3
ObjectDBX Classes
 90
     4095
280
     0
281
     0
  0
CLASS
  1
MLEADERSTYLE
  2
AcDbMLeaderStyle
  3
ACDB_MLEADERSTYLE_CLASS
 90
     4095
280
     0
281
     0
  0
CLASS
  1
SUN
  2
AcDbSun
  3
SCENEOE
 90
     1153
280
     0
281
     0
  0
CLASS
  1
CELLSTYLEMAP
  2
AcDbCellStyleMap
  3
ObjectDBX Classes
 90
     1152
280
     0
281
     0
  0
ENDSEC
  0
SECTION
  2
TABLES
  0
TABLE
  2
VPORT
  5
8
330
0
100
AcDbSymbolTable
 70
     1
  0
VPORT
  5
13B
330
8
100
AcDbSymbolTableRecord
100
AcDbViewportTableRecord
  2
*Active
 70
     0
 10
0.0
 20
0.0
 11
1.0
 21
1.0
 12
41.01953825214828
 22
-1.156182974918638
 13
0.0
 23
0.0
 14
0.5
 24
0.5
 15
0.5
 25
0.5
 16
0.0
 26
0.0
 36
1.0
 17
0.0
 27
0.0
 37
0.0
 40
138.6311784331965
 41
1.70021645021645
 42
50.0
 43
0.0
 44
0.0
 50
0.0
 51
0.0
 71
    16
 72
   100
 73
     1
 74
     3
 75
     0
 76
     0
 77
     0
 78
     0
281
     0
 65
     1
110
0.0
120
0.0
130
0.0
111
1.0
121
0.0
131
0.0
112
0.0
122
1.0
132
0.0
 79
     0
146
0.0
  0
ENDTAB
  0
TABLE
  2
LTYPE
  5
5
330
0
100
AcDbSymbolTable
 70
     8
  0
LTYPE
  5
14
330
5
100
AcDbSymbolTableRecord
100
AcDbLinetypeTableRecord
  2
ByBlock
 70
     0
  3

 72
    65
 73
     0
 40
0.0
  0
LTYPE
  5
15
330
5
100
AcDbSymbolTableRecord
100
AcDbLinetypeTableRecord
  2
ByLayer
 70
     0
  3

 72
    65
 73
     0
 40
0.0
  0
LTYPE
  5
16
330
5
100
AcDbSymbolTableRecord
100
AcDbLinetypeTableRecord
  2
Continuous
 70
     0
  3
Solid line
 72
    65
 73
     0
 40
0.0
  0
LTYPE
  5
20
330
5
100
AcDbSymbolTableRecord
100
AcDbLinetypeTableRecord
  2
PUNKT
 70
     0
  3
..............
 72
    65
 73
     2
 40
1.5
 49
0.7
 74
     0
 49
-0.8
 74
     0
  0
LTYPE
  5
21
330
5
100
AcDbSymbolTableRecord
100
AcDbLinetypeTableRecord
  2
GESTRICHELT
 70
     0
  3
-- -- -- -- --
 72
    65
 73
     7
 40
2.8
 49
0.9
 74
     0
 49
0.0
 74
     0
 49
0.9
 74
     0
 49
0.0
 74
     0
 49
0.2
 74
     0
 49
0.0
 74
     0
 49
-0.8
 74
     0
  0
LTYPE
  5
22
330
5
100
AcDbSymbolTableRecord
100
AcDbLinetypeTableRecord
  2
STRICHPUNKT
 70
     0
  3
--.--.--.--.--
 72
    65
 73
     4
 40
8.8
 49
5.5
 74
     0
 49
-1.3
 74
     0
 49
0.7
 74
     0
 49
-1.3
 74
     0
  0
LTYPE
  5
25
330
5
100
AcDbSymbolTableRecord
100
AcDbLinetypeTableRecord
  2
PHANTOM
 70
     0
  3
--..--..--..--
 72
    65
 73
     6
 40
14.2
 49
7.0
 74
     0
 49
-1.8
 74
     0
 49
0.9
 74
     0
 49
-1.8
 74
     0
 49
0.9
 74
     0
 49
-1.8
 74
     0
  0
LTYPE
  5
1B3
330
5
100
AcDbSymbolTableRecord
100
AcDbLinetypeTableRecord
  2
DASH
 70
     0
  3
DASH _ _ _ _ _
 72
    65
 73
     2
 40
0.75
 49
0.4
 74
     0
 49
-0.35
 74
     0
  0
LTYPE
  5
1B4
330
5
100
AcDbSymbolTableRecord
100
AcDbLinetypeTableRecord
  2
LONGDASH_DASH
 70
     0
  3
LONGDASH_DASH __ . __ . __
 72
    65
 73
     4
 40
0.85
 49
0.4
 74
     0
 49
-0.2
 74
     0
 49
0.05
 74
     0
 49
-0.2
 74
     0
  0
LTYPE
  5
1B5
330
5
100
AcDbSymbolTableRecord
100
AcDbLinetypeTableRecord
  2
LONGDASH_DASH_DASH
 70
     0
  3
LONGDASH_DASH_DASH __ . . __ . . __
 72
    65
 73
     6
 40
1.1
 49
0.4
 74
     0
 49
-0.2
 74
     0
 49
0.05
 74
     0
 49
-0.2
 74
     0
 49
0.05
 74
     0
 49
-0.2
 74
     0
  0
ENDTAB
  0
TABLE
  2
LAYER
  5
2
102
{ACAD_XDICTIONARY
360
1D2
102
}
330
0
100
AcDbSymbolTable
 70
    15
  0
LAYER
  5
17D
330
2
100
AcDbSymbolTableRecord
100
AcDbLayerTableRecord
  2
200
 70
     0
 62
     2
  6
Continuous
370
    50
390
F
  0
LAYER
  5
1B6
330
2
100
AcDbSymbolTableRecord
100
AcDbLayerTableRecord
  2
0
 70
     0
 62
     1
  6
Continuous
370
    -3
390
F
  0
LAYER
  5
1B7
330
2
100
AcDbSymbolTableRecord
100
AcDbLayerTableRecord
  2
1
 70
     0
 62
     4
  6
Continuous
370
    50
390
F
  0
LAYER
  5
1B8
330
2
100
AcDbSymbolTableRecord
100
AcDbLayerTableRecord
  2
2
 70
     0
 62
     7
  6
Continuous
370
    25
390
F
  0
LAYER
  5
1B9
330
2
100
AcDbSymbolTableRecord
100
AcDbLayerTableRecord
  2
3
 70
     0
 62
     1
  6
DASH
370
    35
390
F
  0
LAYER
  5
1BA
330
2
100
AcDbSymbolTableRecord
100
AcDbLayerTableRecord
  2
4
 70
     0
 62
     2
  6
LONGDASH_DASH
370
    25
390
F
  0
LAYER
  5
1BB
330
2
100
AcDbSymbolTableRecord
100
AcDbLayerTableRecord
  2
6
 70
     0
 62
     5
  6
Continuous
370
    -3
390
F
  0
LAYER
  5
1BC
330
2
100
AcDbSymbolTableRecord
100
AcDbLayerTableRecord
  2
CUT
 70
     0
 62
     1
  6
Continuous
370
    25
390
F
  0
LAYER
  5
1BD
330
2
100
AcDbSymbolTableRecord
100
AcDbLayerTableRecord
  2
NOCUT
 70
     0
 62
     7
  6
Continuous
370
    25
390
F
  0
LAYER
  5
1BE
330
2
100
AcDbSymbolTableRecord
100
AcDbLayerTableRecord
  2
SK1
 70
     0
 62
     4
  6
Continuous
370
    50
390
F
  0
LAYER
  5
1BF
330
2
100
AcDbSymbolTableRecord
100
AcDbLayerTableRecord
  2
SK2
 70
     0
 62
     7
  6
Continuous
370
    25
390
F
  0
LAYER
  5
1C0
330
2
100
AcDbSymbolTableRecord
100
AcDbLayerTableRecord
  2
SK3
 70
     0
 62
     1
  6
DASH
370
    35
390
F
  0
LAYER
  5
1C1
330
2
100
AcDbSymbolTableRecord
100
AcDbLayerTableRecord
  2
SK4
 70
     0
 62
     2
  6
LONGDASH_DASH
370
    25
390
F
  0
LAYER
  5
1C2
330
2
100
AcDbSymbolTableRecord
100
AcDbLayerTableRecord
  2
SK6
 70
     0
 62
     5
  6
Continuous
370
    -3
390
F
  0
LAYER
  5
1C3
330
2
100
AcDbSymbolTableRecord
100
AcDbLayerTableRecord
  2
INFTOTAL
 70
     0
 62
     9
  6
Continuous
370
    18
390
F
  0
ENDTAB
  0
TABLE
  2
STYLE
  5
3
330
0
100
AcDbSymbolTable
 70
     2
  0
STYLE
  5
11
330
3
100
AcDbSymbolTableRecord
100
AcDbTextStyleTableRecord
  2
Standard
 70
     0
 40
0.0
 41
1.0
 50
0.0
 71
     0
 42
0.2
  3
txt
  4

  0
STYLE
  5
17C
330
3
100
AcDbSymbolTableRecord
100
AcDbTextStyleTableRecord
  2
BMG_Text
 70
     0
 40
3.5
 41
1.0
 50
0.0
 71
     0
 42
0.2
  3
monos.ttf
  4

1001
ACAD
1000
Monospac821 BT
1071
       49
  0
ENDTAB
  0
TABLE
  2
VIEW
  5
6
330
0
100
AcDbSymbolTable
 70
     0
  0
ENDTAB
  0
TABLE
  2
UCS
  5
7
330
0
100
AcDbSymbolTable
 70
     0
  0
ENDTAB
  0
TABLE
  2
APPID
  5
9
330
0
100
AcDbSymbolTable
 70
     1
  0
APPID
  5
12
330
9
100
AcDbSymbolTableRecord
100
AcDbRegAppTableRecord
  2
ACAD
 70
     0
  0
ENDTAB
  0
TABLE
  2
DIMSTYLE
  5
A
330
0
100
AcDbSymbolTable
 70
     1
100
AcDbDimStyleTable
  0
DIMSTYLE
105
28
330
A
100
AcDbSymbolTableRecord
100
AcDbDimStyleTableRecord
  2
Standard
 70
     0
178
     0
340
11
  0
ENDTAB
  0
TABLE
  2
BLOCK_RECORD
  5
1
330
0
100
AcDbSymbolTable
 70
     0
  0
BLOCK_RECORD
  5
1D
330
1
100
AcDbSymbolTableRecord
100
AcDbBlockTableRecord
  2
*Model_Space
340
1E
  0
BLOCK_RECORD
  5
1B
330
1
100
AcDbSymbolTableRecord
100
AcDbBlockTableRecord
  2
*Paper_Space
340
1C
  0
ENDTAB
  0
ENDSEC
  0
SECTION
  2
BLOCKS
  0
BLOCK
  5
165
330
1D
100
AcDbEntity
  8
0
100
AcDbBlockBegin
  2
*Model_Space
 70
     0
 10
0.0
 20
0.0
 30
0.0
  3
*Model_Space
  1

  0
ENDBLK
  5
166
330
1D
100
AcDbEntity
  8
0
100
AcDbBlockEnd
  0
BLOCK
  5
163
330
1B
100
AcDbEntity
 67
     1
  8
0
100
AcDbBlockBegin
  2
*Paper_Space
 70
     0
 10
0.0
 20
0.0
 30
0.0
  3
*Paper_Space
  1

  0
ENDBLK
  5
164
330
1B
100
AcDbEntity
 67
     1
  8
0
100
AcDbBlockEnd
  0
ENDSEC
  0
SECTION
  2
ENTITIES
  0
LINE
  5
29
330
1D
100
AcDbEntity
  8
3
  6
DASH
370
    35
100
AcDbLine
 10
28.5
 20
-11.00275
 30
0.0
 11
28.071750438
 21
-11.25
 31
0.0
  0
LINE
  5
2A
330
1D
100
AcDbEntity
  8
3
  6
DASH
370
    35
100
AcDbLine
 10
28.071750438
 20
-11.25
 30
0.0
 11
24.0
 21
-11.25
 31
0.0
  0
LINE
  5
2B
330
1D
100
AcDbEntity
  8
3
  6
DASH
370
    35
100
AcDbLine
 10
24.0
 20
-11.25
 30
0.0
 11
18.948185145
 21
-2.5
 31
0.0
  0
LINE
  5
2C
330
1D
100
AcDbEntity
  8
3
  6
DASH
370
    35
100
AcDbLine
 10
18.948185145
 20
-2.5
 30
0.0
 11
8.0
 21
-2.5
 31
0.0
  0
LINE
  5
2D
330
1D
100
AcDbEntity
  8
3
  6
DASH
370
    35
100
AcDbLine
 10
8.0
 20
-10.5
 30
0.0
 11
0.0
 21
-10.5
 31
0.0
  0
ARC
  5
2E
330
1D
100
AcDbEntity
  8
SK3
  6
DASH
370
    35
100
AcDbCircle
 10
-4.175823272
 20
-7.75
 30
0.0
 40
5.0
100
AcDbArc
 50
270.0
 51
326.632987031
  0
LINE
  5
2F
330
1D
100
AcDbEntity
  8
SK3
  6
DASH
370
    35
100
AcDbLine
 10
-4.175823272
 20
-12.75
 30
0.0
 11
-10.455074895
 21
-12.75
 31
0.0
  0
ARC
  5
30
330
1D
100
AcDbEntity
  8
SK3
  6
DASH
370
    35
100
AcDbCircle
 10
-10.455074895
 20
-12.35
 30
0.0
 40
0.4
100
AcDbArc
 50
210.5
 51
270.0
  0
LINE
  5
31
330
1D
100
AcDbEntity
  8
SK3
  6
DASH
370
    35
100
AcDbLine
 10
-10.799726559
 20
-12.553015345
 30
0.0
 11
-12.009045016
 21
-10.5
 31
0.0
  0
LINE
  5
32
330
1D
100
AcDbEntity
  8
SK3
  6
DASH
370
    35
100
AcDbLine
 10
-12.009045016
 20
-10.5
 30
0.0
 11
-19.1
 21
-10.5
 31
0.0
  0
LINE
  5
33
330
1D
100
AcDbEntity
  8
SK3
  6
DASH
370
    35
100
AcDbLine
 10
-19.1
 20
-10.5
 30
0.0
 11
-19.9
 21
-10.961880215
 31
0.0
  0
ARC
  5
34
330
1D
100
AcDbEntity
  8
SK1
100
AcDbCircle
 10
-0.897394905
 20
-15.83329895
 30
0.0
 40
1.0
100
AcDbArc
 50
26.182275787
 51
90.0
  0
LINE
  5
35
330
1D
100
AcDbEntity
  8
SK1
100
AcDbLine
 10
-0.897394905
 20
-14.83329895
 30
0.0
 11
-1.332729705
 21
-14.83329895
 31
0.0
  0
ARC
  5
36
330
1D
100
AcDbEntity
  8
SK1
100
AcDbCircle
 10
-1.332729705
 20
-15.83329895
 30
0.0
 40
1.0
100
AcDbArc
 50
90.0
 51
105.0
  0
LINE
  5
37
330
1D
100
AcDbEntity
  8
SK1
100
AcDbLine
 10
-1.59154875
 20
-14.867373124
 30
0.0
 11
-2.397394905
 21
-15.08329895
 31
0.0
  0
LINE
  5
38
330
1D
100
AcDbEntity
  8
SK1
100
AcDbLine
 10
-2.397394905
 20
-15.08329895
 30
0.0
 11
-19.140033989
 21
-14.244404613
 31
0.0
  0
ARC
  5
39
330
1D
100
AcDbEntity
  8
SK1
100
AcDbCircle
 10
-19.1
 20
-13.445406941
 30
0.0
 40
0.8
100
AcDbArc
 50
180.0
 51
267.131578711
  0
LINE
  5
3A
330
1D
100
AcDbEntity
  8
SK1
100
AcDbLine
 10
-19.9
 20
-13.445406941
 30
0.0
 11
-19.9
 21
10.961880215
 31
0.0
  0
ARC
  5
3B
330
1D
100
AcDbEntity
  8
1
  6
Continuous
370
    50
100
AcDbCircle
 10
21.0
 20
-18.0
 30
0.0
 40
1.0
100
AcDbArc
 50
90.0
 51
180.0
  0
LINE
  5
3C
330
1D
100
AcDbEntity
  8
1
  6
Continuous
370
    50
100
AcDbLine
 10
21.0
 20
-17.0
 30
0.0
 11
34.0
 21
-17.0
 31
0.0
  0
ARC
  5
3D
330
1D
100
AcDbEntity
  8
1
  6
Continuous
370
    50
100
AcDbCircle
 10
34.0
 20
-18.0
 30
0.0
 40
1.0
100
AcDbArc
 50
0.0
 51
90.0
  0
ARC
  5
3E
330
1D
100
AcDbEntity
  8
1
  6
Continuous
370
    50
100
AcDbCircle
 10
15.749983977
 20
-18.15
 30
0.0
 40
0.75
100
AcDbArc
 50
90.0
 51
179.999974767
  0
LINE
  5
3F
330
1D
100
AcDbEntity
  8
1
  6
Continuous
370
    50
100
AcDbLine
 10
15.749983977
 20
-17.4
 30
0.0
 11
16.250016023
 21
-17.4
 31
0.0
  0
ARC
  5
40
330
1D
100
AcDbEntity
  8
1
  6
Continuous
370
    50
100
AcDbCircle
 10
16.250016023
 20
-18.15
 30
0.0
 40
0.75
100
AcDbArc
 50
355.89107879
 51
90.0
  0
LINE
  5
41
330
1D
100
AcDbEntity
  8
1
  6
Continuous
370
    50
100
AcDbLine
 10
50.0
 20
11.25
 30
0.0
 11
50.0
 21
-18.75
 31
0.0
  0
LINE
  5
42
330
1D
100
AcDbEntity
  8
1
  6
Continuous
370
    50
100
AcDbLine
 10
50.0
 20
-18.75
 30
0.0
 11
49.25
 21
-19.5
 31
0.0
  0
LINE
  5
43
330
1D
100
AcDbEntity
  8
1
  6
Continuous
370
    50
100
AcDbLine
 10
49.25
 20
-19.5
 30
0.0
 11
35.0
 21
-19.5
 31
0.0
  0
LINE
  5
44
330
1D
100
AcDbEntity
  8
1
  6
Continuous
370
    50
100
AcDbLine
 10
14.999983952
 20
-18.207078603
 30
0.0
 11
13.979274058
 21
-19.975
 31
0.0
  0
LINE
  5
45
330
1D
100
AcDbEntity
  8
1
  6
Continuous
370
    50
100
AcDbLine
 10
13.979274058
 20
-19.975
 30
0.0
 11
13.979274058
 21
11.999992356
 31
0.0
  0
LINE
  5
46
330
1D
100
AcDbEntity
  8
1
  6
Continuous
370
    50
100
AcDbLine
 10
13.979274058
 20
14.931884766
 30
0.0
 11
13.979274058
 21
19.975
 31
0.0
  0
LINE
  5
47
330
1D
100
AcDbEntity
  8
1
  6
Continuous
370
    50
100
AcDbLine
 10
16.99999999
 20
-18.20705079
 30
0.0
 11
18.020725942
 21
-19.975
 31
0.0
  0
LINE
  5
48
330
1D
100
AcDbEntity
  8
1
  6
Continuous
370
    50
100
AcDbLine
 10
18.020725942
 20
-19.975
 30
0.0
 11
18.020725942
 21
12.0
 31
0.0
  0
LINE
  5
49
330
1D
100
AcDbEntity
  8
1
  6
Continuous
370
    50
100
AcDbLine
 10
18.020725942
 20
14.931884766
 30
0.0
 11
18.020725942
 21
19.975
 31
0.0
  0
LINE
  5
4A
330
1D
100
AcDbEntity
  8
1
  6
Continuous
370
    50
100
AcDbLine
 10
13.979274058
 20
-19.975
 30
0.0
 11
0.0
 21
-19.975
 31
0.0
  0
LINE
  5
4B
330
1D
100
AcDbEntity
  8
1
  6
Continuous
370
    50
100
AcDbLine
 10
0.0
 20
-19.975
 30
0.0
 11
0.0
 21
19.975
 31
0.0
  0
LINE
  5
4C
330
1D
100
AcDbEntity
  8
1
  6
Continuous
370
    50
100
AcDbLine
 10
20.0
 20
19.975
 30
0.0
 11
20.0
 21
-19.975
 31
0.0
  0
LINE
  5
4D
330
1D
100
AcDbEntity
  8
1
  6
Continuous
370
    50
100
AcDbLine
 10
20.0
 20
-19.975
 30
0.0
 11
18.020725942
 21
-19.975
 31
0.0
  0
LINE
  5
4E
330
1D
100
AcDbEntity
  8
SK3
  6
DASH
370
    35
100
AcDbLine
 10
-12.009045016
 20
-10.5
 30
0.0
 11
-12.009045016
 21
10.5
 31
0.0
  0
LINE
  5
4F
330
1D
100
AcDbEntity
  8
1
  6
Continuous
370
    50
100
AcDbLine
 10
15.985778809
 20
17.399993896
 30
0.0
 11
16.014190674
 21
17.400009334
 31
0.0
  0
LINE
  5
50
330
1D
100
AcDbEntity
  8
SK4
  6
LONGDASH_DASH
370
    25
100
AcDbLine
 10
-23.380894541
 20
0.0
 30
0.0
 11
53.237364282
 21
0.0
 31
0.0
  0
LINE
  5
51
330
1D
100
AcDbEntity
  8
1
  6
Continuous
370
    50
100
AcDbLine
 10
16.99999999
 20
18.20705079
 30
0.0
 11
16.999985551
 21
-18.207025782
 31
0.0
  0
LINE
  5
52
330
1D
100
AcDbEntity
  8
1
  6
Continuous
370
    50
100
AcDbLine
 10
14.999983952
 20
18.207078603
 30
0.0
 11
14.999999989
 21
-18.207050827
 31
0.0
  0
LINE
  5
53
330
1D
100
AcDbEntity
  8
3
  6
DASH
370
    35
100
AcDbLine
 10
24.0
 20
-11.25
 30
0.0
 11
24.0
 21
11.25
 31
0.0
  0
LINE
  5
54
330
1D
100
AcDbEntity
  8
3
  6
DASH
370
    35
100
AcDbLine
 10
28.5
 20
-11.00275
 30
0.0
 11
28.5
 21
11.00275
 31
0.0
  0
LINE
  5
55
330
1D
100
AcDbEntity
  8
SK3
  6
DASH
370
    35
100
AcDbLine
 10
-19.1
 20
-10.5
 30
0.0
 11
-19.1
 21
10.5
 31
0.0
  0
LINE
  5
56
330
1D
100
AcDbEntity
  8
3
  6
DASH
370
    35
100
AcDbLine
 10
18.948185145
 20
2.5
 30
0.0
 11
18.948185145
 21
-2.5
 31
0.0
  0
LINE
  5
57
330
1D
100
AcDbEntity
  8
SK4
  6
LONGDASH_DASH
370
    25
100
AcDbLine
 10
39.949996948
 20
4.523332362
 30
0.0
 11
39.949996948
 21
-4.832098711
 31
0.0
  0
LINE
  5
58
330
1D
100
AcDbEntity
  8
SK1
100
AcDbLine
 10
-2.397394905
 20
-15.08329895
 30
0.0
 11
-2.397394905
 21
15.08329895
 31
0.0
  0
LINE
  5
59
330
1D
100
AcDbEntity
  8
2
  6
Continuous
370
    25
100
AcDbLine
 10
0.0
 20
27.579912281
 30
0.0
 11
0.0
 21
19.975
 31
0.0
  0
LINE
  5
5A
330
1D
100
AcDbEntity
  8
2
  6
Continuous
370
    25
100
AcDbLine
 10
0.0
 20
25.579912281
 30
0.0
 11
3.500000001
 21
26.029912274
 31
0.0
  0
LINE
  5
5B
330
1D
100
AcDbEntity
  8
2
  6
Continuous
370
    25
100
AcDbLine
 10
3.500000001
 20
26.029912274
 30
0.0
 11
3.499999999
 21
25.129912274
 31
0.0
  0
LINE
  5
5C
330
1D
100
AcDbEntity
  8
2
  6
Continuous
370
    25
100
AcDbLine
 10
3.499999999
 20
25.129912274
 30
0.0
 11
0.0
 21
25.579912281
 31
0.0
  0
LINE
  5
5D
330
1D
100
AcDbEntity
  8
2
  6
Continuous
370
    25
100
AcDbLine
 10
3.4
 20
25.579912275
 30
0.0
 11
0.1
 21
25.579912281
 31
0.0
  0
LINE
  5
5E
330
1D
100
AcDbEntity
  8
2
  6
Continuous
370
    25
100
AcDbLine
 10
3.4
 20
25.379912275
 30
0.0
 11
1.655555555
 21
25.379912278
 31
0.0
  0
LINE
  5
5F
330
1D
100
AcDbEntity
  8
2
  6
Continuous
370
    25
100
AcDbLine
 10
3.4
 20
25.779912275
 30
0.0
 11
1.655555556
 21
25.779912278
 31
0.0
  0
LINE
  5
60
330
1D
100
AcDbEntity
  8
2
  6
Continuous
370
    25
100
AcDbLine
 10
3.399999999
 20
25.179912275
 30
0.0
 11
3.21111111
 21
25.179912275
 31
0.0
  0
LINE
  5
61
330
1D
100
AcDbEntity
  8
2
  6
Continuous
370
    25
100
AcDbLine
 10
3.400000001
 20
25.979912275
 30
0.0
 11
3.211111112
 21
25.979912275
 31
0.0
  0
LINE
  5
62
330
1D
100
AcDbEntity
  8
2
  6
Continuous
370
    25
100
AcDbLine
 10
50.0
 20
27.579912186
 30
0.0
 11
50.0
 21
18.75
 31
0.0
  0
LINE
  5
63
330
1D
100
AcDbEntity
  8
2
  6
Continuous
370
    25
100
AcDbLine
 10
50.0
 20
25.579912186
 30
0.0
 11
46.499999999
 21
25.129912192
 31
0.0
  0
LINE
  5
64
330
1D
100
AcDbEntity
  8
2
  6
Continuous
370
    25
100
AcDbLine
 10
46.499999999
 20
25.129912192
 30
0.0
 11
46.500000001
 21
26.029912192
 31
0.0
  0
LINE
  5
65
330
1D
100
AcDbEntity
  8
2
  6
Continuous
370
    25
100
AcDbLine
 10
46.500000001
 20
26.029912192
 30
0.0
 11
50.0
 21
25.579912186
 31
0.0
  0
LINE
  5
66
330
1D
100
AcDbEntity
  8
2
  6
Continuous
370
    25
100
AcDbLine
 10
46.6
 20
25.579912192
 30
0.0
 11
49.9
 21
25.579912186
 31
0.0
  0
LINE
  5
67
330
1D
100
AcDbEntity
  8
2
  6
Continuous
370
    25
100
AcDbLine
 10
46.6
 20
25.779912192
 30
0.0
 11
48.344444445
 21
25.779912189
 31
0.0
  0
LINE
  5
68
330
1D
100
AcDbEntity
  8
2
  6
Continuous
370
    25
100
AcDbLine
 10
46.6
 20
25.379912192
 30
0.0
 11
48.344444444
 21
25.379912189
 31
0.0
  0
LINE
  5
69
330
1D
100
AcDbEntity
  8
2
  6
Continuous
370
    25
100
AcDbLine
 10
46.600000001
 20
25.979912192
 30
0.0
 11
46.78888889
 21
25.979912192
 31
0.0
  0
LINE
  5
6A
330
1D
100
AcDbEntity
  8
2
  6
Continuous
370
    25
100
AcDbLine
 10
46.599999999
 20
25.179912192
 30
0.0
 11
46.788888888
 21
25.179912192
 31
0.0
  0
LINE
  5
6B
330
1D
100
AcDbEntity
  8
2
  6
Continuous
370
    25
100
AcDbLine
 10
3.5
 20
25.579912274
 30
0.0
 11
46.5
 21
25.579912192
 31
0.0
  0
TEXT
  5
6C
330
1D
100
AcDbEntity
  8
2
  6
Continuous
370
    25
100
AcDbText
 10
23.444686944
 20
27.079912236
 30
0.0
 40
3.5
  1
50
 50
359.999999891
  7
BMG_Text
100
AcDbText
  0
LINE
  5
6D
330
1D
100
AcDbEntity
  8
3
  6
DASH
370
    35
100
AcDbLine
 10
18.948185145
 20
2.5
 30
0.0
 11
8.0
 21
2.5
 31
0.0
  0
LINE
  5
6E
330
1D
100
AcDbEntity
  8
3
  6
DASH
370
    35
100
AcDbLine
 10
8.0
 20
-10.5
 30
0.0
 11
8.0
 21
10.5
 31
0.0
  0
LINE
  5
6F
330
1D
100
AcDbEntity
  8
3
  6
DASH
370
    35
100
AcDbLine
 10
8.0
 20
10.5
 30
0.0
 11
0.0
 21
10.5
 31
0.0
  0
ARC
  5
70
330
1D
100
AcDbEntity
  8
SK3
  6
DASH
370
    35
100
AcDbCircle
 10
-4.175823272
 20
7.75
 30
0.0
 40
5.0
100
AcDbArc
 50
33.367012969
 51
90.0
  0
LINE
  5
71
330
1D
100
AcDbEntity
  8
SK3
  6
DASH
370
    35
100
AcDbLine
 10
-4.175823272
 20
12.75
 30
0.0
 11
-10.455074895
 21
12.75
 31
0.0
  0
ARC
  5
72
330
1D
100
AcDbEntity
  8
SK3
  6
DASH
370
    35
100
AcDbCircle
 10
-10.455074895
 20
12.35
 30
0.0
 40
0.4
100
AcDbArc
 50
90.0
 51
149.5
  0
LINE
  5
73
330
1D
100
AcDbEntity
  8
SK3
  6
DASH
370
    35
100
AcDbLine
 10
-10.799726559
 20
12.553015345
 30
0.0
 11
-12.009045016
 21
10.5
 31
0.0
  0
LINE
  5
74
330
1D
100
AcDbEntity
  8
SK3
  6
DASH
370
    35
100
AcDbLine
 10
-12.009045016
 20
10.5
 30
0.0
 11
-19.1
 21
10.5
 31
0.0
  0
LINE
  5
75
330
1D
100
AcDbEntity
  8
SK3
  6
DASH
370
    35
100
AcDbLine
 10
-19.1
 20
10.5
 30
0.0
 11
-19.9
 21
10.961880215
 31
0.0
  0
LINE
  5
76
330
1D
100
AcDbEntity
  8
SK1
100
AcDbLine
 10
-19.9
 20
10.961880215
 30
0.0
 11
-19.9
 21
13.445406941
 31
0.0
  0
ARC
  5
77
330
1D
100
AcDbEntity
  8
SK1
100
AcDbCircle
 10
-19.1
 20
13.445406941
 30
0.0
 40
0.8
100
AcDbArc
 50
92.86842128899998
 51
180.0
  0
LINE
  5
78
330
1D
100
AcDbEntity
  8
SK1
100
AcDbLine
 10
-19.140033989
 20
14.244404613
 30
0.0
 11
-2.397394905
 21
15.08329895
 31
0.0
  0
LINE
  5
79
330
1D
100
AcDbEntity
  8
SK1
100
AcDbLine
 10
-2.397394905
 20
15.08329895
 30
0.0
 11
-1.59154875
 21
14.867373124
 31
0.0
  0
ARC
  5
7A
330
1D
100
AcDbEntity
  8
SK1
100
AcDbCircle
 10
-1.332729705
 20
15.83329895
 30
0.0
 40
1.0
100
AcDbArc
 50
255.0
 51
270.0
  0
LINE
  5
7B
330
1D
100
AcDbEntity
  8
SK1
100
AcDbLine
 10
-1.332729705
 20
14.83329895
 30
0.0
 11
-0.897394905
 21
14.83329895
 31
0.0
  0
ARC
  5
7C
330
1D
100
AcDbEntity
  8
SK1
100
AcDbCircle
 10
-0.897394905
 20
15.83329895
 30
0.0
 40
1.0
100
AcDbArc
 50
270.0
 51
333.817724213
  0
LINE
  5
7D
330
1D
100
AcDbEntity
  8
1
  6
Continuous
370
    50
100
AcDbLine
 10
0.0
 20
19.975
 30
0.0
 11
13.979274058
 21
19.975
 31
0.0
  0
LINE
  5
7E
330
1D
100
AcDbEntity
  8
1
  6
Continuous
370
    50
100
AcDbLine
 10
13.979274058
 20
19.975
 30
0.0
 11
15.0
 21
18.207050808
 31
0.0
  0
LINE
  5
7F
330
1D
100
AcDbEntity
  8
1
  6
Continuous
370
    50
100
AcDbLine
 10
15.0
 20
18.207050808
 30
0.0
 11
15.0
 21
18.15
 31
0.0
  0
ARC
  5
80
330
1D
100
AcDbEntity
  8
1
  6
Continuous
370
    50
100
AcDbCircle
 10
15.75
 20
18.15
 30
0.0
 40
0.75
100
AcDbArc
 50
180.0
 51
270.0
  0
LINE
  5
81
330
1D
100
AcDbEntity
  8
1
  6
Continuous
370
    50
100
AcDbLine
 10
15.75
 20
17.4
 30
0.0
 11
16.25
 21
17.4
 31
0.0
  0
ARC
  5
82
330
1D
100
AcDbEntity
  8
1
  6
Continuous
370
    50
100
AcDbCircle
 10
16.25
 20
18.15
 30
0.0
 40
0.75
100
AcDbArc
 50
270.0
 51
0.0
  0
LINE
  5
83
330
1D
100
AcDbEntity
  8
1
  6
Continuous
370
    50
100
AcDbLine
 10
17.0
 20
18.15
 30
0.0
 11
17.0
 21
18.207050808
 31
0.0
  0
LINE
  5
84
330
1D
100
AcDbEntity
  8
1
  6
Continuous
370
    50
100
AcDbLine
 10
17.0
 20
18.207050808
 30
0.0
 11
18.020725942
 21
19.975
 31
0.0
  0
LINE
  5
85
330
1D
100
AcDbEntity
  8
1
  6
Continuous
370
    50
100
AcDbLine
 10
18.020725942
 20
19.975
 30
0.0
 11
20.0
 21
19.975
 31
0.0
  0
ARC
  5
86
330
1D
100
AcDbEntity
  8
1
  6
Continuous
370
    50
100
AcDbCircle
 10
21.0
 20
18.0
 30
0.0
 40
1.0
100
AcDbArc
 50
180.0
 51
270.0
  0
LINE
  5
87
330
1D
100
AcDbEntity
  8
1
  6
Continuous
370
    50
100
AcDbLine
 10
21.0
 20
17.0
 30
0.0
 11
34.0
 21
17.0
 31
0.0
  0
ARC
  5
88
330
1D
100
AcDbEntity
  8
1
  6
Continuous
370
    50
100
AcDbCircle
 10
34.0
 20
18.0
 30
0.0
 40
1.0
100
AcDbArc
 50
270.0
 51
0.0
  0
LINE
  5
89
330
1D
100
AcDbEntity
  8
1
  6
Continuous
370
    50
100
AcDbLine
 10
34.999947683
 20
19.5
 30
0.0
 11
49.25
 21
19.5
 31
0.0
  0
LINE
  5
8A
330
1D
100
AcDbEntity
  8
1
  6
Continuous
370
    50
100
AcDbLine
 10
49.25
 20
19.5
 30
0.0
 11
50.0
 21
18.75
 31
0.0
  0
LINE
  5
8B
330
1D
100
AcDbEntity
  8
1
  6
Continuous
370
    50
100
AcDbLine
 10
50.0
 20
18.75
 30
0.0
 11
50.0
 21
11.25
 31
0.0
  0
LINE
  5
8C
330
1D
100
AcDbEntity
  8
3
  6
DASH
370
    35
100
AcDbLine
 10
50.0
 20
11.00275
 30
0.0
 11
28.5
 21
11.00275
 31
0.0
  0
LINE
  5
8D
330
1D
100
AcDbEntity
  8
3
  6
DASH
370
    35
100
AcDbLine
 10
28.5
 20
11.00275
 30
0.0
 11
28.071750438
 21
11.25
 31
0.0
  0
LINE
  5
8E
330
1D
100
AcDbEntity
  8
3
  6
DASH
370
    35
100
AcDbLine
 10
28.071750438
 20
11.25
 30
0.0
 11
24.0
 21
11.25
 31
0.0
  0
LINE
  5
8F
330
1D
100
AcDbEntity
  8
3
  6
DASH
370
    35
100
AcDbLine
 10
24.0
 20
11.25
 30
0.0
 11
18.948185145
 21
2.5
 31
0.0
  0
LINE
  5
90
330
1D
100
AcDbEntity
  8
1
  6
Continuous
370
    50
100
AcDbLine
 10
35.0
 20
-19.5
 30
0.0
 11
35.0
 21
19.5
 31
0.0
  0
ARC
  5
91
330
1D
100
AcDbEntity
  8
1
  6
Continuous
370
    50
100
AcDbCircle
 10
34.0
 20
-18.0
 30
0.0
 40
1.0
100
AcDbArc
 50
0.0
 51
90.0
  0
LINE
  5
92
330
1D
100
AcDbEntity
  8
1
  6
Continuous
370
    50
100
AcDbLine
 10
34.0
 20
-17.0
 30
0.0
 11
31.08901884
 21
-17.0
 31
0.0
  0
LINE
  5
93
330
1D
100
AcDbEntity
  8
3
  6
DASH
370
    35
100
AcDbLine
 10
28.5
 20
-11.00275
 30
0.0
 11
50.0
 21
-11.00275
 31
0.0
  0
LINE
  5
94
330
1D
100
AcDbEntity
  8
1
  6
Continuous
370
    50
100
AcDbLine
 10
35.849990845
 20
-19.5
 30
0.0
 11
35.0
 21
-19.5
 31
0.0
  0
LINE
  5
95
330
1D
100
AcDbEntity
  8
1
  6
Continuous
370
    50
100
AcDbLine
 10
44.050003052
 20
-19.5
 30
0.0
 11
49.25
 21
-19.5
 31
0.0
  0
LINE
  5
96
330
1D
100
AcDbEntity
  8
1
  6
Continuous
370
    50
100
AcDbLine
 10
49.25
 20
-19.5
 30
0.0
 11
50.0
 21
-18.75
 31
0.0
  0
LINE
  5
97
330
1D
100
AcDbEntity
  8
1
  6
Continuous
370
    50
100
AcDbLine
 10
50.0
 20
-18.75
 30
0.0
 11
50.0
 21
-11.25
 31
0.0
  0
LINE
  5
98
330
1D
100
AcDbEntity
  8
1
  6
Continuous
370
    50
100
AcDbLine
 10
49.25
 20
19.5
 30
0.0
 11
49.25
 21
-19.5
 31
0.0
  0
CIRCLE
  5
99
330
1D
100
AcDbEntity
  8
1
  6
Continuous
370
    50
100
AcDbCircle
 10
39.949996948
 20
0.0
 30
0.0
 40
4.0
  0
LINE
  5
9A
330
1D
100
AcDbEntity
  8
1
  6
Continuous
370
    50
100
AcDbLine
 10
42.259398025
 20
0.0
 30
0.0
 11
41.104697487
 21
2.0
 31
0.0
  0
LINE
  5
9B
330
1D
100
AcDbEntity
  8
1
  6
Continuous
370
    50
100
AcDbLine
 10
41.104697487
 20
2.0
 30
0.0
 11
38.79529641
 21
2.0
 31
0.0
  0
LINE
  5
9C
330
1D
100
AcDbEntity
  8
1
  6
Continuous
370
    50
100
AcDbLine
 10
38.79529641
 20
2.0
 30
0.0
 11
37.640595871
 21
0.0
 31
0.0
  0
LINE
  5
9D
330
1D
100
AcDbEntity
  8
1
  6
Continuous
370
    50
100
AcDbLine
 10
37.640595871
 20
0.0
 30
0.0
 11
38.79529641
 21
-2.0
 31
0.0
  0
LINE
  5
9E
330
1D
100
AcDbEntity
  8
1
  6
Continuous
370
    50
100
AcDbLine
 10
38.79529641
 20
-2.0
 30
0.0
 11
41.104697487
 21
-2.0
 31
0.0
  0
LINE
  5
9F
330
1D
100
AcDbEntity
  8
1
  6
Continuous
370
    50
100
AcDbLine
 10
41.104697487
 20
-2.0
 30
0.0
 11
42.259398025
 21
0.0
 31
0.0
  0
TEXT
  5
A0
330
1D
100
AcDbEntity
  8
SK6
  6
Continuous
370
    35
100
AcDbText
 10
61.80312921790581
 20
-54.36323936237437
 30
0.0
 40
3.5
  1
324.142F
  7
BMG_Text
100
AcDbText
  0
LINE
  5
A1
330
1D
100
AcDbEntity
  8
SK6
100
AcDbLine
 10
-21.622946842
 20
-36.81428813
 30
0.0
 11
-21.622946842
 21
-38.8842802
 31
0.0
  0
ARC
  5
A2
330
1D
100
AcDbEntity
  8
SK6
100
AcDbCircle
 10
-24.502932652
 20
-39.96428966
 30
0.0
 40
1.08000004
100
AcDbArc
 50
90.00000763
 51
206.54360962
  0
LINE
  5
A3
330
1D
100
AcDbEntity
  8
SK6
100
AcDbLine
 10
-24.502932652
 20
-38.88431072
 30
0.0
 11
-21.622935392
 21
-38.88431072
 31
0.0
  0
ARC
  5
A4
330
1D
100
AcDbEntity
  8
SK6
100
AcDbCircle
 10
-25.672942262
 20
-39.51428508
 30
0.0
 40
2.70000005
100
AcDbArc
 50
90.00000763
 51
206.5436554
  0
ARC
  5
A5
330
1D
100
AcDbEntity
  8
SK6
100
AcDbCircle
 10
-24.952925782
 20
-49.41429424
 30
0.0
 40
1.08000004
100
AcDbArc
 50
270.0
 51
26.54360962
  0
LINE
  5
A6
330
1D
100
AcDbEntity
  8
SK6
100
AcDbLine
 10
-24.952925782
 20
-50.49429607
 30
0.0
 11
-28.372923952
 21
-50.49429607
 31
0.0
  0
LINE
  5
A7
330
1D
100
AcDbEntity
  8
SK6
100
AcDbLine
 10
-28.088343722
 20
-40.72085857
 30
0.0
 11
-23.986777402
 21
-48.93165111
 31
0.0
  0
ARC
  5
A8
330
1D
100
AcDbEntity
  8
SK6
100
AcDbCircle
 10
-23.782939062
 20
-49.86429881
 30
0.0
 40
2.70000005
100
AcDbArc
 50
270.0
 51
26.54364014
  0
LINE
  5
A9
330
1D
100
AcDbEntity
  8
SK6
100
AcDbLine
 10
-25.469100102
 20
-40.44691753
 30
0.0
 11
-21.367529972
 21
-48.6577177
 31
0.0
  0
LINE
  5
AA
330
1D
100
AcDbEntity
  8
SK6
100
AcDbLine
 10
-28.372946842
 20
-50.49429607
 30
0.0
 11
-28.372946842
 21
-52.56430339
 31
0.0
  0
LINE
  5
AB
330
1D
100
AcDbEntity
  8
SK6
100
AcDbLine
 10
-28.372946842
 20
-52.56430339
 30
0.0
 11
-23.782942872
 21
-52.56430339
 31
0.0
  0
LINE
  5
AC
330
1D
100
AcDbEntity
  8
SK6
100
AcDbLine
 10
-18.922942262
 20
-52.56430339
 30
0.0
 11
-18.922942262
 21
-36.81430339
 31
0.0
  0
LINE
  5
AD
330
1D
100
AcDbEntity
  8
SK6
100
AcDbLine
 10
-10.642935852
 20
-52.56430339
 30
0.0
 11
-10.642935852
 21
-36.81430339
 31
0.0
  0
LINE
  5
AE
330
1D
100
AcDbEntity
  8
SK6
100
AcDbLine
 10
-10.642935852
 20
-52.56430339
 30
0.0
 11
-7.942942722
 21
-52.56430339
 31
0.0
  0
LINE
  5
AF
330
1D
100
AcDbEntity
  8
SK6
100
AcDbLine
 10
-7.942942722
 20
-52.56430339
 30
0.0
 11
-7.942942722
 21
-45.72430705
 31
0.0
  0
ARC
  5
B0
330
1D
100
AcDbEntity
  8
SK6
100
AcDbCircle
 10
-6.592928982
 20
-46.80429363
 30
0.0
 40
1.08000004
100
AcDbArc
 50
0.0
 51
90.00000763
  0
LINE
  5
B1
330
1D
100
AcDbEntity
  8
SK6
100
AcDbLine
 10
-6.592928982
 20
-45.7242918
 30
0.0
 11
-7.942931272
 21
-45.7242918
 31
0.0
  0
LINE
  5
B2
330
1D
100
AcDbEntity
  8
SK6
100
AcDbLine
 10
-5.512950042
 20
-50.04429912
 30
0.0
 11
-5.512950042
 21
-51.03428935
 31
0.0
  0
ARC
  5
B3
330
1D
100
AcDbEntity
  8
SK6
100
AcDbCircle
 10
-0.382952792
 20
-51.03429698
 30
0.0
 40
2.51999998
100
AcDbArc
 50
180.0
 51
217.38319397
  0
ARC
  5
B4
330
1D
100
AcDbEntity
  8
SK6
100
AcDbCircle
 10
-2.992961032
 20
-51.03429698
 30
0.0
 40
2.51999998
100
AcDbArc
 50
180.0
 51
217.38319397
  0
LINE
  5
B5
330
1D
100
AcDbEntity
  8
SK6
100
AcDbLine
 10
-2.475344762
 20
-52.56430339
 30
0.0
 11
-4.995345212
 21
-52.56430339
 31
0.0
  0
LINE
  5
B6
330
1D
100
AcDbEntity
  8
SK6
100
AcDbLine
 10
-5.512950042
 20
-46.80430889
 30
0.0
 11
-5.512950042
 21
-51.03429698
 31
0.0
  0
ARC
  5
B7
330
1D
100
AcDbEntity
  8
SK6
100
AcDbCircle
 10
-5.422930822
 20
-46.98430156
 30
0.0
 40
2.51999998
100
AcDbArc
 50
358.70883179
 51
93.06652832
  0
ARC
  5
B8
330
1D
100
AcDbEntity
  8
SK6
100
AcDbCircle
 10
-5.692942722
 20
-41.94430065
 30
0.0
 40
2.51999998
100
AcDbArc
 50
273.06652832
 51
0.0
  0
ARC
  5
B9
330
1D
100
AcDbEntity
  8
SK6
100
AcDbCircle
 10
-5.692942722
 20
-39.33430766
 30
0.0
 40
2.51999998
100
AcDbArc
 50
0.0
 51
90.00000763
  0
LINE
  5
BA
330
1D
100
AcDbEntity
  8
SK6
100
AcDbLine
 10
-3.172930822
 20
-39.33430766
 30
0.0
 11
-3.172930822
 21
-41.94430828
 31
0.0
  0
ARC
  5
BB
330
1D
100
AcDbEntity
  8
SK6
100
AcDbCircle
 10
-6.322939972
 20
-39.78430461
 30
0.0
 40
0.90000004
100
AcDbArc
 50
0.0
 51
90.00000763
  0
LINE
  5
BC
330
1D
100
AcDbEntity
  8
SK6
100
AcDbLine
 10
-6.322939972
 20
-38.88431072
 30
0.0
 11
-7.942942722
 21
-38.88431072
 31
0.0
  0
ARC
  5
BD
330
1D
100
AcDbEntity
  8
SK6
100
AcDbCircle
 10
-6.322939972
 20
-42.66429424
 30
0.0
 40
0.90000004
100
AcDbArc
 50
270.0
 51
0.0
  0
LINE
  5
BE
330
1D
100
AcDbEntity
  8
SK6
100
AcDbLine
 10
-5.422930822
 20
-39.78430461
 30
0.0
 11
-5.422930822
 21
-42.66430187
 31
0.0
  0
LINE
  5
BF
330
1D
100
AcDbEntity
  8
SK6
100
AcDbLine
 10
-7.942942722
 20
-38.88431072
 30
0.0
 11
-7.942942722
 21
-43.56430339
 31
0.0
  0
LINE
  5
C0
330
1D
100
AcDbEntity
  8
SK6
100
AcDbLine
 10
-6.322939972
 20
-43.56430339
 30
0.0
 11
-7.942942722
 21
-43.56430339
 31
0.0
  0
LINE
  5
C1
330
1D
100
AcDbEntity
  8
SK6
100
AcDbLine
 10
-2.903582672
 20
-47.04108714
 30
0.0
 11
-2.902953252
 21
-51.03470134
 31
0.0
  0
LINE
  5
C2
330
1D
100
AcDbEntity
  8
SK6
100
AcDbLine
 10
-2.475344762
 20
-52.56430339
 30
0.0
 11
-2.385348422
 21
-52.56430339
 31
0.0
  0
LINE
  5
C3
330
1D
100
AcDbEntity
  8
SK6
100
AcDbLine
 10
-25.672942262
 20
-36.81428813
 30
0.0
 11
-21.622939212
 21
-36.81428813
 31
0.0
  0
LINE
  5
C4
330
1D
100
AcDbEntity
  8
SK6
100
AcDbLine
 10
-5.692942722
 20
-36.81428813
 30
0.0
 11
-10.642947302
 21
-36.81428813
 31
0.0
  0
LINE
  5
C5
330
1D
100
AcDbEntity
  8
SK6
100
AcDbLine
 10
-52.672942262
 20
-52.56430339
 30
0.0
 11
-55.462943182
 21
-52.56430339
 31
0.0
  0
LINE
  5
C6
330
1D
100
AcDbEntity
  8
SK6
100
AcDbLine
 10
-52.672942262
 20
-49.14430522
 30
0.0
 11
-52.672942262
 21
-52.56430339
 31
0.0
  0
LINE
  5
C7
330
1D
100
AcDbEntity
  8
SK6
100
AcDbLine
 10
-51.592940432
 20
-47.0742979
 30
0.0
 11
-52.672942262
 21
-49.14430522
 31
0.0
  0
LINE
  5
C8
330
1D
100
AcDbEntity
  8
SK6
100
AcDbLine
 10
-49.162947752
 20
-52.56430339
 30
0.0
 11
-51.592940432
 21
-47.0742979
 31
0.0
  0
LINE
  5
C9
330
1D
100
AcDbEntity
  8
SK6
100
AcDbLine
 10
-46.372946842
 20
-52.56430339
 30
0.0
 11
-49.162940122
 21
-52.56430339
 31
0.0
  0
LINE
  5
CA
330
1D
100
AcDbEntity
  8
SK6
100
AcDbLine
 10
-49.972952942
 20
-43.56430339
 30
0.0
 11
-46.372946842
 21
-52.56430339
 31
0.0
  0
LINE
  5
CB
330
1D
100
AcDbEntity
  8
SK6
100
AcDbLine
 10
-46.912947752
 20
-36.81430339
 30
0.0
 11
-49.972937682
 21
-43.56430339
 31
0.0
  0
LINE
  5
CC
330
1D
100
AcDbEntity
  8
SK6
100
AcDbLine
 10
-52.672942262
 20
-43.92431163
 30
0.0
 11
-49.702948672
 21
-36.81431865
 31
0.0
  0
LINE
  5
CD
330
1D
100
AcDbEntity
  8
SK6
100
AcDbLine
 10
-52.672942262
 20
-36.81430339
 30
0.0
 11
-52.672942262
 21
-43.92431163
 31
0.0
  0
LINE
  5
CE
330
1D
100
AcDbEntity
  8
SK6
100
AcDbLine
 10
-55.462943182
 20
-52.56430339
 30
0.0
 11
-55.462943182
 21
-36.81430339
 31
0.0
  0
LINE
  5
CF
330
1D
100
AcDbEntity
  8
SK6
100
AcDbLine
 10
-49.702948672
 20
-36.81430339
 30
0.0
 11
-46.912947752
 21
-36.81430339
 31
0.0
  0
LINE
  5
D0
330
1D
100
AcDbEntity
  8
SK6
100
AcDbLine
 10
-55.462943182
 20
-36.81430339
 30
0.0
 11
-52.672942262
 21
-36.81430339
 31
0.0
  0
LINE
  5
D1
330
1D
100
AcDbEntity
  8
SK6
100
AcDbLine
 10
-33.412936312
 20
-36.81430339
 30
0.0
 11
-33.412936312
 21
-52.56430339
 31
0.0
  0
LINE
  5
D2
330
1D
100
AcDbEntity
  8
SK6
100
AcDbLine
 10
-30.532939062
 20
-52.56430339
 30
0.0
 11
-30.532939062
 21
-36.81430339
 31
0.0
  0
LINE
  5
D3
330
1D
100
AcDbEntity
  8
SK6
100
AcDbLine
 10
-33.412936312
 20
-52.56430339
 30
0.0
 11
-30.532939062
 21
-52.56430339
 31
0.0
  0
LINE
  5
D4
330
1D
100
AcDbEntity
  8
SK6
100
AcDbLine
 10
-30.532939062
 20
-36.81430339
 30
0.0
 11
-33.412947752
 21
-36.81430339
 31
0.0
  0
LINE
  5
D5
330
1D
100
AcDbEntity
  8
SK6
100
AcDbLine
 10
-13.072939972
 20
-52.56430339
 30
0.0
 11
-13.072939972
 21
-50.49429607
 31
0.0
  0
LINE
  5
D6
330
1D
100
AcDbEntity
  8
SK6
100
AcDbLine
 10
-18.922942262
 20
-52.56430339
 30
0.0
 11
-13.072939972
 21
-52.56430339
 31
0.0
  0
LINE
  5
D7
330
1D
100
AcDbEntity
  8
SK6
100
AcDbLine
 10
-13.072951422
 20
-38.88429546
 30
0.0
 11
-13.072951422
 21
-36.81430339
 31
0.0
  0
LINE
  5
D8
330
1D
100
AcDbEntity
  8
SK6
100
AcDbLine
 10
-16.042967892
 20
-38.88429546
 30
0.0
 11
-13.072962862
 21
-38.88429546
 31
0.0
  0
LINE
  5
D9
330
1D
100
AcDbEntity
  8
SK6
100
AcDbLine
 10
-16.042967892
 20
-43.56430339
 30
0.0
 11
-16.042967892
 21
-38.88431072
 31
0.0
  0
LINE
  5
DA
330
1D
100
AcDbEntity
  8
SK6
100
AcDbLine
 10
-13.072951422
 20
-43.56430339
 30
0.0
 11
-16.042956452
 21
-43.56430339
 31
0.0
  0
LINE
  5
DB
330
1D
100
AcDbEntity
  8
SK6
100
AcDbLine
 10
-13.072951422
 20
-45.72428417
 30
0.0
 11
-13.072951422
 21
-43.5642805
 31
0.0
  0
LINE
  5
DC
330
1D
100
AcDbEntity
  8
SK6
100
AcDbLine
 10
-16.042967892
 20
-45.72428417
 30
0.0
 11
-13.072962862
 21
-45.72428417
 31
0.0
  0
LINE
  5
DD
330
1D
100
AcDbEntity
  8
SK6
100
AcDbLine
 10
-16.042967892
 20
-50.49429607
 30
0.0
 11
-16.042967892
 21
-45.72428417
 31
0.0
  0
LINE
  5
DE
330
1D
100
AcDbEntity
  8
SK6
100
AcDbLine
 10
-13.072951422
 20
-50.49429607
 30
0.0
 11
-16.042956452
 21
-50.49429607
 31
0.0
  0
LINE
  5
DF
330
1D
100
AcDbEntity
  8
SK6
100
AcDbLine
 10
-13.072951422
 20
-36.81430339
 30
0.0
 11
-18.922953702
 21
-36.81430339
 31
0.0
  0
LINE
  5
E0
330
1D
100
AcDbEntity
  8
SK6
100
AcDbLine
 10
-38.992941952
 20
-52.56430339
 30
0.0
 11
-45.292945012
 21
-52.56430339
 31
0.0
  0
LINE
  5
E1
330
1D
100
AcDbEntity
  8
SK6
100
AcDbLine
 10
-39.442931272
 20
-50.04429149
 30
0.0
 11
-38.992941952
 21
-52.56428813
 31
0.0
  0
LINE
  5
E2
330
1D
100
AcDbEntity
  8
SK6
100
AcDbLine
 10
-42.322951422
 20
-50.04429149
 30
0.0
 11
-39.442954162
 21
-50.04429149
 31
0.0
  0
LINE
  5
E3
330
1D
100
AcDbEntity
  8
SK6
100
AcDbLine
 10
-40.792945012
 20
-40.68430614
 30
0.0
 11
-42.322943792
 21
-50.04431438
 31
0.0
  0
LINE
  5
E4
330
1D
100
AcDbEntity
  8
SK6
100
AcDbLine
 10
-37.732947452
 20
-52.56430339
 30
0.0
 11
-40.792945012
 21
-40.68430614
 31
0.0
  0
LINE
  5
E5
330
1D
100
AcDbEntity
  8
SK6
100
AcDbLine
 10
-34.762938602
 20
-52.56430339
 30
0.0
 11
-37.732932192
 21
-52.56430339
 31
0.0
  0
LINE
  5
E6
330
1D
100
AcDbEntity
  8
SK6
100
AcDbLine
 10
-39.172942262
 20
-36.36429881
 30
0.0
 11
-34.762950042
 21
-52.56430339
 31
0.0
  0
LINE
  5
E7
330
1D
100
AcDbEntity
  8
SK6
100
AcDbLine
 10
-42.232947452
 20
-36.36429881
 30
0.0
 11
-39.172949892
 21
-36.36429881
 31
0.0
  0
LINE
  5
E8
330
1D
100
AcDbEntity
  8
SK6
100
AcDbLine
 10
-45.292945012
 20
-52.56430339
 30
0.0
 11
-42.232947452
 21
-36.36429881
 31
0.0
  0
LINE
  5
E9
330
1D
100
AcDbEntity
  8
2
  6
Continuous
370
    25
100
AcDbLine
 10
60.91113472
 20
-11.00275
 30
0.0
 11
50.0
 21
-11.00275
 31
0.0
  0
LINE
  5
EA
330
1D
100
AcDbEntity
  8
2
  6
Continuous
370
    25
100
AcDbLine
 10
58.91113472
 20
-11.00275
 30
0.0
 11
58.46113472
 21
-7.50275
 31
0.0
  0
LINE
  5
EB
330
1D
100
AcDbEntity
  8
2
  6
Continuous
370
    25
100
AcDbLine
 10
58.46113472
 20
-7.50275
 30
0.0
 11
59.36113472
 21
-7.50275
 31
0.0
  0
LINE
  5
EC
330
1D
100
AcDbEntity
  8
2
  6
Continuous
370
    25
100
AcDbLine
 10
59.36113472
 20
-7.50275
 30
0.0
 11
58.91113472
 21
-11.00275
 31
0.0
  0
LINE
  5
ED
330
1D
100
AcDbEntity
  8
2
  6
Continuous
370
    25
100
AcDbLine
 10
58.91113472
 20
-7.60275
 30
0.0
 11
58.91113472
 21
-10.90275
 31
0.0
  0
LINE
  5
EE
330
1D
100
AcDbEntity
  8
2
  6
Continuous
370
    25
100
AcDbLine
 10
59.11113472
 20
-7.60275
 30
0.0
 11
59.11113472
 21
-9.347194444
 31
0.0
  0
LINE
  5
EF
330
1D
100
AcDbEntity
  8
2
  6
Continuous
370
    25
100
AcDbLine
 10
58.71113472
 20
-7.60275
 30
0.0
 11
58.71113472
 21
-9.347194444
 31
0.0
  0
LINE
  5
F0
330
1D
100
AcDbEntity
  8
2
  6
Continuous
370
    25
100
AcDbLine
 10
59.31113472
 20
-7.60275
 30
0.0
 11
59.31113472
 21
-7.791638889
 31
0.0
  0
LINE
  5
F1
330
1D
100
AcDbEntity
  8
2
  6
Continuous
370
    25
100
AcDbLine
 10
58.51113472
 20
-7.60275
 30
0.0
 11
58.51113472
 21
-7.791638889
 31
0.0
  0
LINE
  5
F2
330
1D
100
AcDbEntity
  8
2
  6
Continuous
370
    25
100
AcDbLine
 10
60.91113472
 20
11.00275
 30
0.0
 11
50.0
 21
11.00275
 31
0.0
  0
LINE
  5
F3
330
1D
100
AcDbEntity
  8
2
  6
Continuous
370
    25
100
AcDbLine
 10
58.91113472
 20
11.00275
 30
0.0
 11
59.36113472
 21
7.50275
 31
0.0
  0
LINE
  5
F4
330
1D
100
AcDbEntity
  8
2
  6
Continuous
370
    25
100
AcDbLine
 10
59.36113472
 20
7.50275
 30
0.0
 11
58.46113472
 21
7.50275
 31
0.0
  0
LINE
  5
F5
330
1D
100
AcDbEntity
  8
2
  6
Continuous
370
    25
100
AcDbLine
 10
58.46113472
 20
7.50275
 30
0.0
 11
58.91113472
 21
11.00275
 31
0.0
  0
LINE
  5
F6
330
1D
100
AcDbEntity
  8
2
  6
Continuous
370
    25
100
AcDbLine
 10
58.91113472
 20
7.60275
 30
0.0
 11
58.91113472
 21
10.90275
 31
0.0
  0
LINE
  5
F7
330
1D
100
AcDbEntity
  8
2
  6
Continuous
370
    25
100
AcDbLine
 10
58.71113472
 20
7.60275
 30
0.0
 11
58.71113472
 21
9.347194444
 31
0.0
  0
LINE
  5
F8
330
1D
100
AcDbEntity
  8
2
  6
Continuous
370
    25
100
AcDbLine
 10
59.11113472
 20
7.60275
 30
0.0
 11
59.11113472
 21
9.347194444
 31
0.0
  0
LINE
  5
F9
330
1D
100
AcDbEntity
  8
2
  6
Continuous
370
    25
100
AcDbLine
 10
58.51113472
 20
7.60275
 30
0.0
 11
58.51113472
 21
7.791638889
 31
0.0
  0
LINE
  5
FA
330
1D
100
AcDbEntity
  8
2
  6
Continuous
370
    25
100
AcDbLine
 10
59.31113472
 20
7.60275
 30
0.0
 11
59.31113472
 21
7.791638889
 31
0.0
  0
LINE
  5
FB
330
1D
100
AcDbEntity
  8
2
  6
Continuous
370
    25
100
AcDbLine
 10
58.91113472
 20
-7.50275
 30
0.0
 11
58.91113472
 21
7.50275
 31
0.0
  0
TEXT
  5
FC
330
1D
100
AcDbEntity
  8
2
  6
Continuous
370
    25
100
AcDbText
 10
57.41113472
 20
0.085312254
 30
0.0
 40
3.5
  1
22
 50
90.0
  7
BMG_Text
100
AcDbText
  0
CIRCLE
  5
FD
330
1D
100
AcDbEntity
  8
2
  6
Continuous
370
    25
100
AcDbCircle
 10
56.16113472
 20
-2.164687746
 30
0.0
 40
1.25
  0
LINE
  5
FE
330
1D
100
AcDbEntity
  8
2
  6
Continuous
370
    25
100
AcDbLine
 10
57.41113472
 20
-3.414687746
 30
0.0
 11
54.91113472
 21
-0.914687746
 31
0.0
  0
LINE
  5
FF
330
1D
100
AcDbEntity
  8
2
  6
Continuous
370
    25
100
AcDbLine
 10
68.547454834
 20
-19.5
 30
0.0
 11
49.25
 21
-19.5
 31
0.0
  0
LINE
  5
100
330
1D
100
AcDbEntity
  8
2
  6
Continuous
370
    25
100
AcDbLine
 10
66.547454834
 20
-19.5
 30
0.0
 11
66.097454834
 21
-16.0
 31
0.0
  0
LINE
  5
101
330
1D
100
AcDbEntity
  8
2
  6
Continuous
370
    25
100
AcDbLine
 10
66.097454834
 20
-16.0
 30
0.0
 11
66.997454834
 21
-16.0
 31
0.0
  0
LINE
  5
102
330
1D
100
AcDbEntity
  8
2
  6
Continuous
370
    25
100
AcDbLine
 10
66.997454834
 20
-16.0
 30
0.0
 11
66.547454834
 21
-19.5
 31
0.0
  0
LINE
  5
103
330
1D
100
AcDbEntity
  8
2
  6
Continuous
370
    25
100
AcDbLine
 10
66.547454834
 20
-16.1
 30
0.0
 11
66.547454834
 21
-19.4
 31
0.0
  0
LINE
  5
104
330
1D
100
AcDbEntity
  8
2
  6
Continuous
370
    25
100
AcDbLine
 10
66.747454834
 20
-16.1
 30
0.0
 11
66.747454834
 21
-17.844444444
 31
0.0
  0
LINE
  5
105
330
1D
100
AcDbEntity
  8
2
  6
Continuous
370
    25
100
AcDbLine
 10
66.347454834
 20
-16.1
 30
0.0
 11
66.347454834
 21
-17.844444444
 31
0.0
  0
LINE
  5
106
330
1D
100
AcDbEntity
  8
2
  6
Continuous
370
    25
100
AcDbLine
 10
66.947454834
 20
-16.1
 30
0.0
 11
66.947454834
 21
-16.288888889
 31
0.0
  0
LINE
  5
107
330
1D
100
AcDbEntity
  8
2
  6
Continuous
370
    25
100
AcDbLine
 10
66.147454834
 20
-16.1
 30
0.0
 11
66.147454834
 21
-16.288888889
 31
0.0
  0
LINE
  5
108
330
1D
100
AcDbEntity
  8
2
  6
Continuous
370
    25
100
AcDbLine
 10
68.547454834
 20
19.5
 30
0.0
 11
49.25
 21
19.5
 31
0.0
  0
LINE
  5
109
330
1D
100
AcDbEntity
  8
2
  6
Continuous
370
    25
100
AcDbLine
 10
66.547454834
 20
19.5
 30
0.0
 11
66.997454834
 21
16.0
 31
0.0
  0
LINE
  5
10A
330
1D
100
AcDbEntity
  8
2
  6
Continuous
370
    25
100
AcDbLine
 10
66.997454834
 20
16.0
 30
0.0
 11
66.097454834
 21
16.0
 31
0.0
  0
LINE
  5
10B
330
1D
100
AcDbEntity
  8
2
  6
Continuous
370
    25
100
AcDbLine
 10
66.097454834
 20
16.0
 30
0.0
 11
66.547454834
 21
19.5
 31
0.0
  0
LINE
  5
10C
330
1D
100
AcDbEntity
  8
2
  6
Continuous
370
    25
100
AcDbLine
 10
66.547454834
 20
16.1
 30
0.0
 11
66.547454834
 21
19.4
 31
0.0
  0
LINE
  5
10D
330
1D
100
AcDbEntity
  8
2
  6
Continuous
370
    25
100
AcDbLine
 10
66.347454834
 20
16.1
 30
0.0
 11
66.347454834
 21
17.844444444
 31
0.0
  0
LINE
  5
10E
330
1D
100
AcDbEntity
  8
2
  6
Continuous
370
    25
100
AcDbLine
 10
66.747454834
 20
16.1
 30
0.0
 11
66.747454834
 21
17.844444444
 31
0.0
  0
LINE
  5
10F
330
1D
100
AcDbEntity
  8
2
  6
Continuous
370
    25
100
AcDbLine
 10
66.147454834
 20
16.1
 30
0.0
 11
66.147454834
 21
16.288888889
 31
0.0
  0
LINE
  5
110
330
1D
100
AcDbEntity
  8
2
  6
Continuous
370
    25
100
AcDbLine
 10
66.947454834
 20
16.1
 30
0.0
 11
66.947454834
 21
16.288888889
 31
0.0
  0
LINE
  5
111
330
1D
100
AcDbEntity
  8
2
  6
Continuous
370
    25
100
AcDbLine
 10
66.547454834
 20
-16.0
 30
0.0
 11
66.547454834
 21
16.0
 31
0.0
  0
TEXT
  5
112
330
1D
100
AcDbEntity
  8
2
  6
Continuous
370
    25
100
AcDbText
 10
65.047454834
 20
0.331405814
 30
0.0
 40
3.5
  1
39
 50
90.0
  7
BMG_Text
100
AcDbText
  0
CIRCLE
  5
113
330
1D
100
AcDbEntity
  8
2
  6
Continuous
370
    25
100
AcDbCircle
 10
63.797454834
 20
-1.918594186
 30
0.0
 40
1.25
  0
LINE
  5
114
330
1D
100
AcDbEntity
  8
2
  6
Continuous
370
    25
100
AcDbLine
 10
65.047454834
 20
-3.168594186
 30
0.0
 11
62.547454834
 21
-0.668594186
 31
0.0
  0
LINE
  5
115
330
1D
100
AcDbEntity
  8
2
  6
Continuous
370
    25
100
AcDbLine
 10
0.0
 20
-34.091662979
 30
0.0
 11
0.0
 21
-19.975
 31
0.0
  0
LINE
  5
116
330
1D
100
AcDbEntity
  8
2
  6
Continuous
370
    25
100
AcDbLine
 10
0.0
 20
-32.091662979
 30
0.0
 11
3.5
 21
-31.641662979
 31
0.0
  0
LINE
  5
117
330
1D
100
AcDbEntity
  8
2
  6
Continuous
370
    25
100
AcDbLine
 10
3.5
 20
-31.641662979
 30
0.0
 11
3.5
 21
-32.541662979
 31
0.0
  0
LINE
  5
118
330
1D
100
AcDbEntity
  8
2
  6
Continuous
370
    25
100
AcDbLine
 10
3.5
 20
-32.541662979
 30
0.0
 11
0.0
 21
-32.091662979
 31
0.0
  0
LINE
  5
119
330
1D
100
AcDbEntity
  8
2
  6
Continuous
370
    25
100
AcDbLine
 10
3.4
 20
-32.091662979
 30
0.0
 11
0.1
 21
-32.091662979
 31
0.0
  0
LINE
  5
11A
330
1D
100
AcDbEntity
  8
2
  6
Continuous
370
    25
100
AcDbLine
 10
3.4
 20
-32.291662979
 30
0.0
 11
1.655555556
 21
-32.291662979
 31
0.0
  0
LINE
  5
11B
330
1D
100
AcDbEntity
  8
2
  6
Continuous
370
    25
100
AcDbLine
 10
3.4
 20
-31.891662979
 30
0.0
 11
1.655555556
 21
-31.891662979
 31
0.0
  0
LINE
  5
11C
330
1D
100
AcDbEntity
  8
2
  6
Continuous
370
    25
100
AcDbLine
 10
3.4
 20
-32.491662979
 30
0.0
 11
3.211111111
 21
-32.491662979
 31
0.0
  0
LINE
  5
11D
330
1D
100
AcDbEntity
  8
2
  6
Continuous
370
    25
100
AcDbLine
 10
3.4
 20
-31.691662979
 30
0.0
 11
3.211111111
 21
-31.691662979
 31
0.0
  0
LINE
  5
11E
330
1D
100
AcDbEntity
  8
2
  6
Continuous
370
    25
100
AcDbLine
 10
25.0
 20
-34.091662979
 30
0.0
 11
25.0
 21
-19.975
 31
0.0
  0
LINE
  5
11F
330
1D
100
AcDbEntity
  8
2
  6
Continuous
370
    25
100
AcDbLine
 10
25.0
 20
-32.091662979
 30
0.0
 11
21.5
 21
-32.541662979
 31
0.0
  0
LINE
  5
120
330
1D
100
AcDbEntity
  8
2
  6
Continuous
370
    25
100
AcDbLine
 10
21.5
 20
-32.541662979
 30
0.0
 11
21.5
 21
-31.641662979
 31
0.0
  0
LINE
  5
121
330
1D
100
AcDbEntity
  8
2
  6
Continuous
370
    25
100
AcDbLine
 10
21.5
 20
-31.641662979
 30
0.0
 11
25.0
 21
-32.091662979
 31
0.0
  0
LINE
  5
122
330
1D
100
AcDbEntity
  8
2
  6
Continuous
370
    25
100
AcDbLine
 10
21.6
 20
-32.091662979
 30
0.0
 11
24.9
 21
-32.091662979
 31
0.0
  0
LINE
  5
123
330
1D
100
AcDbEntity
  8
2
  6
Continuous
370
    25
100
AcDbLine
 10
21.6
 20
-31.891662979
 30
0.0
 11
23.344444444
 21
-31.891662979
 31
0.0
  0
LINE
  5
124
330
1D
100
AcDbEntity
  8
2
  6
Continuous
370
    25
100
AcDbLine
 10
21.6
 20
-32.291662979
 30
0.0
 11
23.344444444
 21
-32.291662979
 31
0.0
  0
LINE
  5
125
330
1D
100
AcDbEntity
  8
2
  6
Continuous
370
    25
100
AcDbLine
 10
21.6
 20
-31.691662979
 30
0.0
 11
21.788888889
 21
-31.691662979
 31
0.0
  0
LINE
  5
126
330
1D
100
AcDbEntity
  8
2
  6
Continuous
370
    25
100
AcDbLine
 10
21.6
 20
-32.491662979
 30
0.0
 11
21.788888889
 21
-32.491662979
 31
0.0
  0
LINE
  5
127
330
1D
100
AcDbEntity
  8
2
  6
Continuous
370
    25
100
AcDbLine
 10
3.5
 20
-32.091662979
 30
0.0
 11
21.5
 21
-32.091662979
 31
0.0
  0
TEXT
  5
128
330
1D
100
AcDbEntity
  8
2
  6
Continuous
370
    25
100
AcDbText
 10
10.944687221
 20
-30.591662979
 30
0.0
 40
3.5
  1
25
  7
BMG_Text
100
AcDbText
  0
LINE
  5
129
330
1D
100
AcDbEntity
  8
2
  6
Continuous
370
    25
100
AcDbLine
 10
25.0
 20
-34.091662979
 30
0.0
 11
25.0
 21
-19.975
 31
0.0
  0
LINE
  5
12A
330
1D
100
AcDbEntity
  8
2
  6
Continuous
370
    25
100
AcDbLine
 10
25.0
 20
-32.091662979
 30
0.0
 11
28.500000005
 21
-31.641663017
 31
0.0
  0
LINE
  5
12B
330
1D
100
AcDbEntity
  8
2
  6
Continuous
370
    25
100
AcDbLine
 10
28.500000005
 20
-31.641663017
 30
0.0
 11
28.499999995
 21
-32.541663017
 31
0.0
  0
LINE
  5
12C
330
1D
100
AcDbEntity
  8
2
  6
Continuous
370
    25
100
AcDbLine
 10
28.499999995
 20
-32.541663017
 30
0.0
 11
25.0
 21
-32.091662979
 31
0.0
  0
LINE
  5
12D
330
1D
100
AcDbEntity
  8
2
  6
Continuous
370
    25
100
AcDbLine
 10
28.4
 20
-32.091663016
 30
0.0
 11
25.1
 21
-32.09166298
 31
0.0
  0
LINE
  5
12E
330
1D
100
AcDbEntity
  8
2
  6
Continuous
370
    25
100
AcDbLine
 10
28.399999998
 20
-32.291663016
 30
0.0
 11
26.655555553
 21
-32.291662997
 31
0.0
  0
LINE
  5
12F
330
1D
100
AcDbEntity
  8
2
  6
Continuous
370
    25
100
AcDbLine
 10
28.400000002
 20
-31.891663016
 30
0.0
 11
26.655555558
 21
-31.891662997
 31
0.0
  0
LINE
  5
130
330
1D
100
AcDbEntity
  8
2
  6
Continuous
370
    25
100
AcDbLine
 10
28.399999996
 20
-32.491663016
 30
0.0
 11
28.211111107
 21
-32.491663014
 31
0.0
  0
LINE
  5
131
330
1D
100
AcDbEntity
  8
2
  6
Continuous
370
    25
100
AcDbLine
 10
28.400000004
 20
-31.691663016
 30
0.0
 11
28.211111115
 21
-31.691663014
 31
0.0
  0
LINE
  5
132
330
1D
100
AcDbEntity
  8
2
  6
Continuous
370
    25
100
AcDbLine
 10
28.5
 20
-32.091663017
 30
0.0
 11
60.0
 21
-32.091663361
 31
0.0
  0
TEXT
  5
133
330
1D
100
AcDbEntity
  8
2
  6
Continuous
370
    25
100
AcDbText
 10
29.569687125
 20
-30.591663029
 30
0.0
 40
3.5
  1
Ausdrehtiefe 72
 50
359.999999376
  7
BMG_Text
100
AcDbText
  0
LINE
  5
134
330
1D
100
AcDbEntity
  8
1
  6
Continuous
370
    50
100
AcDbLine
 10
13.979275349
 20
11.999988568
 30
0.0
 11
14.999983686
 21
13.767910864
 31
0.0
  0
LINE
  5
135
330
1D
100
AcDbEntity
  8
1
  6
Continuous
370
    50
100
AcDbLine
 10
18.020727233
 20
11.999992128
 30
0.0
 11
16.999999724
 21
13.767940439
 31
0.0
  0
LINE
  5
136
330
1D
100
AcDbEntity
  8
1
  6
Continuous
370
    50
100
AcDbLine
 10
14.999995964
 20
14.931879685
 30
0.0
 11
11.854747244
 21
14.93188367
 31
0.0
  0
ARC
  5
137
330
1D
100
AcDbEntity
  8
1
  6
Continuous
370
    50
100
AcDbCircle
 10
11.854750767
 20
10.93188367
 30
0.0
 40
4.0
100
AcDbArc
 50
90.000050466
 51
164.512692048
  0
LINE
  5
138
330
1D
100
AcDbEntity
  8
1
  6
Continuous
370
    50
100
AcDbLine
 10
7.999992256
 20
11.999983302
 30
0.0
 11
13.979275349
 21
11.999988568
 31
0.0
  0
LINE
  5
139
330
1D
100
AcDbEntity
  8
1
  6
Continuous
370
    50
100
AcDbLine
 10
20.000001291
 20
11.999993871
 30
0.0
 11
18.020727233
 21
11.999992128
 31
0.0
  0
LINE
  5
13A
330
1D
100
AcDbEntity
  8
1
  6
Continuous
370
    50
100
AcDbLine
 10
19.999998709
 20
14.931878637
 30
0.0
 11
16.999986721
 21
14.931875995
 31
0.0
  0
LINE
  5
1D9
330
1D
100
AcDbEntity
  8
NOCUT
100
AcDbLine
 10
15.0
 20
18.15
 30
0.0
 11
15.0
 21
18.207050808
 31
0.0
  0
LINE
  5
1DA
330
1D
100
AcDbEntity
  8
NOCUT
100
AcDbLine
 10
15.0
 20
18.207050808
 30
0.0
 11
13.979274058
 21
19.975
 31
0.0
  0
LINE
  5
1DB
330
1D
100
AcDbEntity
  8
NOCUT
100
AcDbLine
 10
13.979274058
 20
19.975
 30
0.0
 11
0.0
 21
19.975
 31
0.0
  0
LINE
  5
1DC
330
1D
100
AcDbEntity
  8
NOCUT
100
AcDbLine
 10
0.0
 20
19.975
 30
0.0
 11
0.0
 21
0.0
 31
0.0
  0
LINE
  5
1DD
330
1D
100
AcDbEntity
  8
NOCUT
100
AcDbLine
 10
0.0
 20
0.0
 30
0.0
 11
50.0
 21
0.0
 31
0.0
  0
LINE
  5
1DE
330
1D
100
AcDbEntity
  8
NOCUT
100
AcDbLine
 10
50.0
 20
0.0
 30
0.0
 11
50.0
 21
18.75
 31
0.0
  0
LINE
  5
1DF
330
1D
100
AcDbEntity
  8
NOCUT
100
AcDbLine
 10
50.0
 20
18.75
 30
0.0
 11
49.25
 21
19.5
 31
0.0
  0
LINE
  5
1E0
330
1D
100
AcDbEntity
  8
NOCUT
100
AcDbLine
 10
49.25
 20
19.5
 30
0.0
 11
35.0
 21
19.5
 31
0.0
  0
LINE
  5
1E1
330
1D
100
AcDbEntity
  8
NOCUT
100
AcDbLine
 10
35.0
 20
19.5
 30
0.0
 11
35.0
 21
18.0
 31
0.0
  0
LINE
  5
1E2
330
1D
100
AcDbEntity
  8
NOCUT
100
AcDbLine
 10
34.0
 20
17.0
 30
0.0
 11
21.0
 21
17.0
 31
0.0
  0
LINE
  5
1E3
330
1D
100
AcDbEntity
  8
NOCUT
100
AcDbLine
 10
20.0
 20
18.0
 30
0.0
 11
20.0
 21
19.975
 31
0.0
  0
LINE
  5
1E4
330
1D
100
AcDbEntity
  8
NOCUT
100
AcDbLine
 10
20.0
 20
19.975
 30
0.0
 11
18.020725942
 21
19.975
 31
0.0
  0
LINE
  5
1E5
330
1D
100
AcDbEntity
  8
NOCUT
100
AcDbLine
 10
18.020725942
 20
19.975
 30
0.0
 11
17.0
 21
18.15
 31
0.0
  0
LINE
  5
1E6
330
1D
100
AcDbEntity
  8
NOCUT
100
AcDbLine
 10
16.25
 20
17.4
 30
0.0
 11
15.75
 21
17.4
 31
0.0
  0
ARC
  5
1E7
330
1D
100
AcDbEntity
  8
NOCUT
100
AcDbCircle
 10
15.75
 20
18.15
 30
0.0
 40
0.7499999999999976
100
AcDbArc
 50
179.9999999999997
 51
270.0000000000001
  0
ARC
  5
1E8
330
1D
100
AcDbEntity
  8
NOCUT
100
AcDbCircle
 10
16.25
 20
18.15
 30
0.0
 40
0.7499999999999976
100
AcDbArc
 50
269.9999999999997
 51
0.0000000000002714
  0
ARC
  5
1E9
330
1D
100
AcDbEntity
  8
NOCUT
100
AcDbCircle
 10
21.0
 20
18.0
 30
0.0
 40
1.000000000000005
100
AcDbArc
 50
180.0000000000002
 51
269.9999999999998
  0
ARC
  5
1EA
330
1D
100
AcDbEntity
  8
NOCUT
100
AcDbCircle
 10
33.99999999999999
 20
18.0
 30
0.0
 40
1.000000000000005
100
AcDbArc
 50
270.0000000000004
 51
359.9999999999998
  0
LWPOLYLINE
  5
1F8
330
1D
100
AcDbEntity
  8
INFTOTAL
100
AcDbPolyline
 90
        4
 70
     1
 43
0.0
 10
-84.29614816072888
 20
44.26426071081208
 10
-84.29614816072888
 20
-58.19051544710895
 10
89.05961409534513
 20
-58.19051544710895
 10
89.05961409534513
 20
44.26426071081208
  0
LINE
  5
202
330
1D
100
AcDbEntity
  8
SK1
100
AcDbLine
 10
-0.0000000002453758
 20
-15.39207068150348
 30
0.0
 11
-0.0000000002453757
 21
15.39207068150348
 31
0.0
  0
LINE
  5
20E
330
1D
100
AcDbEntity
  8
4
100
AcDbLine
 10
53.237364282
 20
0.0
 30
0.0
 11
0.0
 21
0.0
 31
0.0
  0
LINE
  5
20F
330
1D
100
AcDbEntity
  8
4
100
AcDbLine
 10
39.949996948
 20
4.523332362
 30
0.0
 11
39.949996948
 21
-4.832098711
 31
0.0
  0
ENDSEC
  0
SECTION
  2
OBJECTS
  0
DICTIONARY
  5
C
330
0
100
AcDbDictionary
281
     1
  3
ACAD_DETAILVIEWSTYLE
350
1FC
  3
ACAD_GROUP
350
D
  3
ACAD_LAYOUT
350
1A
  3
ACAD_MLINESTYLE
350
17
  3
ACAD_PLOTSETTINGS
350
19
  3
ACAD_PLOTSTYLENAME
350
E
  3
ACAD_SCALELIST
350
141
  3
ACAD_SECTIONVIEWSTYLE
350
1FD
  3
AcDbVariableDictionary
350
183
  3
APPDATA
350
1D1
  3
DWGPROPS
350
218
  0
DICTIONARY
  5
1D2
330
2
100
AcDbDictionary
280
     1
281
     1
  3
ACAD_LAYERSTATES
360
1D3
  0
DICTIONARY
  5
1FC
102
{ACAD_REACTORS
330
C
102
}
330
C
100
AcDbDictionary
281
     1
  0
DICTIONARY
  5
D
102
{ACAD_REACTORS
330
C
102
}
330
C
100
AcDbDictionary
281
     1
  0
DICTIONARY
  5
1A
102
{ACAD_REACTORS
330
C
102
}
330
C
100
AcDbDictionary
281
     1
  3
Layout1
350
1C
  3
Model
350
1E
  0
DICTIONARY
  5
17
102
{ACAD_REACTORS
330
C
102
}
330
C
100
AcDbDictionary
281
     1
  3
Standard
350
18
  0
DICTIONARY
  5
19
102
{ACAD_REACTORS
330
C
102
}
330
C
100
AcDbDictionary
281
     1
  0
ACDBDICTIONARYWDFLT
  5
E
102
{ACAD_REACTORS
330
C
102
}
330
C
100
AcDbDictionary
281
     1
  3
Normal
350
F
100
AcDbDictionaryWithDefault
340
F
  0
DICTIONARY
  5
141
102
{ACAD_REACTORS
330
C
102
}
330
C
100
AcDbDictionary
281
     1
  3
A0
350
142
  3
A1
350
143
  3
A2
350
144
  3
A3
350
145
  3
A4
350
146
  3
A5
350
147
  3
A6
350
148
  3
A7
350
149
  3
A8
350
14A
  3
A9
350
14B
  3
B0
350
14C
  3
B1
350
14D
  3
B2
350
14E
  3
B3
350
14F
  3
B4
350
150
  3
B5
350
151
  3
B6
350
152
  3
B7
350
153
  3
B8
350
154
  3
B9
350
155
  3
C0
350
156
  3
C1
350
157
  3
C2
350
158
  3
C3
350
159
  3
C4
350
15A
  3
C5
350
15B
  3
C6
350
15C
  3
C7
350
15D
  3
C8
350
15E
  3
C9
350
15F
  3
D0
350
160
  3
D1
350
161
  3
D2
350
162
  0
DICTIONARY
  5
1FD
102
{ACAD_REACTORS
330
C
102
}
330
C
100
AcDbDictionary
281
     1
  0
DICTIONARY
  5
183
102
{ACAD_REACTORS
330
C
102
}
330
C
100
AcDbDictionary
281
     1
  3
DIMASSOC
350
187
  3
HIDETEXT
350
188
  0
DICTIONARY
  5
1D1
102
{ACAD_REACTORS
330
C
102
}
330
C
100
AcDbDictionary
281
     1
  0
XRECORD
  5
218
102
{ACAD_REACTORS
330
C
102
}
330
C
100
AcDbXrecord
280
     1
  1
DWGPROPS COOKIE
  2

  3

  4

  6

  7

  8
matthias.ochs
  9

300
=
301
=
302
=
303
=
304
=
305
=
306
=
307
=
308
=
309
=
 40
0.0
 41
2458327.466033669
 42
2458589.52880316
  1

 90
        0
  0
DICTIONARY
  5
1D3
102
{ACAD_REACTORS
330
1D2
102
}
330
1D2
100
AcDbDictionary
281
     1
  0
LAYOUT
  5
1C
102
{ACAD_REACTORS
330
1A
102
}
330
1A
100
AcDbPlotSettings
  1

  2
none_device
  4

  6

 40
0.0
 41
0.0
 42
0.0
 43
0.0
 44
0.0
 45
0.0
 46
0.0
 47
0.0
 48
0.0
 49
0.0
140
0.0
141
0.0
142
1.0
143
1.0
 70
   688
 72
     0
 73
     0
 74
     5
  7

 75
    16
147
1.0
148
0.0
149
0.0
100
AcDbLayout
  1
Layout1
 70
     1
 71
     1
 10
0.0
 20
0.0
 11
12.0
 21
9.0
 12
0.0
 22
0.0
 32
0.0
 14
1.000000000000000E+20
 24
1.000000000000000E+20
 34
1.000000000000000E+20
 15
-1.000000000000000E+20
 25
-1.000000000000000E+20
 35
-1.000000000000000E+20
146
0.0
 13
0.0
 23
0.0
 33
0.0
 16
1.0
 26
0.0
 36
0.0
 17
0.0
 27
1.0
 37
0.0
 76
     0
330
1B
  0
LAYOUT
  5
1E
102
{ACAD_REACTORS
330
1A
102
}
330
1A
100
AcDbPlotSettings
  1

  2
none_device
  4

  6

 40
0.0
 41
0.0
 42
0.0
 43
0.0
 44
0.0
 45
0.0
 46
0.0
 47
0.0
 48
0.0
 49
0.0
140
0.0
141
0.0
142
1.0
143
1.0
 70
  1712
 72
     0
 73
     0
 74
     0
  7

 75
     0
147
1.0
148
0.0
149
0.0
100
AcDbLayout
  1
Model
 70
     1
 71
     0
 10
0.0
 20
0.0
 11
12.0
 21
9.0
 12
0.0
 22
0.0
 32
0.0
 14
-84.29614816072888
 24
-58.19051544710895
 34
0.0
 15
89.05961409534513
 25
44.26426071081208
 35
0.0
146
0.0
 13
0.0
 23
0.0
 33
0.0
 16
1.0
 26
0.0
 36
0.0
 17
0.0
 27
1.0
 37
0.0
 76
     0
330
1D
331
13B
  0
MLINESTYLE
  5
18
102
{ACAD_REACTORS
330
17
102
}
330
17
100
AcDbMlineStyle
  2
Standard
 70
     0
  3

 62
   256
 51
90.0
 52
90.0
 71
     2
 49
0.5
 62
   256
  6
BYLAYER
 49
-0.5
 62
   256
  6
BYLAYER
  0
ACDBPLACEHOLDER
  5
F
102
{ACAD_REACTORS
330
E
102
}
330
E
  0
SCALE
  5
142
102
{ACAD_REACTORS
330
141
102
}
330
141
100
AcDbScale
 70
     0
300
1:1
140
1.0
141
1.0
290
     1
  0
SCALE
  5
143
102
{ACAD_REACTORS
330
141
102
}
330
141
100
AcDbScale
 70
     0
300
1:2
140
1.0
141
2.0
290
     0
  0
SCALE
  5
144
102
{ACAD_REACTORS
330
141
102
}
330
141
100
AcDbScale
 70
     0
300
1:4
140
1.0
141
4.0
290
     0
  0
SCALE
  5
145
102
{ACAD_REACTORS
330
141
102
}
330
141
100
AcDbScale
 70
     0
300
1:5
140
1.0
141
5.0
290
     0
  0
SCALE
  5
146
102
{ACAD_REACTORS
330
141
102
}
330
141
100
AcDbScale
 70
     0
300
1:8
140
1.0
141
8.0
290
     0
  0
SCALE
  5
147
102
{ACAD_REACTORS
330
141
102
}
330
141
100
AcDbScale
 70
     0
300
1:10
140
1.0
141
10.0
290
     0
  0
SCALE
  5
148
102
{ACAD_REACTORS
330
141
102
}
330
141
100
AcDbScale
 70
     0
300
1:16
140
1.0
141
16.0
290
     0
  0
SCALE
  5
149
102
{ACAD_REACTORS
330
141
102
}
330
141
100
AcDbScale
 70
     0
300
1:20
140
1.0
141
20.0
290
     0
  0
SCALE
  5
14A
102
{ACAD_REACTORS
330
141
102
}
330
141
100
AcDbScale
 70
     0
300
1:30
140
1.0
141
30.0
290
     0
  0
SCALE
  5
14B
102
{ACAD_REACTORS
330
141
102
}
330
141
100
AcDbScale
 70
     0
300
1:40
140
1.0
141
40.0
290
     0
  0
SCALE
  5
14C
102
{ACAD_REACTORS
330
141
102
}
330
141
100
AcDbScale
 70
     0
300
1:50
140
1.0
141
50.0
290
     0
  0
SCALE
  5
14D
102
{ACAD_REACTORS
330
141
102
}
330
141
100
AcDbScale
 70
     0
300
1:100
140
1.0
141
100.0
290
     0
  0
SCALE
  5
14E
102
{ACAD_REACTORS
330
141
102
}
330
141
100
AcDbScale
 70
     0
300
2:1
140
2.0
141
1.0
290
     0
  0
SCALE
  5
14F
102
{ACAD_REACTORS
330
141
102
}
330
141
100
AcDbScale
 70
     0
300
4:1
140
4.0
141
1.0
290
     0
  0
SCALE
  5
150
102
{ACAD_REACTORS
330
141
102
}
330
141
100
AcDbScale
 70
     0
300
8:1
140
8.0
141
1.0
290
     0
  0
SCALE
  5
151
102
{ACAD_REACTORS
330
141
102
}
330
141
100
AcDbScale
 70
     0
300
10:1
140
10.0
141
1.0
290
     0
  0
SCALE
  5
152
102
{ACAD_REACTORS
330
141
102
}
330
141
100
AcDbScale
 70
     0
300
100:1
140
100.0
141
1.0
290
     0
  0
SCALE
  5
153
102
{ACAD_REACTORS
330
141
102
}
330
141
100
AcDbScale
 70
     0
300
1/128" = 1'-0"
140
0.0078125
141
12.0
290
     0
  0
SCALE
  5
154
102
{ACAD_REACTORS
330
141
102
}
330
141
100
AcDbScale
 70
     0
300
1/64" = 1'-0"
140
0.015625
141
12.0
290
     0
  0
SCALE
  5
155
102
{ACAD_REACTORS
330
141
102
}
330
141
100
AcDbScale
 70
     0
300
1/32" = 1'-0"
140
0.03125
141
12.0
290
     0
  0
SCALE
  5
156
102
{ACAD_REACTORS
330
141
102
}
330
141
100
AcDbScale
 70
     0
300
1/16" = 1'-0"
140
0.0625
141
12.0
290
     0
  0
SCALE
  5
157
102
{ACAD_REACTORS
330
141
102
}
330
141
100
AcDbScale
 70
     0
300
3/32" = 1'-0"
140
0.09375
141
12.0
290
     0
  0
SCALE
  5
158
102
{ACAD_REACTORS
330
141
102
}
330
141
100
AcDbScale
 70
     0
300
1/8" = 1'-0"
140
0.125
141
12.0
290
     0
  0
SCALE
  5
159
102
{ACAD_REACTORS
330
141
102
}
330
141
100
AcDbScale
 70
     0
300
3/16" = 1'-0"
140
0.1875
141
12.0
290
     0
  0
SCALE
  5
15A
102
{ACAD_REACTORS
330
141
102
}
330
141
100
AcDbScale
 70
     0
300
1/4" = 1'-0"
140
0.25
141
12.0
290
     0
  0
SCALE
  5
15B
102
{ACAD_REACTORS
330
141
102
}
330
141
100
AcDbScale
 70
     0
300
3/8" = 1'-0"
140
0.375
141
12.0
290
     0
  0
SCALE
  5
15C
102
{ACAD_REACTORS
330
141
102
}
330
141
100
AcDbScale
 70
     0
300
1/2" = 1'-0"
140
0.5
141
12.0
290
     0
  0
SCALE
  5
15D
102
{ACAD_REACTORS
330
141
102
}
330
141
100
AcDbScale
 70
     0
300
3/4" = 1'-0"
140
0.75
141
12.0
290
     0
  0
SCALE
  5
15E
102
{ACAD_REACTORS
330
141
102
}
330
141
100
AcDbScale
 70
     0
300
1" = 1'-0"
140
1.0
141
12.0
290
     0
  0
SCALE
  5
15F
102
{ACAD_REACTORS
330
141
102
}
330
141
100
AcDbScale
 70
     0
300
1-1/2" = 1'-0"
140
1.5
141
12.0
290
     0
  0
SCALE
  5
160
102
{ACAD_REACTORS
330
141
102
}
330
141
100
AcDbScale
 70
     0
300
3" = 1'-0"
140
3.0
141
12.0
290
     0
  0
SCALE
  5
161
102
{ACAD_REACTORS
330
141
102
}
330
141
100
AcDbScale
 70
     0
300
6" = 1'-0"
140
6.0
141
12.0
290
     0
  0
SCALE
  5
162
102
{ACAD_REACTORS
330
141
102
}
330
141
100
AcDbScale
 70
     0
300
1'-0" = 1'-0"
140
12.0
141
12.0
290
     0
  0
DICTIONARYVAR
  5
187
102
{ACAD_REACTORS
330
183
102
}
330
183
100
DictionaryVariables
280
     0
  1
2
  0
DICTIONARYVAR
  5
188
102
{ACAD_REACTORS
330
183
102
}
330
183
100
DictionaryVariables
280
     0
  1
1
  0
ENDSEC
  0
EOF
