  0
SECTION
  2
HEADER
  9
$ACADVER
  1
AC1015
  9
$ACADMAINTVER
 70
     6
  9
$DWGCODEPAGE
  3
ANSI_1252
  9
$INSBASE
 10
0.0
 20
0.0
 30
0.0
  9
$EXTMIN
 10
-83.53257041851916
 20
-60.56886256829107
 30
0.0
  9
$EXTMAX
 10
99.86789420786118
 20
39.29900177279471
 30
0.0
  9
$LIMMIN
 10
-85.4633946
 20
-46.747989225
  9
$LIMMAX
 10
89.599080874
 20
30.810158113
  9
$ORTHOMODE
 70
     0
  9
$REGENMODE
 70
     1
  9
$FILLMODE
 70
     1
  9
$QTEXTMODE
 70
     0
  9
$MIRRTEXT
 70
     1
  9
$LTSCALE
 40
1.0
  9
$ATTMODE
 70
     1
  9
$TEXTSIZE
 40
0.2
  9
$TRACEWID
 40
0.05
  9
$TEXTSTYLE
  7
Standard
  9
$CLAYER
  8
SK1
  9
$CELTYPE
  6
ByLayer
  9
$CECOLOR
 62
   256
  9
$CELTSCALE
 40
1.0
  9
$DISPSILH
 70
     0
  9
$DIMSCALE
 40
1.0
  9
$DIMASZ
 40
0.18
  9
$DIMEXO
 40
0.0625
  9
$DIMDLI
 40
0.38
  9
$DIMRND
 40
0.0
  9
$DIMDLE
 40
0.0
  9
$DIMEXE
 40
0.18
  9
$DIMTP
 40
0.0
  9
$DIMTM
 40
0.0
  9
$DIMTXT
 40
0.18
  9
$DIMCEN
 40
0.09
  9
$DIMTSZ
 40
0.0
  9
$DIMTOL
 70
     0
  9
$DIMLIM
 70
     0
  9
$DIMTIH
 70
     1
  9
$DIMTOH
 70
     1
  9
$DIMSE1
 70
     0
  9
$DIMSE2
 70
     0
  9
$DIMTAD
 70
     0
  9
$DIMZIN
 70
     0
  9
$DIMBLK
  1

  9
$DIMASO
 70
     1
  9
$DIMSHO
 70
     1
  9
$DIMPOST
  1

  9
$DIMAPOST
  1

  9
$DIMALT
 70
     0
  9
$DIMALTD
 70
     2
  9
$DIMALTF
 40
25.4
  9
$DIMLFAC
 40
1.0
  9
$DIMTOFL
 70
     0
  9
$DIMTVP
 40
0.0
  9
$DIMTIX
 70
     0
  9
$DIMSOXD
 70
     0
  9
$DIMSAH
 70
     0
  9
$DIMBLK1
  1

  9
$DIMBLK2
  1

  9
$DIMSTYLE
  2
Standard
  9
$DIMCLRD
 70
     0
  9
$DIMCLRE
 70
     0
  9
$DIMCLRT
 70
     0
  9
$DIMTFAC
 40
1.0
  9
$DIMGAP
 40
0.09
  9
$DIMJUST
 70
     0
  9
$DIMSD1
 70
     0
  9
$DIMSD2
 70
     0
  9
$DIMTOLJ
 70
     1
  9
$DIMTZIN
 70
     0
  9
$DIMALTZ
 70
     0
  9
$DIMALTTZ
 70
     0
  9
$DIMUPT
 70
     0
  9
$DIMDEC
 70
     4
  9
$DIMTDEC
 70
     4
  9
$DIMALTU
 70
     2
  9
$DIMALTTD
 70
     2
  9
$DIMTXSTY
  7
Standard
  9
$DIMAUNIT
 70
     0
  9
$DIMADEC
 70
     0
  9
$DIMALTRND
 40
0.0
  9
$DIMAZIN
 70
     0
  9
$DIMDSEP
 70
    46
  9
$DIMATFIT
 70
     3
  9
$DIMFRAC
 70
     0
  9
$DIMLDRBLK
  1

  9
$DIMLUNIT
 70
     2
  9
$DIMLWD
 70
    -2
  9
$DIMLWE
 70
    -2
  9
$DIMTMOVE
 70
     2
  9
$LUNITS
 70
     2
  9
$LUPREC
 70
     4
  9
$SKETCHINC
 40
0.1
  9
$FILLETRAD
 40
0.5
  9
$AUNITS
 70
     2
  9
$AUPREC
 70
     0
  9
$MENU
  1
.
  9
$ELEVATION
 40
0.0
  9
$PELEVATION
 40
0.0
  9
$THICKNESS
 40
0.0
  9
$LIMCHECK
 70
     0
  9
$CHAMFERA
 40
0.5
  9
$CHAMFERB
 40
0.5
  9
$CHAMFERC
 40
1.0
  9
$CHAMFERD
 40
0.0
  9
$SKPOLY
 70
     0
  9
$TDCREATE
 40
2458327.549364618
  9
$TDUCREATE
 40
2458327.466031285
  9
$TDUPDATE
 40
2458589.610066447
  9
$TDUUPDATE
 40
2458589.526733113
  9
$TDINDWG
 40
0.0062623843
  9
$TDUSRTIMER
 40
0.0006570949
  9
$USRTIMER
 70
     1
  9
$ANGBASE
 50
0.0
  9
$ANGDIR
 70
     0
  9
$PDMODE
 70
     0
  9
$PDSIZE
 40
0.0
  9
$PLINEWID
 40
0.0
  9
$SPLFRAME
 70
     0
  9
$SPLINETYPE
 70
     6
  9
$SPLINESEGS
 70
     8
  9
$HANDSEED
  5
290
  9
$SURFTAB1
 70
     6
  9
$SURFTAB2
 70
     6
  9
$SURFTYPE
 70
     6
  9
$SURFU
 70
     6
  9
$SURFV
 70
     6
  9
$UCSBASE
  2

  9
$UCSNAME
  2

  9
$UCSORG
 10
0.0
 20
0.0
 30
0.0
  9
$UCSXDIR
 10
1.0
 20
0.0
 30
0.0
  9
$UCSYDIR
 10
0.0
 20
1.0
 30
0.0
  9
$UCSORTHOREF
  2

  9
$UCSORTHOVIEW
 70
     0
  9
$UCSORGTOP
 10
0.0
 20
0.0
 30
0.0
  9
$UCSORGBOTTOM
 10
0.0
 20
0.0
 30
0.0
  9
$UCSORGLEFT
 10
0.0
 20
0.0
 30
0.0
  9
$UCSORGRIGHT
 10
0.0
 20
0.0
 30
0.0
  9
$UCSORGFRONT
 10
0.0
 20
0.0
 30
0.0
  9
$UCSORGBACK
 10
0.0
 20
0.0
 30
0.0
  9
$PUCSBASE
  2

  9
$PUCSNAME
  2

  9
$PUCSORG
 10
0.0
 20
0.0
 30
0.0
  9
$PUCSXDIR
 10
1.0
 20
0.0
 30
0.0
  9
$PUCSYDIR
 10
0.0
 20
1.0
 30
0.0
  9
$PUCSORTHOREF
  2

  9
$PUCSORTHOVIEW
 70
     0
  9
$PUCSORGTOP
 10
0.0
 20
0.0
 30
0.0
  9
$PUCSORGBOTTOM
 10
0.0
 20
0.0
 30
0.0
  9
$PUCSORGLEFT
 10
0.0
 20
0.0
 30
0.0
  9
$PUCSORGRIGHT
 10
0.0
 20
0.0
 30
0.0
  9
$PUCSORGFRONT
 10
0.0
 20
0.0
 30
0.0
  9
$PUCSORGBACK
 10
0.0
 20
0.0
 30
0.0
  9
$USERI1
 70
     0
  9
$USERI2
 70
     0
  9
$USERI3
 70
     0
  9
$USERI4
 70
     0
  9
$USERI5
 70
     0
  9
$USERR1
 40
0.0
  9
$USERR2
 40
0.0
  9
$USERR3
 40
0.0
  9
$USERR4
 40
0.0
  9
$USERR5
 40
0.0
  9
$WORLDVIEW
 70
     1
  9
$SHADEDGE
 70
     3
  9
$SHADEDIF
 70
    70
  9
$TILEMODE
 70
     1
  9
$MAXACTVP
 70
    64
  9
$PINSBASE
 10
0.0
 20
0.0
 30
0.0
  9
$PLIMCHECK
 70
     0
  9
$PEXTMIN
 10
1.000000000000000E+20
 20
1.000000000000000E+20
 30
1.000000000000000E+20
  9
$PEXTMAX
 10
-1.000000000000000E+20
 20
-1.000000000000000E+20
 30
-1.000000000000000E+20
  9
$PLIMMIN
 10
0.0
 20
0.0
  9
$PLIMMAX
 10
0.0
 20
0.0
  9
$UNITMODE
 70
     0
  9
$VISRETAIN
 70
     1
  9
$PLINEGEN
 70
     0
  9
$PSLTSCALE
 70
     1
  9
$TREEDEPTH
 70
  3020
  9
$CMLSTYLE
  2
Standard
  9
$CMLJUST
 70
     0
  9
$CMLSCALE
 40
1.0
  9
$PROXYGRAPHICS
 70
     1
  9
$MEASUREMENT
 70
     0
  9
$CELWEIGHT
370
    -1
  9
$ENDCAPS
280
     0
  9
$JOINSTYLE
280
     0
  9
$LWDISPLAY
290
     0
  9
$INSUNITS
 70
     0
  9
$HYPERLINKBASE
  1

  9
$STYLESHEET
  1

  9
$XEDIT
290
     1
  9
$CEPSNTYPE
380
     0
  9
$PSTYLEMODE
290
     1
  9
$FINGERPRINTGUID
  2
{E49BB6DF-519E-47EE-A68F-00FA48339E40}
  9
$VERSIONGUID
  2
{FAEB1C32-E019-11D5-929B-00C0DF256EC4}
  9
$EXTNAMES
290
     1
  9
$PSVPSCALE
 40
0.0
  9
$OLESTARTUP
290
     0
  0
ENDSEC
  0
SECTION
  2
CLASSES
  0
CLASS
  1
ACDBDICTIONARYWDFLT
  2
AcDbDictionaryWithDefault
  3
ObjectDBX Classes
 90
        0
280
     0
281
     0
  0
CLASS
  1
SCALE
  2
AcDbScale
  3
ObjectDBX Classes
 90
     1153
280
     0
281
     0
  0
CLASS
  1
VISUALSTYLE
  2
AcDbVisualStyle
  3
ObjectDBX Classes
 90
     4095
280
     0
281
     0
  0
CLASS
  1
MATERIAL
  2
AcDbMaterial
  3
ObjectDBX Classes
 90
     1153
280
     0
281
     0
  0
CLASS
  1
DICTIONARYVAR
  2
AcDbDictionaryVar
  3
ObjectDBX Classes
 90
        0
280
     0
281
     0
  0
CLASS
  1
ACDBPLACEHOLDER
  2
AcDbPlaceHolder
  3
ObjectDBX Classes
 90
        0
280
     0
281
     0
  0
CLASS
  1
LAYOUT
  2
AcDbLayout
  3
ObjectDBX Classes
 90
        0
280
     0
281
     0
  0
CLASS
  1
TABLESTYLE
  2
AcDbTableStyle
  3
ObjectDBX Classes
 90
     4095
280
     0
281
     0
  0
CLASS
  1
MLEADERSTYLE
  2
AcDbMLeaderStyle
  3
ACDB_MLEADERSTYLE_CLASS
 90
     4095
280
     0
281
     0
  0
CLASS
  1
SUN
  2
AcDbSun
  3
SCENEOE
 90
     1153
280
     0
281
     0
  0
CLASS
  1
CELLSTYLEMAP
  2
AcDbCellStyleMap
  3
ObjectDBX Classes
 90
     1152
280
     0
281
     0
  0
ENDSEC
  0
SECTION
  2
TABLES
  0
TABLE
  2
VPORT
  5
8
330
0
100
AcDbSymbolTable
 70
     1
  0
VPORT
  5
17F
330
8
100
AcDbSymbolTableRecord
100
AcDbViewportTableRecord
  2
*Active
 70
     0
 10
0.0
 20
0.0
 11
1.0
 21
1.0
 12
40.69481886157047
 22
-35.2760615195082
 13
0.0
 23
0.0
 14
0.5
 24
0.5
 15
0.5
 25
0.5
 16
0.0
 26
0.0
 36
1.0
 17
0.0
 27
0.0
 37
0.0
 40
270.7640203773369
 41
1.70021645021645
 42
50.0
 43
0.0
 44
0.0
 50
0.0
 51
0.0
 71
    16
 72
   100
 73
     1
 74
     3
 75
     0
 76
     0
 77
     0
 78
     0
281
     0
 65
     1
110
0.0
120
0.0
130
0.0
111
1.0
121
0.0
131
0.0
112
0.0
122
1.0
132
0.0
 79
     0
146
0.0
  0
ENDTAB
  0
TABLE
  2
LTYPE
  5
5
330
0
100
AcDbSymbolTable
 70
     8
  0
LTYPE
  5
14
330
5
100
AcDbSymbolTableRecord
100
AcDbLinetypeTableRecord
  2
ByBlock
 70
     0
  3

 72
    65
 73
     0
 40
0.0
  0
LTYPE
  5
15
330
5
100
AcDbSymbolTableRecord
100
AcDbLinetypeTableRecord
  2
ByLayer
 70
     0
  3

 72
    65
 73
     0
 40
0.0
  0
LTYPE
  5
16
330
5
100
AcDbSymbolTableRecord
100
AcDbLinetypeTableRecord
  2
Continuous
 70
     0
  3
Solid line
 72
    65
 73
     0
 40
0.0
  0
LTYPE
  5
20
330
5
100
AcDbSymbolTableRecord
100
AcDbLinetypeTableRecord
  2
PUNKT
 70
     0
  3
..............
 72
    65
 73
     2
 40
1.5
 49
0.7
 74
     0
 49
-0.8
 74
     0
  0
LTYPE
  5
21
330
5
100
AcDbSymbolTableRecord
100
AcDbLinetypeTableRecord
  2
GESTRICHELT
 70
     0
  3
-- -- -- -- --
 72
    65
 73
     7
 40
2.8
 49
0.9
 74
     0
 49
0.0
 74
     0
 49
0.9
 74
     0
 49
0.0
 74
     0
 49
0.2
 74
     0
 49
0.0
 74
     0
 49
-0.8
 74
     0
  0
LTYPE
  5
22
330
5
100
AcDbSymbolTableRecord
100
AcDbLinetypeTableRecord
  2
STRICHPUNKT
 70
     0
  3
--.--.--.--.--
 72
    65
 73
     4
 40
8.8
 49
5.5
 74
     0
 49
-1.3
 74
     0
 49
0.7
 74
     0
 49
-1.3
 74
     0
  0
LTYPE
  5
25
330
5
100
AcDbSymbolTableRecord
100
AcDbLinetypeTableRecord
  2
PHANTOM
 70
     0
  3
--..--..--..--
 72
    65
 73
     6
 40
14.2
 49
7.0
 74
     0
 49
-1.8
 74
     0
 49
0.9
 74
     0
 49
-1.8
 74
     0
 49
0.9
 74
     0
 49
-1.8
 74
     0
  0
LTYPE
  5
1F7
330
5
100
AcDbSymbolTableRecord
100
AcDbLinetypeTableRecord
  2
DASH
 70
     0
  3
DASH _ _ _ _ _
 72
    65
 73
     2
 40
0.75
 49
0.4
 74
     0
 49
-0.35
 74
     0
  0
LTYPE
  5
1F8
330
5
100
AcDbSymbolTableRecord
100
AcDbLinetypeTableRecord
  2
LONGDASH_DASH
 70
     0
  3
LONGDASH_DASH __ . __ . __
 72
    65
 73
     4
 40
0.85
 49
0.4
 74
     0
 49
-0.2
 74
     0
 49
0.05
 74
     0
 49
-0.2
 74
     0
  0
LTYPE
  5
1F9
330
5
100
AcDbSymbolTableRecord
100
AcDbLinetypeTableRecord
  2
LONGDASH_DASH_DASH
 70
     0
  3
LONGDASH_DASH_DASH __ . . __ . . __
 72
    65
 73
     6
 40
1.1
 49
0.4
 74
     0
 49
-0.2
 74
     0
 49
0.05
 74
     0
 49
-0.2
 74
     0
 49
0.05
 74
     0
 49
-0.2
 74
     0
  0
ENDTAB
  0
TABLE
  2
LAYER
  5
2
102
{ACAD_XDICTIONARY
360
216
102
}
330
0
100
AcDbSymbolTable
 70
    15
  0
LAYER
  5
1C1
330
2
100
AcDbSymbolTableRecord
100
AcDbLayerTableRecord
  2
200
 70
     0
 62
     2
  6
Continuous
370
    50
390
F
  0
LAYER
  5
1FA
330
2
100
AcDbSymbolTableRecord
100
AcDbLayerTableRecord
  2
0
 70
     0
 62
     1
  6
Continuous
370
    -3
390
F
  0
LAYER
  5
1FB
330
2
100
AcDbSymbolTableRecord
100
AcDbLayerTableRecord
  2
1
 70
     0
 62
     4
  6
Continuous
370
    50
390
F
  0
LAYER
  5
1FC
330
2
100
AcDbSymbolTableRecord
100
AcDbLayerTableRecord
  2
2
 70
     0
 62
     7
  6
Continuous
370
    25
390
F
  0
LAYER
  5
1FD
330
2
100
AcDbSymbolTableRecord
100
AcDbLayerTableRecord
  2
3
 70
     0
 62
     1
  6
DASH
370
    35
390
F
  0
LAYER
  5
1FE
330
2
100
AcDbSymbolTableRecord
100
AcDbLayerTableRecord
  2
4
 70
     0
 62
     2
  6
LONGDASH_DASH
370
    25
390
F
  0
LAYER
  5
1FF
330
2
100
AcDbSymbolTableRecord
100
AcDbLayerTableRecord
  2
6
 70
     0
 62
     5
  6
Continuous
370
    -3
390
F
  0
LAYER
  5
200
330
2
100
AcDbSymbolTableRecord
100
AcDbLayerTableRecord
  2
CUT
 70
     0
 62
     1
  6
Continuous
370
    25
390
F
  0
LAYER
  5
201
330
2
100
AcDbSymbolTableRecord
100
AcDbLayerTableRecord
  2
NOCUT
 70
     0
 62
     7
  6
Continuous
370
    25
390
F
  0
LAYER
  5
202
330
2
100
AcDbSymbolTableRecord
100
AcDbLayerTableRecord
  2
SK1
 70
     0
 62
     4
  6
Continuous
370
    50
390
F
  0
LAYER
  5
203
330
2
100
AcDbSymbolTableRecord
100
AcDbLayerTableRecord
  2
SK2
 70
     0
 62
     7
  6
Continuous
370
    25
390
F
  0
LAYER
  5
204
330
2
100
AcDbSymbolTableRecord
100
AcDbLayerTableRecord
  2
SK3
 70
     0
 62
     1
  6
DASH
370
    35
390
F
  0
LAYER
  5
205
330
2
100
AcDbSymbolTableRecord
100
AcDbLayerTableRecord
  2
SK4
 70
     0
 62
     2
  6
LONGDASH_DASH
370
    25
390
F
  0
LAYER
  5
206
330
2
100
AcDbSymbolTableRecord
100
AcDbLayerTableRecord
  2
SK6
 70
     0
 62
     5
  6
Continuous
370
    -3
390
F
  0
LAYER
  5
207
330
2
100
AcDbSymbolTableRecord
100
AcDbLayerTableRecord
  2
INFTOTAL
 70
     0
 62
     9
  6
Continuous
370
    18
390
F
  0
ENDTAB
  0
TABLE
  2
STYLE
  5
3
330
0
100
AcDbSymbolTable
 70
     2
  0
STYLE
  5
11
330
3
100
AcDbSymbolTableRecord
100
AcDbTextStyleTableRecord
  2
Standard
 70
     0
 40
0.0
 41
1.0
 50
0.0
 71
     0
 42
0.2
  3
txt
  4

  0
STYLE
  5
1C0
330
3
100
AcDbSymbolTableRecord
100
AcDbTextStyleTableRecord
  2
BMG_Text
 70
     0
 40
3.5
 41
1.0
 50
0.0
 71
     0
 42
0.2
  3
monos.ttf
  4

1001
ACAD
1000
Monospac821 BT
1071
       49
  0
ENDTAB
  0
TABLE
  2
VIEW
  5
6
330
0
100
AcDbSymbolTable
 70
     0
  0
ENDTAB
  0
TABLE
  2
UCS
  5
7
330
0
100
AcDbSymbolTable
 70
     0
  0
ENDTAB
  0
TABLE
  2
APPID
  5
9
330
0
100
AcDbSymbolTable
 70
     1
  0
APPID
  5
12
330
9
100
AcDbSymbolTableRecord
100
AcDbRegAppTableRecord
  2
ACAD
 70
     0
  0
ENDTAB
  0
TABLE
  2
DIMSTYLE
  5
A
330
0
100
AcDbSymbolTable
 70
     1
100
AcDbDimStyleTable
  0
DIMSTYLE
105
28
330
A
100
AcDbSymbolTableRecord
100
AcDbDimStyleTableRecord
  2
Standard
 70
     0
178
     0
340
11
  0
ENDTAB
  0
TABLE
  2
BLOCK_RECORD
  5
1
330
0
100
AcDbSymbolTable
 70
     0
  0
BLOCK_RECORD
  5
1D
330
1
100
AcDbSymbolTableRecord
100
AcDbBlockTableRecord
  2
*Model_Space
340
1E
  0
BLOCK_RECORD
  5
1B
330
1
100
AcDbSymbolTableRecord
100
AcDbBlockTableRecord
  2
*Paper_Space
340
1C
  0
ENDTAB
  0
ENDSEC
  0
SECTION
  2
BLOCKS
  0
BLOCK
  5
1A9
330
1D
100
AcDbEntity
  8
0
100
AcDbBlockBegin
  2
*Model_Space
 70
     0
 10
0.0
 20
0.0
 30
0.0
  3
*Model_Space
  1

  0
ENDBLK
  5
1AA
330
1D
100
AcDbEntity
  8
0
100
AcDbBlockEnd
  0
BLOCK
  5
1A7
330
1B
100
AcDbEntity
 67
     1
  8
0
100
AcDbBlockBegin
  2
*Paper_Space
 70
     0
 10
0.0
 20
0.0
 30
0.0
  3
*Paper_Space
  1

  0
ENDBLK
  5
1A8
330
1B
100
AcDbEntity
 67
     1
  8
0
100
AcDbBlockEnd
  0
ENDSEC
  0
SECTION
  2
ENTITIES
  0
LINE
  5
29
330
1D
100
AcDbEntity
  8
1
100
AcDbLine
 10
0.5
 20
19.975
 30
0.0
 11
0.0
 21
19.475
 31
0.0
  0
LINE
  5
2A
330
1D
100
AcDbEntity
  8
1
100
AcDbLine
 10
0.0
 20
-19.475
 30
0.0
 11
0.5
 21
-19.975
 31
0.0
  0
LINE
  5
2B
330
1D
100
AcDbEntity
  8
1
100
AcDbLine
 10
19.57
 20
-19.975
 30
0.0
 11
19.97
 21
-19.575
 31
0.0
  0
LINE
  5
2C
330
1D
100
AcDbEntity
  8
1
100
AcDbLine
 10
19.97
 20
19.575
 30
0.0
 11
19.57
 21
19.975
 31
0.0
  0
LINE
  5
2D
330
1D
100
AcDbEntity
  8
1
100
AcDbLine
 10
18.104123402
 20
-19.975
 30
0.0
 11
19.57
 21
-19.975
 31
0.0
  0
LINE
  5
2E
330
1D
100
AcDbEntity
  8
1
100
AcDbLine
 10
19.57
 20
19.975
 30
0.0
 11
18.104123402
 21
19.975
 31
0.0
  0
LINE
  5
2F
330
1D
100
AcDbEntity
  8
1
100
AcDbLine
 10
0.5
 20
-19.975
 30
0.0
 11
13.935876598
 21
-19.975
 31
0.0
  0
LINE
  5
30
330
1D
100
AcDbEntity
  8
1
100
AcDbLine
 10
13.935876598
 20
19.975
 30
0.0
 11
0.5
 21
19.975
 31
0.0
  0
LINE
  5
31
330
1D
100
AcDbEntity
  8
1
100
AcDbLine
 10
18.104123402
 20
19.975
 30
0.0
 11
17.954123402
 21
19.825
 31
0.0
  0
LINE
  5
32
330
1D
100
AcDbEntity
  8
1
100
AcDbLine
 10
17.954123402
 20
-19.825
 30
0.0
 11
18.104123402
 21
-19.975
 31
0.0
  0
LINE
  5
33
330
1D
100
AcDbEntity
  8
1
100
AcDbLine
 10
13.935876598
 20
-19.975
 30
0.0
 11
14.085876598
 21
-19.825
 31
0.0
  0
LINE
  5
34
330
1D
100
AcDbEntity
  8
1
100
AcDbLine
 10
14.085876598
 20
19.825
 30
0.0
 11
13.935876598
 21
19.975
 31
0.0
  0
LINE
  5
35
330
1D
100
AcDbEntity
  8
1
100
AcDbLine
 10
17.954123402
 20
19.825
 30
0.0
 11
17.0575
 21
18.272002713
 31
0.0
  0
LINE
  5
36
330
1D
100
AcDbEntity
  8
1
100
AcDbLine
 10
17.0575
 20
-18.272002713
 30
0.0
 11
17.954123402
 21
-19.825
 31
0.0
  0
LINE
  5
37
330
1D
100
AcDbEntity
  8
1
100
AcDbLine
 10
14.085876598
 20
-19.825
 30
0.0
 11
14.9825
 21
-18.272002713
 31
0.0
  0
LINE
  5
38
330
1D
100
AcDbEntity
  8
1
100
AcDbLine
 10
14.9825
 20
18.272002713
 30
0.0
 11
14.085876598
 21
19.825
 31
0.0
  0
ARC
  5
39
330
1D
100
AcDbEntity
  8
1
100
AcDbCircle
 10
15.7325
 20
-18.125
 30
0.0
 40
0.75
100
AcDbArc
 50
90.0
 51
180.0
  0
ARC
  5
3A
330
1D
100
AcDbEntity
  8
1
100
AcDbCircle
 10
15.7325
 20
18.125
 30
0.0
 40
0.75
100
AcDbArc
 50
180.0
 51
270.0
  0
ARC
  5
3B
330
1D
100
AcDbEntity
  8
1
100
AcDbCircle
 10
16.3075
 20
-18.125
 30
0.0
 40
0.75
100
AcDbArc
 50
0.0
 51
90.0
  0
ARC
  5
3C
330
1D
100
AcDbEntity
  8
1
100
AcDbCircle
 10
16.3075
 20
18.125
 30
0.0
 40
0.75
100
AcDbArc
 50
270.0
 51
0.0
  0
LINE
  5
3D
330
1D
100
AcDbEntity
  8
1
100
AcDbLine
 10
15.7325
 20
-17.375
 30
0.0
 11
16.3075
 21
-17.375
 31
0.0
  0
LINE
  5
3E
330
1D
100
AcDbEntity
  8
1
100
AcDbLine
 10
16.3075
 20
17.375
 30
0.0
 11
15.7325
 21
17.375
 31
0.0
  0
ARC
  5
3F
330
1D
100
AcDbEntity
  8
1
100
AcDbCircle
 10
21.47
 20
-11.0
 30
0.0
 40
1.5
100
AcDbArc
 50
90.0
 51
180.0
  0
ARC
  5
40
330
1D
100
AcDbEntity
  8
1
100
AcDbCircle
 10
21.47
 20
11.0
 30
0.0
 40
1.5
100
AcDbArc
 50
180.0
 51
270.0
  0
ARC
  5
41
330
1D
100
AcDbEntity
  8
SK1
100
AcDbCircle
 10
-0.23
 20
-15.426943015
 30
0.0
 40
0.5
100
AcDbArc
 50
62.612892497
 51
105.0
  0
ARC
  5
42
330
1D
100
AcDbEntity
  8
SK1
100
AcDbCircle
 10
-0.23
 20
15.426943015
 30
0.0
 40
0.5
100
AcDbArc
 50
255.0
 51
297.387107503
  0
LINE
  5
43
330
1D
100
AcDbEntity
  8
SK1
100
AcDbLine
 10
-1.211523116
 20
15.172303251
 30
0.0
 11
-19.120029954
 21
14.275083469
 31
0.0
  0
LINE
  5
44
330
1D
100
AcDbEntity
  8
SK1
100
AcDbLine
 10
-19.120029954
 20
-14.275083469
 30
0.0
 11
-1.211523116
 21
-15.172303251
 31
0.0
  0
LINE
  5
45
330
1D
100
AcDbEntity
  8
SK1
100
AcDbLine
 10
-1.211523116
 20
-15.172303251
 30
0.0
 11
-0.359409523
 21
-14.943980102
 31
0.0
  0
LINE
  5
46
330
1D
100
AcDbEntity
  8
SK1
100
AcDbLine
 10
-0.359409523
 20
14.943980102
 30
0.0
 11
-1.211523116
 21
15.172303251
 31
0.0
  0
ARC
  5
47
330
1D
100
AcDbEntity
  8
SK1
100
AcDbCircle
 10
-19.08
 20
13.476085595
 30
0.0
 40
0.8
100
AcDbArc
 50
92.86813194100002
 51
167.856748693
  0
ARC
  5
48
330
1D
100
AcDbEntity
  8
SK1
100
AcDbCircle
 10
-19.08
 20
-13.476085595
 30
0.0
 40
0.8
100
AcDbArc
 50
192.143251307
 51
267.131868059
  0
ARC
  5
49
330
1D
100
AcDbEntity
  8
SK1
100
AcDbCircle
 10
-18.93
 20
-13.460822511
 30
0.0
 40
0.95
100
AcDbArc
 50
180.0
 51
191.140106377
  0
ARC
  5
4A
330
1D
100
AcDbEntity
  8
SK1
100
AcDbCircle
 10
-18.93
 20
13.460822511
 30
0.0
 40
0.95
100
AcDbArc
 50
168.859893623
 51
180.0
  0
LINE
  5
4B
330
1D
100
AcDbEntity
  8
1
100
AcDbLine
 10
0.5
 20
-19.975
 30
0.0
 11
0.5
 21
19.975
 31
0.0
  0
LINE
  5
4C
330
1D
100
AcDbEntity
  8
1
100
AcDbLine
 10
0.0
 20
-19.475
 30
0.0
 11
0.0
 21
19.475
 31
0.0
  0
LINE
  5
4D
330
1D
100
AcDbEntity
  8
1
100
AcDbLine
 10
19.57
 20
0.0
 30
0.0
 11
19.57
 21
-19.975
 31
0.0
  0
LINE
  5
4E
330
1D
100
AcDbEntity
  8
1
100
AcDbLine
 10
19.57
 20
19.975
 30
0.0
 11
19.57
 21
16.080364579
 31
0.0
  0
LINE
  5
4F
330
1D
100
AcDbEntity
  8
1
100
AcDbLine
 10
19.57
 20
11.85
 30
0.0
 11
19.57
 21
0.0
 31
0.0
  0
LINE
  5
50
330
1D
100
AcDbEntity
  8
1
100
AcDbLine
 10
19.97
 20
0.0
 30
0.0
 11
19.97
 21
-19.575
 31
0.0
  0
LINE
  5
51
330
1D
100
AcDbEntity
  8
1
100
AcDbLine
 10
19.97
 20
19.575
 30
0.0
 11
19.97
 21
0.0
 31
0.0
  0
LINE
  5
52
330
1D
100
AcDbEntity
  8
1
100
AcDbLine
 10
18.104123402
 20
19.975
 30
0.0
 11
18.104123402
 21
16.080364579
 31
0.0
  0
LINE
  5
53
330
1D
100
AcDbEntity
  8
1
100
AcDbLine
 10
18.104123402
 20
11.85
 30
0.0
 11
18.104123402
 21
-19.975
 31
0.0
  0
LINE
  5
54
330
1D
100
AcDbEntity
  8
1
100
AcDbLine
 10
13.935876598
 20
0.0
 30
0.0
 11
13.935876598
 21
11.85
 31
0.0
  0
LINE
  5
55
330
1D
100
AcDbEntity
  8
1
100
AcDbLine
 10
13.935876598
 20
16.080364579
 30
0.0
 11
13.935876598
 21
19.975
 31
0.0
  0
LINE
  5
56
330
1D
100
AcDbEntity
  8
1
100
AcDbLine
 10
13.935876598
 20
-19.975
 30
0.0
 11
13.935876598
 21
0.0
 31
0.0
  0
LINE
  5
57
330
1D
100
AcDbEntity
  8
1
100
AcDbLine
 10
17.0575
 20
-18.272002713
 30
0.0
 11
17.0575
 21
11.85
 31
0.0
  0
LINE
  5
58
330
1D
100
AcDbEntity
  8
1
100
AcDbLine
 10
17.0575
 20
13.908399733
 30
0.0
 11
17.0575
 21
18.272002713
 31
0.0
  0
LINE
  5
59
330
1D
100
AcDbEntity
  8
1
100
AcDbLine
 10
14.9825
 20
18.272002713
 30
0.0
 11
14.9825
 21
13.7147047
 31
0.0
  0
LINE
  5
5A
330
1D
100
AcDbEntity
  8
1
100
AcDbLine
 10
14.9825
 20
11.85
 30
0.0
 11
14.9825
 21
-18.272002713
 31
0.0
  0
LINE
  5
5B
330
1D
100
AcDbEntity
  8
SK1
100
AcDbLine
 10
-1.211523116
 20
15.172303251
 30
0.0
 11
-1.211523116
 21
-15.172303251
 31
0.0
  0
LINE
  5
5C
330
1D
100
AcDbEntity
  8
SK1
100
AcDbLine
 10
-19.88
 20
0.0
 30
0.0
 11
-19.88
 21
13.460822511
 31
0.0
  0
LINE
  5
5D
330
1D
100
AcDbEntity
  8
SK1
100
AcDbLine
 10
-19.88
 20
-13.460822511
 30
0.0
 11
-19.88
 21
0.0
 31
0.0
  0
LINE
  5
5E
330
1D
100
AcDbEntity
  8
SK3
100
AcDbLine
 10
-10.555029069
 20
0.0
 30
0.0
 11
-10.555029069
 21
-12.656846446
 31
0.0
  0
LINE
  5
5F
330
1D
100
AcDbEntity
  8
SK3
100
AcDbLine
 10
-10.555029069
 20
12.656846446
 30
0.0
 11
-10.555029069
 21
0.0
 31
0.0
  0
LINE
  5
60
330
1D
100
AcDbEntity
  8
SK3
100
AcDbLine
 10
-0.03
 20
0.0
 30
0.0
 11
-0.03
 21
10.521
 31
0.0
  0
LINE
  5
61
330
1D
100
AcDbEntity
  8
SK3
100
AcDbLine
 10
-0.03
 20
-10.521
 30
0.0
 11
-0.03
 21
0.0
 31
0.0
  0
LINE
  5
62
330
1D
100
AcDbEntity
  8
SK3
100
AcDbLine
 10
-11.959544599
 20
0.0
 30
0.0
 11
-11.959544599
 21
10.521
 31
0.0
  0
LINE
  5
63
330
1D
100
AcDbEntity
  8
SK3
100
AcDbLine
 10
-11.959544599
 20
-10.521
 30
0.0
 11
-11.959544599
 21
0.0
 31
0.0
  0
LINE
  5
64
330
1D
100
AcDbEntity
  8
SK1
100
AcDbLine
 10
-19.877762862
 20
-11.939107337
 30
0.0
 11
-19.877762862
 21
11.939107337
 31
0.0
  0
LINE
  5
65
330
1D
100
AcDbEntity
  8
3
100
AcDbLine
 10
7.97
 20
0.0
 30
0.0
 11
7.97
 21
9.875
 31
0.0
  0
LINE
  5
66
330
1D
100
AcDbEntity
  8
3
100
AcDbLine
 10
7.97
 20
-9.875
 30
0.0
 11
7.97
 21
0.0
 31
0.0
  0
LINE
  5
67
330
1D
100
AcDbEntity
  8
3
100
AcDbLine
 10
5.989149887
 20
0.0
 30
0.0
 11
5.989149887
 21
10.521
 31
0.0
  0
LINE
  5
68
330
1D
100
AcDbEntity
  8
3
100
AcDbLine
 10
5.989149887
 20
-10.521
 30
0.0
 11
5.989149887
 21
0.0
 31
0.0
  0
LINE
  5
69
330
1D
100
AcDbEntity
  8
3
100
AcDbLine
 10
14.32
 20
6.25
 30
0.0
 11
14.32
 21
-6.25
 31
0.0
  0
LINE
  5
6A
330
1D
100
AcDbEntity
  8
3
100
AcDbLine
 10
13.020961894
 20
5.5
 30
0.0
 11
13.020961894
 21
-5.5
 31
0.0
  0
LINE
  5
6B
330
1D
100
AcDbEntity
  8
3
100
AcDbLine
 10
15.82
 20
6.25
 30
0.0
 11
15.82
 21
-6.25
 31
0.0
  0
LINE
  5
6C
330
1D
100
AcDbEntity
  8
3
100
AcDbLine
 10
8.52
 20
5.5
 30
0.0
 11
8.52
 21
-5.5
 31
0.0
  0
ARC
  5
6D
330
1D
100
AcDbEntity
  8
SK3
100
AcDbCircle
 10
-10.266314598
 20
12.38
 30
0.0
 40
0.4
100
AcDbArc
 50
90.0
 51
136.202148065
  0
ARC
  5
6E
330
1D
100
AcDbEntity
  8
SK3
100
AcDbCircle
 10
-10.266314598
 20
-12.38
 30
0.0
 40
0.4
100
AcDbArc
 50
223.797851935
 51
270.0
  0
LINE
  5
6F
330
1D
100
AcDbEntity
  8
SK3
100
AcDbLine
 10
-4.211736362
 20
12.78
 30
0.0
 11
-10.266314598
 21
12.78
 31
0.0
  0
LINE
  5
70
330
1D
100
AcDbEntity
  8
SK3
100
AcDbLine
 10
-10.266314598
 20
-12.78
 30
0.0
 11
-4.211736362
 21
-12.78
 31
0.0
  0
ARC
  5
71
330
1D
100
AcDbEntity
  8
SK3
100
AcDbCircle
 10
-4.211736362
 20
7.78
 30
0.0
 40
5.0
100
AcDbArc
 50
33.243612877
 51
90.0
  0
ARC
  5
72
330
1D
100
AcDbEntity
  8
SK3
100
AcDbCircle
 10
-4.211736362
 20
-7.78
 30
0.0
 40
5.0
100
AcDbArc
 50
270.0
 51
326.756387123
  0
ARC
  5
73
330
1D
100
AcDbEntity
  8
SK3
100
AcDbCircle
 10
-10.504900249
 20
-12.26
 30
0.0
 40
0.4
100
AcDbArc
 50
209.75
 51
262.800645841
  0
ARC
  5
74
330
1D
100
AcDbEntity
  8
SK3
100
AcDbCircle
 10
-10.504900249
 20
12.26
 30
0.0
 40
0.4
100
AcDbArc
 50
97.19935415899998
 51
150.25
  0
LINE
  5
75
330
1D
100
AcDbEntity
  8
SK3
100
AcDbLine
 10
-10.852179775
 20
12.458486601
 30
0.0
 11
-11.959544599
 21
10.521
 31
0.0
  0
LINE
  5
76
330
1D
100
AcDbEntity
  8
SK3
100
AcDbLine
 10
-11.959544599
 20
-10.521
 30
0.0
 11
-10.852179775
 21
-12.458486601
 31
0.0
  0
ARC
  5
77
330
1D
100
AcDbEntity
  8
SK3
100
AcDbCircle
 10
-18.38
 20
-12.021
 30
0.0
 40
1.5
100
AcDbArc
 50
129.594068227
 51
176.870374669
  0
ARC
  5
78
330
1D
100
AcDbEntity
  8
SK3
100
AcDbCircle
 10
-18.38
 20
12.021
 30
0.0
 40
1.5
100
AcDbArc
 50
183.129625331
 51
230.405931773
  0
ARC
  5
79
330
1D
100
AcDbEntity
  8
3
100
AcDbCircle
 10
6.97
 20
-9.875
 30
0.0
 40
1.0
100
AcDbArc
 50
245.0
 51
0.0
  0
ARC
  5
7A
330
1D
100
AcDbEntity
  8
3
100
AcDbCircle
 10
6.97
 20
9.875
 30
0.0
 40
1.0
100
AcDbArc
 50
0.0
 51
115.0
  0
LINE
  5
7B
330
1D
100
AcDbEntity
  8
SK3
100
AcDbLine
 10
-19.336016324
 20
-10.865131154
 30
0.0
 11
-18.903003622
 21
-10.615131154
 31
0.0
  0
LINE
  5
7C
330
1D
100
AcDbEntity
  8
SK3
100
AcDbLine
 10
-18.903003622
 20
10.615131154
 30
0.0
 11
-19.336016324
 21
10.865131154
 31
0.0
  0
LINE
  5
7D
330
1D
100
AcDbEntity
  8
3
100
AcDbLine
 10
6.547381738
 20
10.781307787
 30
0.0
 11
5.989149887
 21
10.521
 31
0.0
  0
LINE
  5
7E
330
1D
100
AcDbEntity
  8
3
100
AcDbLine
 10
5.989149887
 20
-10.521
 30
0.0
 11
6.547381738
 21
-10.781307787
 31
0.0
  0
ARC
  5
7F
330
1D
100
AcDbEntity
  8
SK3
100
AcDbCircle
 10
-18.38
 20
-12.021
 30
0.0
 40
1.5
100
AcDbArc
 50
90.0
 51
110.405931773
  0
ARC
  5
80
330
1D
100
AcDbEntity
  8
SK3
100
AcDbCircle
 10
-18.38
 20
12.021
 30
0.0
 40
1.5
100
AcDbArc
 50
249.594068227
 51
270.0
  0
LINE
  5
81
330
1D
100
AcDbEntity
  8
SK3
100
AcDbLine
 10
-18.38
 20
-10.521
 30
0.0
 11
-11.959544599
 21
-10.521
 31
0.0
  0
LINE
  5
82
330
1D
100
AcDbEntity
  8
SK3
100
AcDbLine
 10
-11.959544599
 20
10.521
 30
0.0
 11
-18.38
 21
10.521
 31
0.0
  0
LINE
  5
83
330
1D
100
AcDbEntity
  8
3
100
AcDbLine
 10
0.0
 20
-10.521
 30
0.0
 11
5.989149887
 21
-10.521
 31
0.0
  0
LINE
  5
84
330
1D
100
AcDbEntity
  8
3
100
AcDbLine
 10
5.989149887
 20
10.521
 30
0.0
 11
0.0
 21
10.521
 31
0.0
  0
LINE
  5
85
330
1D
100
AcDbEntity
  8
3
100
AcDbLine
 10
14.32
 20
6.25
 30
0.0
 11
13.020961894
 21
5.5
 31
0.0
  0
LINE
  5
86
330
1D
100
AcDbEntity
  8
3
100
AcDbLine
 10
13.020961894
 20
-5.5
 30
0.0
 11
14.32
 21
-6.25
 31
0.0
  0
LINE
  5
87
330
1D
100
AcDbEntity
  8
3
100
AcDbLine
 10
15.82
 20
6.25
 30
0.0
 11
14.32
 21
6.25
 31
0.0
  0
LINE
  5
88
330
1D
100
AcDbEntity
  8
3
100
AcDbLine
 10
14.32
 20
-6.25
 30
0.0
 11
15.82
 21
-6.25
 31
0.0
  0
LINE
  5
89
330
1D
100
AcDbEntity
  8
3
100
AcDbLine
 10
7.97
 20
-6.05
 30
0.0
 11
8.52
 21
-5.5
 31
0.0
  0
LINE
  5
8A
330
1D
100
AcDbEntity
  8
3
100
AcDbLine
 10
8.52
 20
5.5
 30
0.0
 11
7.97
 21
6.05
 31
0.0
  0
LINE
  5
8B
330
1D
100
AcDbEntity
  8
3
100
AcDbLine
 10
13.020961894
 20
5.5
 30
0.0
 11
8.52
 21
5.5
 31
0.0
  0
LINE
  5
8C
330
1D
100
AcDbEntity
  8
3
100
AcDbLine
 10
8.52
 20
-5.5
 30
0.0
 11
13.020961894
 21
-5.5
 31
0.0
  0
LINE
  5
8D
330
1D
100
AcDbEntity
  8
3
100
AcDbLine
 10
17.5
 20
2.5
 30
0.0
 11
15.82
 21
2.5
 31
0.0
  0
LINE
  5
8E
330
1D
100
AcDbEntity
  8
3
100
AcDbLine
 10
15.82
 20
-2.5
 30
0.0
 11
17.5
 21
-2.5
 31
0.0
  0
LINE
  5
8F
330
1D
100
AcDbEntity
  8
SK4
100
AcDbLine
 10
-21.22859811
 20
0.0
 30
0.0
 11
33.548350317
 21
0.0
 31
0.0
  0
LINE
  5
90
330
1D
100
AcDbEntity
  8
SK3
100
AcDbLine
 10
-4.650696
 20
15.0
 30
0.0
 11
-4.650696
 21
-15.0
 31
0.0
  0
LINE
  5
91
330
1D
100
AcDbEntity
  8
SK2
100
AcDbLine
 10
-26.919611176
 20
-15.0
 30
0.0
 11
-4.650696
 21
-15.0
 31
0.0
  0
LINE
  5
92
330
1D
100
AcDbEntity
  8
SK2
100
AcDbLine
 10
-24.919611176
 20
-15.0
 30
0.0
 11
-25.369611176
 21
-11.5
 31
0.0
  0
LINE
  5
93
330
1D
100
AcDbEntity
  8
SK2
100
AcDbLine
 10
-25.369611176
 20
-11.5
 30
0.0
 11
-24.469611176
 21
-11.5
 31
0.0
  0
LINE
  5
94
330
1D
100
AcDbEntity
  8
SK2
100
AcDbLine
 10
-24.469611176
 20
-11.5
 30
0.0
 11
-24.919611176
 21
-15.0
 31
0.0
  0
LINE
  5
95
330
1D
100
AcDbEntity
  8
SK2
100
AcDbLine
 10
-24.919611176
 20
-11.6
 30
0.0
 11
-24.919611176
 21
-14.9
 31
0.0
  0
LINE
  5
96
330
1D
100
AcDbEntity
  8
SK2
100
AcDbLine
 10
-24.719611176
 20
-11.6
 30
0.0
 11
-24.719611176
 21
-13.344444444
 31
0.0
  0
LINE
  5
97
330
1D
100
AcDbEntity
  8
SK2
100
AcDbLine
 10
-25.119611176
 20
-11.6
 30
0.0
 11
-25.119611176
 21
-13.344444444
 31
0.0
  0
LINE
  5
98
330
1D
100
AcDbEntity
  8
SK2
100
AcDbLine
 10
-24.519611176
 20
-11.6
 30
0.0
 11
-24.519611176
 21
-11.788888889
 31
0.0
  0
LINE
  5
99
330
1D
100
AcDbEntity
  8
SK2
100
AcDbLine
 10
-25.319611176
 20
-11.6
 30
0.0
 11
-25.319611176
 21
-11.788888889
 31
0.0
  0
LINE
  5
9A
330
1D
100
AcDbEntity
  8
SK2
100
AcDbLine
 10
-26.919611176
 20
15.0
 30
0.0
 11
-4.650696
 21
15.0
 31
0.0
  0
LINE
  5
9B
330
1D
100
AcDbEntity
  8
SK2
100
AcDbLine
 10
-24.919611176
 20
15.0
 30
0.0
 11
-24.469611176
 21
11.5
 31
0.0
  0
LINE
  5
9C
330
1D
100
AcDbEntity
  8
SK2
100
AcDbLine
 10
-24.469611176
 20
11.5
 30
0.0
 11
-25.369611176
 21
11.5
 31
0.0
  0
LINE
  5
9D
330
1D
100
AcDbEntity
  8
SK2
100
AcDbLine
 10
-25.369611176
 20
11.5
 30
0.0
 11
-24.919611176
 21
15.0
 31
0.0
  0
LINE
  5
9E
330
1D
100
AcDbEntity
  8
SK2
100
AcDbLine
 10
-24.919611176
 20
11.6
 30
0.0
 11
-24.919611176
 21
14.9
 31
0.0
  0
LINE
  5
9F
330
1D
100
AcDbEntity
  8
SK2
100
AcDbLine
 10
-25.119611176
 20
11.6
 30
0.0
 11
-25.119611176
 21
13.344444444
 31
0.0
  0
LINE
  5
A0
330
1D
100
AcDbEntity
  8
SK2
100
AcDbLine
 10
-24.719611176
 20
11.6
 30
0.0
 11
-24.719611176
 21
13.344444444
 31
0.0
  0
LINE
  5
A1
330
1D
100
AcDbEntity
  8
SK2
100
AcDbLine
 10
-25.319611176
 20
11.6
 30
0.0
 11
-25.319611176
 21
11.788888889
 31
0.0
  0
LINE
  5
A2
330
1D
100
AcDbEntity
  8
SK2
100
AcDbLine
 10
-24.519611176
 20
11.6
 30
0.0
 11
-24.519611176
 21
11.788888889
 31
0.0
  0
LINE
  5
A3
330
1D
100
AcDbEntity
  8
SK2
100
AcDbLine
 10
-24.919611176
 20
-11.5
 30
0.0
 11
-24.919611176
 21
11.5
 31
0.0
  0
TEXT
  5
A4
330
1D
100
AcDbEntity
  8
SK2
100
AcDbText
 10
-26.419611176
 20
0.276718415
 30
0.0
 40
3.5
  1
30
 50
90.0
  7
BMG_Text
100
AcDbText
  0
CIRCLE
  5
A5
330
1D
100
AcDbEntity
  8
SK2
100
AcDbCircle
 10
-27.669611176
 20
-1.973281585
 30
0.0
 40
1.25
  0
LINE
  5
A6
330
1D
100
AcDbEntity
  8
SK2
100
AcDbLine
 10
-26.419611176
 20
-3.223281585
 30
0.0
 11
-28.919611176
 21
-0.723281585
 31
0.0
  0
LINE
  5
A7
330
1D
100
AcDbEntity
  8
2
100
AcDbLine
 10
0.0
 20
27.049784279
 30
0.0
 11
0.0
 21
19.475
 31
0.0
  0
LINE
  5
A8
330
1D
100
AcDbEntity
  8
2
100
AcDbLine
 10
0.0
 20
25.049784279
 30
0.0
 11
3.500000005
 21
25.499784236
 31
0.0
  0
LINE
  5
A9
330
1D
100
AcDbEntity
  8
2
100
AcDbLine
 10
3.500000005
 20
25.499784236
 30
0.0
 11
3.499999995
 21
24.599784236
 31
0.0
  0
LINE
  5
AA
330
1D
100
AcDbEntity
  8
2
100
AcDbLine
 10
3.499999995
 20
24.599784236
 30
0.0
 11
0.0
 21
25.049784279
 31
0.0
  0
LINE
  5
AB
330
1D
100
AcDbEntity
  8
2
100
AcDbLine
 10
3.4
 20
25.049784238
 30
0.0
 11
0.1
 21
25.049784278
 31
0.0
  0
LINE
  5
AC
330
1D
100
AcDbEntity
  8
2
100
AcDbLine
 10
3.399999998
 20
24.849784238
 30
0.0
 11
1.655555553
 21
24.849784259
 31
0.0
  0
LINE
  5
AD
330
1D
100
AcDbEntity
  8
2
100
AcDbLine
 10
3.400000002
 20
25.249784238
 30
0.0
 11
1.655555558
 21
25.249784259
 31
0.0
  0
LINE
  5
AE
330
1D
100
AcDbEntity
  8
2
100
AcDbLine
 10
3.399999995
 20
24.649784238
 30
0.0
 11
3.211111106
 21
24.64978424
 31
0.0
  0
LINE
  5
AF
330
1D
100
AcDbEntity
  8
2
100
AcDbLine
 10
3.400000005
 20
25.449784238
 30
0.0
 11
3.211111116
 21
25.44978424
 31
0.0
  0
LINE
  5
B0
330
1D
100
AcDbEntity
  8
2
100
AcDbLine
 10
31.5
 20
27.049783897
 30
0.0
 11
31.5
 21
10.7
 31
0.0
  0
LINE
  5
B1
330
1D
100
AcDbEntity
  8
2
100
AcDbLine
 10
31.5
 20
25.049783897
 30
0.0
 11
27.999999995
 21
24.59978394
 31
0.0
  0
LINE
  5
B2
330
1D
100
AcDbEntity
  8
2
100
AcDbLine
 10
27.999999995
 20
24.59978394
 30
0.0
 11
28.000000005
 21
25.49978394
 31
0.0
  0
LINE
  5
B3
330
1D
100
AcDbEntity
  8
2
100
AcDbLine
 10
28.000000005
 20
25.49978394
 30
0.0
 11
31.5
 21
25.049783897
 31
0.0
  0
LINE
  5
B4
330
1D
100
AcDbEntity
  8
2
100
AcDbLine
 10
28.1
 20
25.049783939
 30
0.0
 11
31.4
 21
25.049783899
 31
0.0
  0
LINE
  5
B5
330
1D
100
AcDbEntity
  8
2
100
AcDbLine
 10
28.100000002
 20
25.249783939
 30
0.0
 11
29.844444447
 21
25.249783917
 31
0.0
  0
LINE
  5
B6
330
1D
100
AcDbEntity
  8
2
100
AcDbLine
 10
28.099999998
 20
24.849783939
 30
0.0
 11
29.844444442
 21
24.849783917
 31
0.0
  0
LINE
  5
B7
330
1D
100
AcDbEntity
  8
2
100
AcDbLine
 10
28.100000005
 20
25.449783939
 30
0.0
 11
28.288888894
 21
25.449783936
 31
0.0
  0
LINE
  5
B8
330
1D
100
AcDbEntity
  8
2
100
AcDbLine
 10
28.099999995
 20
24.649783939
 30
0.0
 11
28.288888884
 21
24.649783936
 31
0.0
  0
LINE
  5
B9
330
1D
100
AcDbEntity
  8
2
100
AcDbLine
 10
3.5
 20
25.049784236
 30
0.0
 11
28.0
 21
25.04978394
 31
0.0
  0
TEXT
  5
BA
330
1D
100
AcDbEntity
  8
2
100
AcDbText
 10
13.155624666
 20
26.54978412
 30
0.0
 40
3.5
  1
31.5
 50
359.999999306
  7
BMG_Text
100
AcDbText
  0
LINE
  5
BB
330
1D
100
AcDbEntity
  8
2
100
AcDbLine
 10
0.0
 20
-29.538983917
 30
0.0
 11
0.0
 21
-19.475
 31
0.0
  0
LINE
  5
BC
330
1D
100
AcDbEntity
  8
2
100
AcDbLine
 10
0.0
 20
-27.538983917
 30
0.0
 11
3.5
 21
-27.088983917
 31
0.0
  0
LINE
  5
BD
330
1D
100
AcDbEntity
  8
2
100
AcDbLine
 10
3.5
 20
-27.088983917
 30
0.0
 11
3.5
 21
-27.988983917
 31
0.0
  0
LINE
  5
BE
330
1D
100
AcDbEntity
  8
2
100
AcDbLine
 10
3.5
 20
-27.988983917
 30
0.0
 11
0.0
 21
-27.538983917
 31
0.0
  0
LINE
  5
BF
330
1D
100
AcDbEntity
  8
2
100
AcDbLine
 10
3.4
 20
-27.538983917
 30
0.0
 11
0.1
 21
-27.538983917
 31
0.0
  0
LINE
  5
C0
330
1D
100
AcDbEntity
  8
2
100
AcDbLine
 10
3.4
 20
-27.738983917
 30
0.0
 11
1.655555556
 21
-27.738983917
 31
0.0
  0
LINE
  5
C1
330
1D
100
AcDbEntity
  8
2
100
AcDbLine
 10
3.4
 20
-27.338983917
 30
0.0
 11
1.655555556
 21
-27.338983917
 31
0.0
  0
LINE
  5
C2
330
1D
100
AcDbEntity
  8
2
100
AcDbLine
 10
3.4
 20
-27.938983917
 30
0.0
 11
3.211111111
 21
-27.938983917
 31
0.0
  0
LINE
  5
C3
330
1D
100
AcDbEntity
  8
2
100
AcDbLine
 10
3.4
 20
-27.138983917
 30
0.0
 11
3.211111111
 21
-27.138983917
 31
0.0
  0
LINE
  5
C4
330
1D
100
AcDbEntity
  8
2
100
AcDbLine
 10
24.0
 20
-29.538983917
 30
0.0
 11
24.0
 21
-19.475
 31
0.0
  0
LINE
  5
C5
330
1D
100
AcDbEntity
  8
2
100
AcDbLine
 10
24.0
 20
-27.538983917
 30
0.0
 11
20.5
 21
-27.988983917
 31
0.0
  0
LINE
  5
C6
330
1D
100
AcDbEntity
  8
2
100
AcDbLine
 10
20.5
 20
-27.988983917
 30
0.0
 11
20.5
 21
-27.088983917
 31
0.0
  0
LINE
  5
C7
330
1D
100
AcDbEntity
  8
2
100
AcDbLine
 10
20.5
 20
-27.088983917
 30
0.0
 11
24.0
 21
-27.538983917
 31
0.0
  0
LINE
  5
C8
330
1D
100
AcDbEntity
  8
2
100
AcDbLine
 10
20.6
 20
-27.538983917
 30
0.0
 11
23.9
 21
-27.538983917
 31
0.0
  0
LINE
  5
C9
330
1D
100
AcDbEntity
  8
2
100
AcDbLine
 10
20.6
 20
-27.338983917
 30
0.0
 11
22.344444444
 21
-27.338983917
 31
0.0
  0
LINE
  5
CA
330
1D
100
AcDbEntity
  8
2
100
AcDbLine
 10
20.6
 20
-27.738983917
 30
0.0
 11
22.344444444
 21
-27.738983917
 31
0.0
  0
LINE
  5
CB
330
1D
100
AcDbEntity
  8
2
100
AcDbLine
 10
20.6
 20
-27.138983917
 30
0.0
 11
20.788888889
 21
-27.138983917
 31
0.0
  0
LINE
  5
CC
330
1D
100
AcDbEntity
  8
2
100
AcDbLine
 10
20.6
 20
-27.938983917
 30
0.0
 11
20.788888889
 21
-27.938983917
 31
0.0
  0
LINE
  5
CD
330
1D
100
AcDbEntity
  8
2
100
AcDbLine
 10
3.5
 20
-27.538983917
 30
0.0
 11
20.5
 21
-27.538983917
 31
0.0
  0
TEXT
  5
CE
330
1D
100
AcDbEntity
  8
2
100
AcDbText
 10
10.335312232
 20
-26.038983917
 30
0.0
 40
3.5
  1
24
  7
BMG_Text
100
AcDbText
  0
LINE
  5
CF
330
1D
100
AcDbEntity
  8
2
100
AcDbLine
 10
24.0
 20
-29.526071167
 30
0.0
 11
24.0
 21
-19.475
 31
0.0
  0
LINE
  5
D0
330
1D
100
AcDbEntity
  8
2
100
AcDbLine
 10
24.0
 20
-27.526071167
 30
0.0
 11
27.5
 21
-27.076071167
 31
0.0
  0
LINE
  5
D1
330
1D
100
AcDbEntity
  8
2
100
AcDbLine
 10
27.5
 20
-27.076071167
 30
0.0
 11
27.5
 21
-27.976071167
 31
0.0
  0
LINE
  5
D2
330
1D
100
AcDbEntity
  8
2
100
AcDbLine
 10
27.5
 20
-27.976071167
 30
0.0
 11
24.0
 21
-27.526071167
 31
0.0
  0
LINE
  5
D3
330
1D
100
AcDbEntity
  8
2
100
AcDbLine
 10
27.4
 20
-27.526071167
 30
0.0
 11
24.1
 21
-27.526071167
 31
0.0
  0
LINE
  5
D4
330
1D
100
AcDbEntity
  8
2
100
AcDbLine
 10
27.4
 20
-27.726071167
 30
0.0
 11
25.655555556
 21
-27.726071167
 31
0.0
  0
LINE
  5
D5
330
1D
100
AcDbEntity
  8
2
100
AcDbLine
 10
27.4
 20
-27.326071167
 30
0.0
 11
25.655555556
 21
-27.326071167
 31
0.0
  0
LINE
  5
D6
330
1D
100
AcDbEntity
  8
2
100
AcDbLine
 10
27.4
 20
-27.926071167
 30
0.0
 11
27.211111111
 21
-27.926071167
 31
0.0
  0
LINE
  5
D7
330
1D
100
AcDbEntity
  8
2
100
AcDbLine
 10
27.4
 20
-27.126071167
 30
0.0
 11
27.211111111
 21
-27.126071167
 31
0.0
  0
LINE
  5
D8
330
1D
100
AcDbEntity
  8
2
100
AcDbLine
 10
27.5
 20
-27.526071167
 30
0.0
 11
63.6
 21
-27.526071167
 31
0.0
  0
TEXT
  5
D9
330
1D
100
AcDbEntity
  8
2
100
AcDbText
 10
70.65725153173258
 20
-26.026071167
 30
0.0
 40
3.5
  1
40
  7
BMG_Text
100
AcDbText
  0
TEXT
  5
DA
330
1D
100
AcDbEntity
  8
2
100
AcDbText
 10
31.025312057
 20
-26.026071167
 30
0.0
 40
3.5
  1
Ausdrehtiefe
  7
BMG_Text
100
AcDbText
  0
TEXT
  5
DB
330
1D
100
AcDbEntity
  8
SK6
100
AcDbText
 10
74.56220584384337
 20
-57.08270086807599
 30
0.0
 40
3.5
  1
324.112F
  7
BMG_Text
100
AcDbText
  0
LINE
  5
DC
330
1D
100
AcDbEntity
  8
SK6
100
AcDbLine
 10
-25.624317386
 20
-30.237599971
 30
0.0
 11
-25.624317386
 21
-32.307592041
 31
0.0
  0
ARC
  5
DD
330
1D
100
AcDbEntity
  8
SK6
100
AcDbCircle
 10
-28.504303196
 20
-33.387601501
 30
0.0
 40
1.08000004
100
AcDbArc
 50
90.00000763
 51
206.54360962
  0
LINE
  5
DE
330
1D
100
AcDbEntity
  8
SK6
100
AcDbLine
 10
-28.504303196
 20
-32.307622551
 30
0.0
 11
-25.624305936
 21
-32.307622551
 31
0.0
  0
ARC
  5
DF
330
1D
100
AcDbEntity
  8
SK6
100
AcDbCircle
 10
-29.674312806
 20
-32.937596921
 30
0.0
 40
2.70000005
100
AcDbArc
 50
90.00000763
 51
206.5436554
  0
ARC
  5
E0
330
1D
100
AcDbEntity
  8
SK6
100
AcDbCircle
 10
-28.954296326
 20
-42.837606071
 30
0.0
 40
1.08000004
100
AcDbArc
 50
270.0
 51
26.54360962
  0
LINE
  5
E1
330
1D
100
AcDbEntity
  8
SK6
100
AcDbLine
 10
-28.954296326
 20
-43.917607911
 30
0.0
 11
-32.374294496
 21
-43.917607911
 31
0.0
  0
LINE
  5
E2
330
1D
100
AcDbEntity
  8
SK6
100
AcDbLine
 10
-32.089714266
 20
-34.144170411
 30
0.0
 11
-27.988147946
 21
-42.354962951
 31
0.0
  0
ARC
  5
E3
330
1D
100
AcDbEntity
  8
SK6
100
AcDbCircle
 10
-27.784309606
 20
-43.287610651
 30
0.0
 40
2.70000005
100
AcDbArc
 50
270.0
 51
26.54364014
  0
LINE
  5
E4
330
1D
100
AcDbEntity
  8
SK6
100
AcDbLine
 10
-29.470470646
 20
-33.870229371
 30
0.0
 11
-25.368900516
 21
-42.081029541
 31
0.0
  0
LINE
  5
E5
330
1D
100
AcDbEntity
  8
SK6
100
AcDbLine
 10
-32.374317386
 20
-43.917607911
 30
0.0
 11
-32.374317386
 21
-45.987615231
 31
0.0
  0
LINE
  5
E6
330
1D
100
AcDbEntity
  8
SK6
100
AcDbLine
 10
-32.374317386
 20
-45.987615231
 30
0.0
 11
-27.784313416
 21
-45.987615231
 31
0.0
  0
LINE
  5
E7
330
1D
100
AcDbEntity
  8
SK6
100
AcDbLine
 10
-22.924312806
 20
-45.987615231
 30
0.0
 11
-22.924312806
 21
-30.237615231
 31
0.0
  0
LINE
  5
E8
330
1D
100
AcDbEntity
  8
SK6
100
AcDbLine
 10
-14.644306396
 20
-45.987615231
 30
0.0
 11
-14.644306396
 21
-30.237615231
 31
0.0
  0
LINE
  5
E9
330
1D
100
AcDbEntity
  8
SK6
100
AcDbLine
 10
-14.644306396
 20
-45.987615231
 30
0.0
 11
-11.944313266
 21
-45.987615231
 31
0.0
  0
LINE
  5
EA
330
1D
100
AcDbEntity
  8
SK6
100
AcDbLine
 10
-11.944313266
 20
-45.987615231
 30
0.0
 11
-11.944313266
 21
-39.147618891
 31
0.0
  0
ARC
  5
EB
330
1D
100
AcDbEntity
  8
SK6
100
AcDbCircle
 10
-10.594299536
 20
-40.227605461
 30
0.0
 40
1.08000004
100
AcDbArc
 50
0.0
 51
90.00000763
  0
LINE
  5
EC
330
1D
100
AcDbEntity
  8
SK6
100
AcDbLine
 10
-10.594299536
 20
-39.147603631
 30
0.0
 11
-11.944301816
 21
-39.147603631
 31
0.0
  0
LINE
  5
ED
330
1D
100
AcDbEntity
  8
SK6
100
AcDbLine
 10
-9.514320586
 20
-43.467610961
 30
0.0
 11
-9.514320586
 21
-44.457601191
 31
0.0
  0
ARC
  5
EE
330
1D
100
AcDbEntity
  8
SK6
100
AcDbCircle
 10
-4.384323336
 20
-44.457608821
 30
0.0
 40
2.51999998
100
AcDbArc
 50
180.0
 51
217.38319397
  0
ARC
  5
EF
330
1D
100
AcDbEntity
  8
SK6
100
AcDbCircle
 10
-6.994331576
 20
-44.457608821
 30
0.0
 40
2.51999998
100
AcDbArc
 50
180.0
 51
217.38319397
  0
LINE
  5
F0
330
1D
100
AcDbEntity
  8
SK6
100
AcDbLine
 10
-6.476715306
 20
-45.987615231
 30
0.0
 11
-8.996715756
 21
-45.987615231
 31
0.0
  0
LINE
  5
F1
330
1D
100
AcDbEntity
  8
SK6
100
AcDbLine
 10
-9.514320586
 20
-40.227620721
 30
0.0
 11
-9.514320586
 21
-44.457608821
 31
0.0
  0
ARC
  5
F2
330
1D
100
AcDbEntity
  8
SK6
100
AcDbCircle
 10
-9.424301366
 20
-40.407613401
 30
0.0
 40
2.51999998
100
AcDbArc
 50
358.70883179
 51
93.06652832
  0
ARC
  5
F3
330
1D
100
AcDbEntity
  8
SK6
100
AcDbCircle
 10
-9.694313266
 20
-35.367612481
 30
0.0
 40
2.51999998
100
AcDbArc
 50
273.06652832
 51
0.0
  0
ARC
  5
F4
330
1D
100
AcDbEntity
  8
SK6
100
AcDbCircle
 10
-9.694313266
 20
-32.757619501
 30
0.0
 40
2.51999998
100
AcDbArc
 50
0.0
 51
90.00000763
  0
LINE
  5
F5
330
1D
100
AcDbEntity
  8
SK6
100
AcDbLine
 10
-7.174301366
 20
-32.757619501
 30
0.0
 11
-7.174301366
 21
-35.367620111
 31
0.0
  0
ARC
  5
F6
330
1D
100
AcDbEntity
  8
SK6
100
AcDbCircle
 10
-10.324310516
 20
-33.207616451
 30
0.0
 40
0.90000004
100
AcDbArc
 50
0.0
 51
90.00000763
  0
LINE
  5
F7
330
1D
100
AcDbEntity
  8
SK6
100
AcDbLine
 10
-10.324310516
 20
-32.307622551
 30
0.0
 11
-11.944313266
 21
-32.307622551
 31
0.0
  0
ARC
  5
F8
330
1D
100
AcDbEntity
  8
SK6
100
AcDbCircle
 10
-10.324310516
 20
-36.087606071
 30
0.0
 40
0.90000004
100
AcDbArc
 50
270.0
 51
0.0
  0
LINE
  5
F9
330
1D
100
AcDbEntity
  8
SK6
100
AcDbLine
 10
-9.424301366
 20
-33.207616451
 30
0.0
 11
-9.424301366
 21
-36.087613701
 31
0.0
  0
LINE
  5
FA
330
1D
100
AcDbEntity
  8
SK6
100
AcDbLine
 10
-11.944313266
 20
-32.307622551
 30
0.0
 11
-11.944313266
 21
-36.987615231
 31
0.0
  0
LINE
  5
FB
330
1D
100
AcDbEntity
  8
SK6
100
AcDbLine
 10
-10.324310516
 20
-36.987615231
 30
0.0
 11
-11.944313266
 21
-36.987615231
 31
0.0
  0
LINE
  5
FC
330
1D
100
AcDbEntity
  8
SK6
100
AcDbLine
 10
-6.904953216
 20
-40.464398981
 30
0.0
 11
-6.904323796
 21
-44.458013181
 31
0.0
  0
LINE
  5
FD
330
1D
100
AcDbEntity
  8
SK6
100
AcDbLine
 10
-6.476715306
 20
-45.987615231
 30
0.0
 11
-6.386718966
 21
-45.987615231
 31
0.0
  0
LINE
  5
FE
330
1D
100
AcDbEntity
  8
SK6
100
AcDbLine
 10
-29.674312806
 20
-30.237599971
 30
0.0
 11
-25.624309756
 21
-30.237599971
 31
0.0
  0
LINE
  5
FF
330
1D
100
AcDbEntity
  8
SK6
100
AcDbLine
 10
-9.694313266
 20
-30.237599971
 30
0.0
 11
-14.644317846
 21
-30.237599971
 31
0.0
  0
LINE
  5
100
330
1D
100
AcDbEntity
  8
SK6
100
AcDbLine
 10
-56.674312806
 20
-45.987615231
 30
0.0
 11
-59.464313726
 21
-45.987615231
 31
0.0
  0
LINE
  5
101
330
1D
100
AcDbEntity
  8
SK6
100
AcDbLine
 10
-56.674312806
 20
-42.567617061
 30
0.0
 11
-56.674312806
 21
-45.987615231
 31
0.0
  0
LINE
  5
102
330
1D
100
AcDbEntity
  8
SK6
100
AcDbLine
 10
-55.594310976
 20
-40.497609741
 30
0.0
 11
-56.674312806
 21
-42.567617061
 31
0.0
  0
LINE
  5
103
330
1D
100
AcDbEntity
  8
SK6
100
AcDbLine
 10
-53.164318296
 20
-45.987615231
 30
0.0
 11
-55.594310976
 21
-40.497609741
 31
0.0
  0
LINE
  5
104
330
1D
100
AcDbEntity
  8
SK6
100
AcDbLine
 10
-50.374317386
 20
-45.987615231
 30
0.0
 11
-53.164310666
 21
-45.987615231
 31
0.0
  0
LINE
  5
105
330
1D
100
AcDbEntity
  8
SK6
100
AcDbLine
 10
-53.974323486
 20
-36.987615231
 30
0.0
 11
-50.374317386
 21
-45.987615231
 31
0.0
  0
LINE
  5
106
330
1D
100
AcDbEntity
  8
SK6
100
AcDbLine
 10
-50.914318296
 20
-30.237615231
 30
0.0
 11
-53.974308226
 21
-36.987615231
 31
0.0
  0
LINE
  5
107
330
1D
100
AcDbEntity
  8
SK6
100
AcDbLine
 10
-56.674312806
 20
-37.347623471
 30
0.0
 11
-53.704319216
 21
-30.237630491
 31
0.0
  0
LINE
  5
108
330
1D
100
AcDbEntity
  8
SK6
100
AcDbLine
 10
-56.674312806
 20
-30.237615231
 30
0.0
 11
-56.674312806
 21
-37.347623471
 31
0.0
  0
LINE
  5
109
330
1D
100
AcDbEntity
  8
SK6
100
AcDbLine
 10
-59.464313726
 20
-45.987615231
 30
0.0
 11
-59.464313726
 21
-30.237615231
 31
0.0
  0
LINE
  5
10A
330
1D
100
AcDbEntity
  8
SK6
100
AcDbLine
 10
-53.704319216
 20
-30.237615231
 30
0.0
 11
-50.914318296
 21
-30.237615231
 31
0.0
  0
LINE
  5
10B
330
1D
100
AcDbEntity
  8
SK6
100
AcDbLine
 10
-59.464313726
 20
-30.237615231
 30
0.0
 11
-56.674312806
 21
-30.237615231
 31
0.0
  0
LINE
  5
10C
330
1D
100
AcDbEntity
  8
SK6
100
AcDbLine
 10
-37.414306856
 20
-30.237615231
 30
0.0
 11
-37.414306856
 21
-45.987615231
 31
0.0
  0
LINE
  5
10D
330
1D
100
AcDbEntity
  8
SK6
100
AcDbLine
 10
-34.534309606
 20
-45.987615231
 30
0.0
 11
-34.534309606
 21
-30.237615231
 31
0.0
  0
LINE
  5
10E
330
1D
100
AcDbEntity
  8
SK6
100
AcDbLine
 10
-37.414306856
 20
-45.987615231
 30
0.0
 11
-34.534309606
 21
-45.987615231
 31
0.0
  0
LINE
  5
10F
330
1D
100
AcDbEntity
  8
SK6
100
AcDbLine
 10
-34.534309606
 20
-30.237615231
 30
0.0
 11
-37.414318296
 21
-30.237615231
 31
0.0
  0
LINE
  5
110
330
1D
100
AcDbEntity
  8
SK6
100
AcDbLine
 10
-17.074310516
 20
-45.987615231
 30
0.0
 11
-17.074310516
 21
-43.917607911
 31
0.0
  0
LINE
  5
111
330
1D
100
AcDbEntity
  8
SK6
100
AcDbLine
 10
-22.924312806
 20
-45.987615231
 30
0.0
 11
-17.074310516
 21
-45.987615231
 31
0.0
  0
LINE
  5
112
330
1D
100
AcDbEntity
  8
SK6
100
AcDbLine
 10
-17.074321966
 20
-32.307607301
 30
0.0
 11
-17.074321966
 21
-30.237615231
 31
0.0
  0
LINE
  5
113
330
1D
100
AcDbEntity
  8
SK6
100
AcDbLine
 10
-20.044338446
 20
-32.307607301
 30
0.0
 11
-17.074333406
 21
-32.307607301
 31
0.0
  0
LINE
  5
114
330
1D
100
AcDbEntity
  8
SK6
100
AcDbLine
 10
-20.044338446
 20
-36.987615231
 30
0.0
 11
-20.044338446
 21
-32.307622551
 31
0.0
  0
LINE
  5
115
330
1D
100
AcDbEntity
  8
SK6
100
AcDbLine
 10
-17.074321966
 20
-36.987615231
 30
0.0
 11
-20.044326996
 21
-36.987615231
 31
0.0
  0
LINE
  5
116
330
1D
100
AcDbEntity
  8
SK6
100
AcDbLine
 10
-17.074321966
 20
-39.147596001
 30
0.0
 11
-17.074321966
 21
-36.987592341
 31
0.0
  0
LINE
  5
117
330
1D
100
AcDbEntity
  8
SK6
100
AcDbLine
 10
-20.044338446
 20
-39.147596001
 30
0.0
 11
-17.074333406
 21
-39.147596001
 31
0.0
  0
LINE
  5
118
330
1D
100
AcDbEntity
  8
SK6
100
AcDbLine
 10
-20.044338446
 20
-43.917607911
 30
0.0
 11
-20.044338446
 21
-39.147596001
 31
0.0
  0
LINE
  5
119
330
1D
100
AcDbEntity
  8
SK6
100
AcDbLine
 10
-17.074321966
 20
-43.917607911
 30
0.0
 11
-20.044326996
 21
-43.917607911
 31
0.0
  0
LINE
  5
11A
330
1D
100
AcDbEntity
  8
SK6
100
AcDbLine
 10
-17.074321966
 20
-30.237615231
 30
0.0
 11
-22.924324246
 21
-30.237615231
 31
0.0
  0
LINE
  5
11B
330
1D
100
AcDbEntity
  8
SK6
100
AcDbLine
 10
-42.994312506
 20
-45.987615231
 30
0.0
 11
-49.294315556
 21
-45.987615231
 31
0.0
  0
LINE
  5
11C
330
1D
100
AcDbEntity
  8
SK6
100
AcDbLine
 10
-43.444301816
 20
-43.467603331
 30
0.0
 11
-42.994312506
 21
-45.987599971
 31
0.0
  0
LINE
  5
11D
330
1D
100
AcDbEntity
  8
SK6
100
AcDbLine
 10
-46.324321966
 20
-43.467603331
 30
0.0
 11
-43.444324706
 21
-43.467603331
 31
0.0
  0
LINE
  5
11E
330
1D
100
AcDbEntity
  8
SK6
100
AcDbLine
 10
-44.794315556
 20
-34.107617981
 30
0.0
 11
-46.324314336
 21
-43.467626221
 31
0.0
  0
LINE
  5
11F
330
1D
100
AcDbEntity
  8
SK6
100
AcDbLine
 10
-41.734317996
 20
-45.987615231
 30
0.0
 11
-44.794315556
 21
-34.107617981
 31
0.0
  0
LINE
  5
120
330
1D
100
AcDbEntity
  8
SK6
100
AcDbLine
 10
-38.764309146
 20
-45.987615231
 30
0.0
 11
-41.734302736
 21
-45.987615231
 31
0.0
  0
LINE
  5
121
330
1D
100
AcDbEntity
  8
SK6
100
AcDbLine
 10
-43.174312806
 20
-29.787610651
 30
0.0
 11
-38.764320586
 21
-45.987615231
 31
0.0
  0
LINE
  5
122
330
1D
100
AcDbEntity
  8
SK6
100
AcDbLine
 10
-46.234317996
 20
-29.787610651
 30
0.0
 11
-43.174320436
 21
-29.787610651
 31
0.0
  0
LINE
  5
123
330
1D
100
AcDbEntity
  8
SK6
100
AcDbLine
 10
-49.294315556
 20
-45.987615231
 30
0.0
 11
-46.234317996
 21
-29.787610651
 31
0.0
  0
ARC
  5
124
330
1D
100
AcDbEntity
  8
1
100
AcDbCircle
 10
12.041387546
 20
12.026890424
 30
0.0
 40
4.075229427
100
AcDbArc
 50
84.07706105599999
 51
182.48777651
  0
LINE
  5
125
330
1D
100
AcDbEntity
  8
1
100
AcDbLine
 10
7.969999004
 20
11.85
 30
0.0
 11
13.935876598
 21
11.85
 31
0.0
  0
LINE
  5
126
330
1D
100
AcDbEntity
  8
1
100
AcDbLine
 10
13.935876598
 20
16.080364579
 30
0.0
 11
12.4619136
 21
16.080364579
 31
0.0
  0
LINE
  5
127
330
1D
100
AcDbEntity
  8
1
100
AcDbLine
 10
13.935876598
 20
11.85
 30
0.0
 11
14.085876598
 21
11.85
 31
0.0
  0
LINE
  5
128
330
1D
100
AcDbEntity
  8
1
100
AcDbLine
 10
19.57
 20
11.85
 30
0.0
 11
19.97
 21
11.85
 31
0.0
  0
LINE
  5
129
330
1D
100
AcDbEntity
  8
1
100
AcDbLine
 10
17.954123402
 20
11.85
 30
0.0
 11
18.104123402
 21
11.85
 31
0.0
  0
LINE
  5
12A
330
1D
100
AcDbEntity
  8
1
100
AcDbLine
 10
18.104123402
 20
11.85
 30
0.0
 11
19.57
 21
11.85
 31
0.0
  0
LINE
  5
12B
330
1D
100
AcDbEntity
  8
1
100
AcDbLine
 10
17.0575
 20
11.85
 30
0.0
 11
17.954123402
 21
11.85
 31
0.0
  0
LINE
  5
12C
330
1D
100
AcDbEntity
  8
1
100
AcDbLine
 10
14.085876598
 20
11.85
 30
0.0
 11
14.9825
 21
11.85
 31
0.0
  0
LINE
  5
12D
330
1D
100
AcDbEntity
  8
1
100
AcDbLine
 10
15.7325
 20
11.85
 30
0.0
 11
14.9825
 21
11.85
 31
0.0
  0
LINE
  5
12E
330
1D
100
AcDbEntity
  8
1
100
AcDbLine
 10
17.0575
 20
11.85
 30
0.0
 11
16.3075
 21
11.85
 31
0.0
  0
LINE
  5
12F
330
1D
100
AcDbEntity
  8
1
100
AcDbLine
 10
16.3075
 20
11.85
 30
0.0
 11
15.7325
 21
11.85
 31
0.0
  0
LINE
  5
130
330
1D
100
AcDbEntity
  8
1
100
AcDbLine
 10
19.972797587
 20
11.85
 30
0.0
 11
19.970804908
 21
11.909938029
 31
0.0
  0
LINE
  5
131
330
1D
100
AcDbEntity
  8
1
100
AcDbLine
 10
19.970804908
 20
11.909938029
 30
0.0
 11
19.97
 21
11.979148551
 31
0.0
  0
LINE
  5
132
330
1D
100
AcDbEntity
  8
1
100
AcDbLine
 10
19.97
 20
15.580697192
 30
0.0
 11
19.57
 21
16.080364579
 31
0.0
  0
LINE
  5
133
330
1D
100
AcDbEntity
  8
1
100
AcDbLine
 10
14.085876598
 20
15.893650462
 30
0.0
 11
13.935876598
 21
16.080364579
 31
0.0
  0
LINE
  5
134
330
1D
100
AcDbEntity
  8
1
100
AcDbLine
 10
14.9825
 20
13.908399733
 30
0.0
 11
14.085876598
 21
15.893650462
 31
0.0
  0
LINE
  5
135
330
1D
100
AcDbEntity
  8
1
100
AcDbLine
 10
14.9825
 20
13.908399733
 30
0.0
 11
14.9825
 21
13.7147047
 31
0.0
  0
LINE
  5
136
330
1D
100
AcDbEntity
  8
1
100
AcDbLine
 10
14.9825
 20
13.7147047
 30
0.0
 11
15.03071916
 21
13.363084595
 31
0.0
  0
LINE
  5
137
330
1D
100
AcDbEntity
  8
1
100
AcDbLine
 10
15.03071916
 20
13.363084595
 30
0.0
 11
15.182835622
 21
13.03289814
 31
0.0
  0
LINE
  5
138
330
1D
100
AcDbEntity
  8
1
100
AcDbLine
 10
15.182835622
 20
13.03289814
 30
0.0
 11
15.366223845
 21
12.837313981
 31
0.0
  0
LINE
  5
139
330
1D
100
AcDbEntity
  8
1
100
AcDbLine
 10
15.366223845
 20
12.837313981
 30
0.0
 11
15.587091573
 21
12.726462433
 31
0.0
  0
LINE
  5
13A
330
1D
100
AcDbEntity
  8
1
100
AcDbLine
 10
15.587091573
 20
12.726462433
 30
0.0
 11
15.7325
 21
12.70701086
 31
0.0
  0
LINE
  5
13B
330
1D
100
AcDbEntity
  8
1
100
AcDbLine
 10
15.7325
 20
12.70701086
 30
0.0
 11
16.3075
 21
12.70701086
 31
0.0
  0
ARC
  5
13C
330
1D
100
AcDbEntity
  8
1
100
AcDbCircle
 10
16.179842253
 20
13.58497271
 30
0.0
 40
0.887194178
100
AcDbArc
 50
278.272966164
 51
8.408354592
  0
LINE
  5
13D
330
1D
100
AcDbEntity
  8
1
100
AcDbLine
 10
17.0575
 20
13.7147047
 30
0.0
 11
17.0575
 21
13.908399733
 31
0.0
  0
LINE
  5
13E
330
1D
100
AcDbEntity
  8
1
100
AcDbLine
 10
17.954123402
 20
15.893650462
 30
0.0
 11
17.0575
 21
13.908399733
 31
0.0
  0
LINE
  5
13F
330
1D
100
AcDbEntity
  8
1
100
AcDbLine
 10
18.104123402
 20
16.080364579
 30
0.0
 11
17.954123402
 21
15.893650462
 31
0.0
  0
LINE
  5
140
330
1D
100
AcDbEntity
  8
1
100
AcDbLine
 10
19.57
 20
16.080364579
 30
0.0
 11
18.104123402
 21
16.080364579
 31
0.0
  0
LINE
  5
141
330
1D
100
AcDbEntity
  8
1
100
AcDbLine
 10
19.97
 20
15.580697192
 30
0.0
 11
19.97
 21
11.979148551
 31
0.0
  0
LINE
  5
142
330
1D
100
AcDbEntity
  8
1
100
AcDbLine
 10
19.97
 20
11.979148551
 30
0.0
 11
19.97
 21
11.85
 31
0.0
  0
LINE
  5
143
330
1D
100
AcDbEntity
  8
1
100
AcDbLine
 10
21.47
 20
9.5
 30
0.0
 11
31.0
 21
9.5
 31
0.0
  0
LINE
  5
144
330
1D
100
AcDbEntity
  8
1
100
AcDbLine
 10
21.47
 20
-9.5
 30
0.0
 11
31.0
 21
-9.5
 31
0.0
  0
LINE
  5
145
330
1D
100
AcDbEntity
  8
1
100
AcDbLine
 10
31.5
 20
9.0
 30
0.0
 11
31.5
 21
-9.0
 31
0.0
  0
LINE
  5
146
330
1D
100
AcDbEntity
  8
1
100
AcDbLine
 10
31.0
 20
9.5
 30
0.0
 11
31.5
 21
9.0
 31
0.0
  0
LINE
  5
147
330
1D
100
AcDbEntity
  8
1
100
AcDbLine
 10
31.5
 20
-9.0
 30
0.0
 11
31.0
 21
-9.5
 31
0.0
  0
LINE
  5
148
330
1D
100
AcDbEntity
  8
SK4
100
AcDbLine
 10
26.44999695
 20
-3.0
 30
0.0
 11
26.44999695
 21
3.0
 31
0.0
  0
CIRCLE
  5
149
330
1D
100
AcDbEntity
  8
1
100
AcDbCircle
 10
26.44999695
 20
0.0
 30
0.0
 40
2.0
  0
LINE
  5
14A
330
1D
100
AcDbEntity
  8
1
100
AcDbLine
 10
26.44999695
 20
1.1546936
 30
0.0
 11
25.44999695
 21
0.5773468
 31
0.0
  0
LINE
  5
14B
330
1D
100
AcDbEntity
  8
1
100
AcDbLine
 10
25.44999695
 20
-0.5773468
 30
0.0
 11
25.44999695
 21
0.5773468
 31
0.0
  0
LINE
  5
14C
330
1D
100
AcDbEntity
  8
1
100
AcDbLine
 10
25.44999695
 20
-0.5773468
 30
0.0
 11
26.44999695
 21
-1.1546936
 31
0.0
  0
LINE
  5
14D
330
1D
100
AcDbEntity
  8
1
100
AcDbLine
 10
26.44999695
 20
-1.1546936
 30
0.0
 11
27.44999695
 21
-0.5773468
 31
0.0
  0
LINE
  5
14E
330
1D
100
AcDbEntity
  8
1
100
AcDbLine
 10
27.44999695
 20
-0.5773468
 30
0.0
 11
27.44999695
 21
0.5773468
 31
0.0
  0
LINE
  5
14F
330
1D
100
AcDbEntity
  8
1
100
AcDbLine
 10
27.44999695
 20
0.5773468
 30
0.0
 11
26.44999695
 21
1.1546936
 31
0.0
  0
LINE
  5
150
330
1D
100
AcDbEntity
  8
3
100
AcDbLine
 10
17.5
 20
5.5
 30
0.0
 11
31.5
 21
5.5
 31
0.0
  0
LINE
  5
151
330
1D
100
AcDbEntity
  8
3
100
AcDbLine
 10
17.5
 20
-5.5
 30
0.0
 11
31.5
 21
-5.5
 31
0.0
  0
LINE
  5
152
330
1D
100
AcDbEntity
  8
3
100
AcDbLine
 10
17.5
 20
5.5
 30
0.0
 11
17.5
 21
-5.5
 31
0.0
  0
LINE
  5
153
330
1D
100
AcDbEntity
  8
2
100
AcDbLine
 10
53.527938843
 20
-9.5
 30
0.0
 11
31.0
 21
-9.5
 31
0.0
  0
LINE
  5
154
330
1D
100
AcDbEntity
  8
2
100
AcDbLine
 10
51.527938843
 20
-9.5
 30
0.0
 11
51.077938843
 21
-6.0
 31
0.0
  0
LINE
  5
155
330
1D
100
AcDbEntity
  8
2
100
AcDbLine
 10
51.077938843
 20
-6.0
 30
0.0
 11
51.977938843
 21
-6.0
 31
0.0
  0
LINE
  5
156
330
1D
100
AcDbEntity
  8
2
100
AcDbLine
 10
51.977938843
 20
-6.0
 30
0.0
 11
51.527938843
 21
-9.5
 31
0.0
  0
LINE
  5
157
330
1D
100
AcDbEntity
  8
2
100
AcDbLine
 10
51.527938843
 20
-6.1
 30
0.0
 11
51.527938843
 21
-9.4
 31
0.0
  0
LINE
  5
158
330
1D
100
AcDbEntity
  8
2
100
AcDbLine
 10
51.727938843
 20
-6.1
 30
0.0
 11
51.727938843
 21
-7.844444444
 31
0.0
  0
LINE
  5
159
330
1D
100
AcDbEntity
  8
2
100
AcDbLine
 10
51.327938843
 20
-6.1
 30
0.0
 11
51.327938843
 21
-7.844444444
 31
0.0
  0
LINE
  5
15A
330
1D
100
AcDbEntity
  8
2
100
AcDbLine
 10
51.927938843
 20
-6.1
 30
0.0
 11
51.927938843
 21
-6.288888889
 31
0.0
  0
LINE
  5
15B
330
1D
100
AcDbEntity
  8
2
100
AcDbLine
 10
51.127938843
 20
-6.1
 30
0.0
 11
51.127938843
 21
-6.288888889
 31
0.0
  0
LINE
  5
15C
330
1D
100
AcDbEntity
  8
2
100
AcDbLine
 10
53.527938843
 20
9.5
 30
0.0
 11
31.0
 21
9.5
 31
0.0
  0
LINE
  5
15D
330
1D
100
AcDbEntity
  8
2
100
AcDbLine
 10
51.527938843
 20
9.5
 30
0.0
 11
51.977938843
 21
6.0
 31
0.0
  0
LINE
  5
15E
330
1D
100
AcDbEntity
  8
2
100
AcDbLine
 10
51.977938843
 20
6.0
 30
0.0
 11
51.077938843
 21
6.0
 31
0.0
  0
LINE
  5
15F
330
1D
100
AcDbEntity
  8
2
100
AcDbLine
 10
51.077938843
 20
6.0
 30
0.0
 11
51.527938843
 21
9.5
 31
0.0
  0
LINE
  5
160
330
1D
100
AcDbEntity
  8
2
100
AcDbLine
 10
51.527938843
 20
6.1
 30
0.0
 11
51.527938843
 21
9.4
 31
0.0
  0
LINE
  5
161
330
1D
100
AcDbEntity
  8
2
100
AcDbLine
 10
51.327938843
 20
6.1
 30
0.0
 11
51.327938843
 21
7.844444444
 31
0.0
  0
LINE
  5
162
330
1D
100
AcDbEntity
  8
2
100
AcDbLine
 10
51.727938843
 20
6.1
 30
0.0
 11
51.727938843
 21
7.844444444
 31
0.0
  0
LINE
  5
163
330
1D
100
AcDbEntity
  8
2
100
AcDbLine
 10
51.127938843
 20
6.1
 30
0.0
 11
51.127938843
 21
6.288888889
 31
0.0
  0
LINE
  5
164
330
1D
100
AcDbEntity
  8
2
100
AcDbLine
 10
51.927938843
 20
6.1
 30
0.0
 11
51.927938843
 21
6.288888889
 31
0.0
  0
LINE
  5
165
330
1D
100
AcDbEntity
  8
2
100
AcDbLine
 10
51.527938843
 20
-6.0
 30
0.0
 11
51.527938843
 21
6.0
 31
0.0
  0
TEXT
  5
166
330
1D
100
AcDbEntity
  8
2
100
AcDbText
 10
50.027938843
 20
0.522812288
 30
0.0
 40
3.5
  1
19
 50
90.0
  7
BMG_Text
100
AcDbText
  0
CIRCLE
  5
167
330
1D
100
AcDbEntity
  8
2
100
AcDbCircle
 10
48.777938843
 20
-1.727187712
 30
0.0
 40
1.25
  0
LINE
  5
168
330
1D
100
AcDbEntity
  8
2
100
AcDbLine
 10
50.027938843
 20
-2.977187712
 30
0.0
 11
47.527938843
 21
-0.477187712
 31
0.0
  0
LINE
  5
169
330
1D
100
AcDbEntity
  8
2
100
AcDbLine
 10
45.527938843
 20
-5.5
 30
0.0
 11
31.5
 21
-5.5
 31
0.0
  0
LINE
  5
16A
330
1D
100
AcDbEntity
  8
2
100
AcDbLine
 10
43.527938843
 20
-5.5
 30
0.0
 11
43.077938843
 21
-2.0
 31
0.0
  0
LINE
  5
16B
330
1D
100
AcDbEntity
  8
2
100
AcDbLine
 10
43.077938843
 20
-2.0
 30
0.0
 11
43.977938843
 21
-2.0
 31
0.0
  0
LINE
  5
16C
330
1D
100
AcDbEntity
  8
2
100
AcDbLine
 10
43.977938843
 20
-2.0
 30
0.0
 11
43.527938843
 21
-5.5
 31
0.0
  0
LINE
  5
16D
330
1D
100
AcDbEntity
  8
2
100
AcDbLine
 10
43.527938843
 20
-2.1
 30
0.0
 11
43.527938843
 21
-5.4
 31
0.0
  0
LINE
  5
16E
330
1D
100
AcDbEntity
  8
2
100
AcDbLine
 10
43.727938843
 20
-2.1
 30
0.0
 11
43.727938843
 21
-3.844444444
 31
0.0
  0
LINE
  5
16F
330
1D
100
AcDbEntity
  8
2
100
AcDbLine
 10
43.327938843
 20
-2.1
 30
0.0
 11
43.327938843
 21
-3.844444444
 31
0.0
  0
LINE
  5
170
330
1D
100
AcDbEntity
  8
2
100
AcDbLine
 10
43.927938843
 20
-2.1
 30
0.0
 11
43.927938843
 21
-2.288888889
 31
0.0
  0
LINE
  5
171
330
1D
100
AcDbEntity
  8
2
100
AcDbLine
 10
43.127938843
 20
-2.1
 30
0.0
 11
43.127938843
 21
-2.288888889
 31
0.0
  0
LINE
  5
172
330
1D
100
AcDbEntity
  8
2
100
AcDbLine
 10
45.527938843
 20
5.5
 30
0.0
 11
31.5
 21
5.5
 31
0.0
  0
LINE
  5
173
330
1D
100
AcDbEntity
  8
2
100
AcDbLine
 10
43.527938843
 20
5.5
 30
0.0
 11
43.977938843
 21
2.0
 31
0.0
  0
LINE
  5
174
330
1D
100
AcDbEntity
  8
2
100
AcDbLine
 10
43.977938843
 20
2.0
 30
0.0
 11
43.077938843
 21
2.0
 31
0.0
  0
LINE
  5
175
330
1D
100
AcDbEntity
  8
2
100
AcDbLine
 10
43.077938843
 20
2.0
 30
0.0
 11
43.527938843
 21
5.5
 31
0.0
  0
LINE
  5
176
330
1D
100
AcDbEntity
  8
2
100
AcDbLine
 10
43.527938843
 20
2.1
 30
0.0
 11
43.527938843
 21
5.4
 31
0.0
  0
LINE
  5
177
330
1D
100
AcDbEntity
  8
2
100
AcDbLine
 10
43.327938843
 20
2.1
 30
0.0
 11
43.327938843
 21
3.844444444
 31
0.0
  0
LINE
  5
178
330
1D
100
AcDbEntity
  8
2
100
AcDbLine
 10
43.727938843
 20
2.1
 30
0.0
 11
43.727938843
 21
3.844444444
 31
0.0
  0
LINE
  5
179
330
1D
100
AcDbEntity
  8
2
100
AcDbLine
 10
43.127938843
 20
2.1
 30
0.0
 11
43.127938843
 21
2.288888889
 31
0.0
  0
LINE
  5
17A
330
1D
100
AcDbEntity
  8
2
100
AcDbLine
 10
43.927938843
 20
2.1
 30
0.0
 11
43.927938843
 21
2.288888889
 31
0.0
  0
LINE
  5
17B
330
1D
100
AcDbEntity
  8
2
100
AcDbLine
 10
43.527938843
 20
-2.0
 30
0.0
 11
43.527938843
 21
2.0
 31
0.0
  0
TEXT
  5
17C
330
1D
100
AcDbEntity
  8
2
100
AcDbText
 10
42.027938843
 20
-0.3653533258146037
 30
0.0
 40
3.5
  1
11
 50
90.0
  7
BMG_Text
100
AcDbText
  0
CIRCLE
  5
17D
330
1D
100
AcDbEntity
  8
2
100
AcDbCircle
 10
40.777938843
 20
-2.615353325814604
 30
0.0
 40
1.25
  0
LINE
  5
17E
330
1D
100
AcDbEntity
  8
2
100
AcDbLine
 10
42.027938843
 20
-3.865353325814604
 30
0.0
 11
39.527938843
 21
-1.365353325814604
 31
0.0
  0
LWPOLYLINE
  5
220
330
1D
100
AcDbEntity
  8
INFTOTAL
100
AcDbPolyline
 90
        4
 70
     1
 43
0.0
 10
-83.53257041851916
 20
39.29900177279471
 10
-83.53257041851916
 20
-60.56886256829107
 10
99.86789420786118
 20
-60.56886256829107
 10
99.86789420786118
 20
39.29900177279471
  0
LINE
  5
223
330
1D
100
AcDbEntity
  8
NOCUT
100
AcDbLine
 10
0.0
 20
0.0
 30
0.0
 11
0.0
 21
19.475
 31
0.0
  0
LINE
  5
224
330
1D
100
AcDbEntity
  8
NOCUT
100
AcDbLine
 10
0.0
 20
19.475
 30
0.0
 11
0.5
 21
19.975
 31
0.0
  0
LINE
  5
225
330
1D
100
AcDbEntity
  8
NOCUT
100
AcDbLine
 10
0.5
 20
19.975
 30
0.0
 11
13.935876598
 21
19.975
 31
0.0
  0
LINE
  5
226
330
1D
100
AcDbEntity
  8
NOCUT
100
AcDbLine
 10
13.935876598
 20
19.975
 30
0.0
 11
14.085876598
 21
19.825
 31
0.0
  0
LINE
  5
227
330
1D
100
AcDbEntity
  8
NOCUT
100
AcDbLine
 10
14.085876598
 20
19.825
 30
0.0
 11
14.9825
 21
18.272002713
 31
0.0
  0
LINE
  5
228
330
1D
100
AcDbEntity
  8
NOCUT
100
AcDbLine
 10
14.9825
 20
18.272002713
 30
0.0
 11
14.9825
 21
18.125
 31
0.0
  0
LINE
  5
229
330
1D
100
AcDbEntity
  8
NOCUT
100
AcDbLine
 10
15.7325
 20
17.375
 30
0.0
 11
16.3075
 21
17.375
 31
0.0
  0
LINE
  5
22A
330
1D
100
AcDbEntity
  8
NOCUT
100
AcDbLine
 10
17.0575
 20
18.125
 30
0.0
 11
17.0575
 21
18.272002713
 31
0.0
  0
LINE
  5
22B
330
1D
100
AcDbEntity
  8
NOCUT
100
AcDbLine
 10
17.0575
 20
18.272002713
 30
0.0
 11
17.954123402
 21
19.825
 31
0.0
  0
LINE
  5
22C
330
1D
100
AcDbEntity
  8
NOCUT
100
AcDbLine
 10
17.954123402
 20
19.825
 30
0.0
 11
18.104123402
 21
19.975
 31
0.0
  0
LINE
  5
22D
330
1D
100
AcDbEntity
  8
NOCUT
100
AcDbLine
 10
18.104123402
 20
19.975
 30
0.0
 11
19.57
 21
19.975
 31
0.0
  0
LINE
  5
22E
330
1D
100
AcDbEntity
  8
NOCUT
100
AcDbLine
 10
19.57
 20
19.975
 30
0.0
 11
19.97
 21
19.575
 31
0.0
  0
LINE
  5
22F
330
1D
100
AcDbEntity
  8
NOCUT
100
AcDbLine
 10
19.97
 20
19.575
 30
0.0
 11
19.97
 21
11.0
 31
0.0
  0
LINE
  5
230
330
1D
100
AcDbEntity
  8
NOCUT
100
AcDbLine
 10
21.47
 20
9.5
 30
0.0
 11
31.0
 21
9.5
 31
0.0
  0
LINE
  5
231
330
1D
100
AcDbEntity
  8
NOCUT
100
AcDbLine
 10
31.0
 20
9.5
 30
0.0
 11
31.5
 21
9.0
 31
0.0
  0
LINE
  5
232
330
1D
100
AcDbEntity
  8
NOCUT
100
AcDbLine
 10
31.5
 20
9.0
 30
0.0
 11
31.5
 21
0.0
 31
0.0
  0
LINE
  5
233
330
1D
100
AcDbEntity
  8
NOCUT
100
AcDbLine
 10
31.5
 20
0.0
 30
0.0
 11
0.0
 21
0.0
 31
0.0
  0
ARC
  5
234
330
1D
100
AcDbEntity
  8
NOCUT
100
AcDbCircle
 10
15.7325
 20
18.125
 30
0.0
 40
0.7499999999999976
100
AcDbArc
 50
179.9999999999997
 51
270.0000000000001
  0
ARC
  5
235
330
1D
100
AcDbEntity
  8
NOCUT
100
AcDbCircle
 10
16.3075
 20
18.125
 30
0.0
 40
0.7499999999999976
100
AcDbArc
 50
269.9999999999997
 51
0.0000000000002714
  0
ARC
  5
236
330
1D
100
AcDbEntity
  8
NOCUT
100
AcDbCircle
 10
21.47
 20
11.0
 30
0.0
 40
1.499999999999998
100
AcDbArc
 50
179.9999999999999
 51
270.0
  0
LINE
  5
27B
330
1D
100
AcDbEntity
  8
SK3
100
AcDbLine
 10
0.0
 20
-10.521
 30
0.0
 11
-0.0300000001688892
 21
-10.52100000002545
 31
0.0
  0
LINE
  5
27C
330
1D
100
AcDbEntity
  8
SK3
100
AcDbLine
 10
0.0
 20
10.521
 30
0.0
 11
-0.03
 21
10.521
 31
0.0
  0
LINE
  5
280
330
1D
100
AcDbEntity
  8
4
100
AcDbLine
 10
33.548350317
 20
0.0
 30
0.0
 11
0.0
 21
0.0
 31
0.0
  0
LINE
  5
281
330
1D
100
AcDbEntity
  8
4
100
AcDbLine
 10
26.44999695
 20
3.0
 30
0.0
 11
26.44999695
 21
-3.0
 31
0.0
  0
LINE
  5
287
330
1D
100
AcDbEntity
  8
SK1
100
AcDbLine
 10
0.0000000000026817
 20
-14.98298355739293
 30
0.0
 11
0.0000000000026816
 21
14.98298355739293
 31
0.0
  0
ENDSEC
  0
SECTION
  2
OBJECTS
  0
DICTIONARY
  5
C
330
0
100
AcDbDictionary
281
     1
  3
ACAD_DETAILVIEWSTYLE
350
276
  3
ACAD_GROUP
350
D
  3
ACAD_LAYOUT
350
1A
  3
ACAD_MLINESTYLE
350
17
  3
ACAD_PLOTSETTINGS
350
19
  3
ACAD_PLOTSTYLENAME
350
E
  3
ACAD_SCALELIST
350
185
  3
ACAD_SECTIONVIEWSTYLE
350
277
  3
AcDbVariableDictionary
350
1C7
  3
APPDATA
350
215
  3
DWGPROPS
350
28F
  0
DICTIONARY
  5
216
330
2
100
AcDbDictionary
280
     1
281
     1
  3
ACAD_LAYERSTATES
360
217
  0
DICTIONARY
  5
276
102
{ACAD_REACTORS
330
C
102
}
330
C
100
AcDbDictionary
281
     1
  0
DICTIONARY
  5
D
102
{ACAD_REACTORS
330
C
102
}
330
C
100
AcDbDictionary
281
     1
  0
DICTIONARY
  5
1A
102
{ACAD_REACTORS
330
C
102
}
330
C
100
AcDbDictionary
281
     1
  3
Layout1
350
1C
  3
Model
350
1E
  0
DICTIONARY
  5
17
102
{ACAD_REACTORS
330
C
102
}
330
C
100
AcDbDictionary
281
     1
  3
Standard
350
18
  0
DICTIONARY
  5
19
102
{ACAD_REACTORS
330
C
102
}
330
C
100
AcDbDictionary
281
     1
  0
ACDBDICTIONARYWDFLT
  5
E
102
{ACAD_REACTORS
330
C
102
}
330
C
100
AcDbDictionary
281
     1
  3
Normal
350
F
100
AcDbDictionaryWithDefault
340
F
  0
DICTIONARY
  5
185
102
{ACAD_REACTORS
330
C
102
}
330
C
100
AcDbDictionary
281
     1
  3
A0
350
186
  3
A1
350
187
  3
A2
350
188
  3
A3
350
189
  3
A4
350
18A
  3
A5
350
18B
  3
A6
350
18C
  3
A7
350
18D
  3
A8
350
18E
  3
A9
350
18F
  3
B0
350
190
  3
B1
350
191
  3
B2
350
192
  3
B3
350
193
  3
B4
350
194
  3
B5
350
195
  3
B6
350
196
  3
B7
350
197
  3
B8
350
198
  3
B9
350
199
  3
C0
350
19A
  3
C1
350
19B
  3
C2
350
19C
  3
C3
350
19D
  3
C4
350
19E
  3
C5
350
19F
  3
C6
350
1A0
  3
C7
350
1A1
  3
C8
350
1A2
  3
C9
350
1A3
  3
D0
350
1A4
  3
D1
350
1A5
  3
D2
350
1A6
  0
DICTIONARY
  5
277
102
{ACAD_REACTORS
330
C
102
}
330
C
100
AcDbDictionary
281
     1
  0
DICTIONARY
  5
1C7
102
{ACAD_REACTORS
330
C
102
}
330
C
100
AcDbDictionary
281
     1
  3
DIMASSOC
350
1CB
  3
HIDETEXT
350
1CC
  0
DICTIONARY
  5
215
102
{ACAD_REACTORS
330
C
102
}
330
C
100
AcDbDictionary
281
     1
  0
XRECORD
  5
28F
102
{ACAD_REACTORS
330
C
102
}
330
C
100
AcDbXrecord
280
     1
  1
DWGPROPS COOKIE
  2

  3

  4

  6

  7

  8
matthias.ochs
  9

300
=
301
=
302
=
303
=
304
=
305
=
306
=
307
=
308
=
309
=
 40
0.0
 41
2458327.466031285
 42
2458589.526733113
  1

 90
        0
  0
DICTIONARY
  5
217
102
{ACAD_REACTORS
330
216
102
}
330
216
100
AcDbDictionary
281
     1
  0
LAYOUT
  5
1C
102
{ACAD_REACTORS
330
1A
102
}
330
1A
100
AcDbPlotSettings
  1

  2
none_device
  4

  6

 40
0.0
 41
0.0
 42
0.0
 43
0.0
 44
0.0
 45
0.0
 46
0.0
 47
0.0
 48
0.0
 49
0.0
140
0.0
141
0.0
142
1.0
143
1.0
 70
   688
 72
     0
 73
     0
 74
     5
  7

 75
    16
147
1.0
148
0.0
149
0.0
100
AcDbLayout
  1
Layout1
 70
     1
 71
     1
 10
0.0
 20
0.0
 11
12.0
 21
9.0
 12
0.0
 22
0.0
 32
0.0
 14
1.000000000000000E+20
 24
1.000000000000000E+20
 34
1.000000000000000E+20
 15
-1.000000000000000E+20
 25
-1.000000000000000E+20
 35
-1.000000000000000E+20
146
0.0
 13
0.0
 23
0.0
 33
0.0
 16
1.0
 26
0.0
 36
0.0
 17
0.0
 27
1.0
 37
0.0
 76
     0
330
1B
  0
LAYOUT
  5
1E
102
{ACAD_REACTORS
330
1A
102
}
330
1A
100
AcDbPlotSettings
  1

  2
none_device
  4

  6

 40
0.0
 41
0.0
 42
0.0
 43
0.0
 44
0.0
 45
0.0
 46
0.0
 47
0.0
 48
0.0
 49
0.0
140
0.0
141
0.0
142
1.0
143
1.0
 70
  1712
 72
     0
 73
     0
 74
     0
  7

 75
     0
147
1.0
148
0.0
149
0.0
100
AcDbLayout
  1
Model
 70
     1
 71
     0
 10
0.0
 20
0.0
 11
12.0
 21
9.0
 12
0.0
 22
0.0
 32
0.0
 14
-83.53257041851916
 24
-60.56886256829107
 34
0.0
 15
99.86789420786118
 25
39.29900177279471
 35
0.0
146
0.0
 13
0.0
 23
0.0
 33
0.0
 16
1.0
 26
0.0
 36
0.0
 17
0.0
 27
1.0
 37
0.0
 76
     0
330
1D
331
17F
  0
MLINESTYLE
  5
18
102
{ACAD_REACTORS
330
17
102
}
330
17
100
AcDbMlineStyle
  2
Standard
 70
     0
  3

 62
   256
 51
90.0
 52
90.0
 71
     2
 49
0.5
 62
   256
  6
BYLAYER
 49
-0.5
 62
   256
  6
BYLAYER
  0
ACDBPLACEHOLDER
  5
F
102
{ACAD_REACTORS
330
E
102
}
330
E
  0
SCALE
  5
186
102
{ACAD_REACTORS
330
185
102
}
330
185
100
AcDbScale
 70
     0
300
1:1
140
1.0
141
1.0
290
     1
  0
SCALE
  5
187
102
{ACAD_REACTORS
330
185
102
}
330
185
100
AcDbScale
 70
     0
300
1:2
140
1.0
141
2.0
290
     0
  0
SCALE
  5
188
102
{ACAD_REACTORS
330
185
102
}
330
185
100
AcDbScale
 70
     0
300
1:4
140
1.0
141
4.0
290
     0
  0
SCALE
  5
189
102
{ACAD_REACTORS
330
185
102
}
330
185
100
AcDbScale
 70
     0
300
1:5
140
1.0
141
5.0
290
     0
  0
SCALE
  5
18A
102
{ACAD_REACTORS
330
185
102
}
330
185
100
AcDbScale
 70
     0
300
1:8
140
1.0
141
8.0
290
     0
  0
SCALE
  5
18B
102
{ACAD_REACTORS
330
185
102
}
330
185
100
AcDbScale
 70
     0
300
1:10
140
1.0
141
10.0
290
     0
  0
SCALE
  5
18C
102
{ACAD_REACTORS
330
185
102
}
330
185
100
AcDbScale
 70
     0
300
1:16
140
1.0
141
16.0
290
     0
  0
SCALE
  5
18D
102
{ACAD_REACTORS
330
185
102
}
330
185
100
AcDbScale
 70
     0
300
1:20
140
1.0
141
20.0
290
     0
  0
SCALE
  5
18E
102
{ACAD_REACTORS
330
185
102
}
330
185
100
AcDbScale
 70
     0
300
1:30
140
1.0
141
30.0
290
     0
  0
SCALE
  5
18F
102
{ACAD_REACTORS
330
185
102
}
330
185
100
AcDbScale
 70
     0
300
1:40
140
1.0
141
40.0
290
     0
  0
SCALE
  5
190
102
{ACAD_REACTORS
330
185
102
}
330
185
100
AcDbScale
 70
     0
300
1:50
140
1.0
141
50.0
290
     0
  0
SCALE
  5
191
102
{ACAD_REACTORS
330
185
102
}
330
185
100
AcDbScale
 70
     0
300
1:100
140
1.0
141
100.0
290
     0
  0
SCALE
  5
192
102
{ACAD_REACTORS
330
185
102
}
330
185
100
AcDbScale
 70
     0
300
2:1
140
2.0
141
1.0
290
     0
  0
SCALE
  5
193
102
{ACAD_REACTORS
330
185
102
}
330
185
100
AcDbScale
 70
     0
300
4:1
140
4.0
141
1.0
290
     0
  0
SCALE
  5
194
102
{ACAD_REACTORS
330
185
102
}
330
185
100
AcDbScale
 70
     0
300
8:1
140
8.0
141
1.0
290
     0
  0
SCALE
  5
195
102
{ACAD_REACTORS
330
185
102
}
330
185
100
AcDbScale
 70
     0
300
10:1
140
10.0
141
1.0
290
     0
  0
SCALE
  5
196
102
{ACAD_REACTORS
330
185
102
}
330
185
100
AcDbScale
 70
     0
300
100:1
140
100.0
141
1.0
290
     0
  0
SCALE
  5
197
102
{ACAD_REACTORS
330
185
102
}
330
185
100
AcDbScale
 70
     0
300
1/128" = 1'-0"
140
0.0078125
141
12.0
290
     0
  0
SCALE
  5
198
102
{ACAD_REACTORS
330
185
102
}
330
185
100
AcDbScale
 70
     0
300
1/64" = 1'-0"
140
0.015625
141
12.0
290
     0
  0
SCALE
  5
199
102
{ACAD_REACTORS
330
185
102
}
330
185
100
AcDbScale
 70
     0
300
1/32" = 1'-0"
140
0.03125
141
12.0
290
     0
  0
SCALE
  5
19A
102
{ACAD_REACTORS
330
185
102
}
330
185
100
AcDbScale
 70
     0
300
1/16" = 1'-0"
140
0.0625
141
12.0
290
     0
  0
SCALE
  5
19B
102
{ACAD_REACTORS
330
185
102
}
330
185
100
AcDbScale
 70
     0
300
3/32" = 1'-0"
140
0.09375
141
12.0
290
     0
  0
SCALE
  5
19C
102
{ACAD_REACTORS
330
185
102
}
330
185
100
AcDbScale
 70
     0
300
1/8" = 1'-0"
140
0.125
141
12.0
290
     0
  0
SCALE
  5
19D
102
{ACAD_REACTORS
330
185
102
}
330
185
100
AcDbScale
 70
     0
300
3/16" = 1'-0"
140
0.1875
141
12.0
290
     0
  0
SCALE
  5
19E
102
{ACAD_REACTORS
330
185
102
}
330
185
100
AcDbScale
 70
     0
300
1/4" = 1'-0"
140
0.25
141
12.0
290
     0
  0
SCALE
  5
19F
102
{ACAD_REACTORS
330
185
102
}
330
185
100
AcDbScale
 70
     0
300
3/8" = 1'-0"
140
0.375
141
12.0
290
     0
  0
SCALE
  5
1A0
102
{ACAD_REACTORS
330
185
102
}
330
185
100
AcDbScale
 70
     0
300
1/2" = 1'-0"
140
0.5
141
12.0
290
     0
  0
SCALE
  5
1A1
102
{ACAD_REACTORS
330
185
102
}
330
185
100
AcDbScale
 70
     0
300
3/4" = 1'-0"
140
0.75
141
12.0
290
     0
  0
SCALE
  5
1A2
102
{ACAD_REACTORS
330
185
102
}
330
185
100
AcDbScale
 70
     0
300
1" = 1'-0"
140
1.0
141
12.0
290
     0
  0
SCALE
  5
1A3
102
{ACAD_REACTORS
330
185
102
}
330
185
100
AcDbScale
 70
     0
300
1-1/2" = 1'-0"
140
1.5
141
12.0
290
     0
  0
SCALE
  5
1A4
102
{ACAD_REACTORS
330
185
102
}
330
185
100
AcDbScale
 70
     0
300
3" = 1'-0"
140
3.0
141
12.0
290
     0
  0
SCALE
  5
1A5
102
{ACAD_REACTORS
330
185
102
}
330
185
100
AcDbScale
 70
     0
300
6" = 1'-0"
140
6.0
141
12.0
290
     0
  0
SCALE
  5
1A6
102
{ACAD_REACTORS
330
185
102
}
330
185
100
AcDbScale
 70
     0
300
1'-0" = 1'-0"
140
12.0
141
12.0
290
     0
  0
DICTIONARYVAR
  5
1CB
102
{ACAD_REACTORS
330
1C7
102
}
330
1C7
100
DictionaryVariables
280
     0
  1
2
  0
DICTIONARYVAR
  5
1CC
102
{ACAD_REACTORS
330
1C7
102
}
330
1C7
100
DictionaryVariables
280
     0
  1
1
  0
ENDSEC
  0
EOF
