  0
SECTION
  2
HEADER
  9
$ACADVER
  1
AC1015
  9
$ACADMAINTVER
 70
     6
  9
$DWGCODEPAGE
  3
ANSI_1252
  9
$INSBASE
 10
0.0
 20
0.0
 30
0.0
  9
$EXTMIN
 10
-134.4522374103179
 20
-88.16500238457132
 30
0.0
  9
$EXTMAX
 10
109.8473087121413
 20
97.71508705643049
 30
0.0
  9
$LIMMIN
 10
-110.06493628
 20
-67.042579042
  9
$LIMMAX
 10
100.26493323
 20
63.782599793
  9
$ORTHOMODE
 70
     0
  9
$REGENMODE
 70
     1
  9
$FILLMODE
 70
     1
  9
$QTEXTMODE
 70
     0
  9
$MIRRTEXT
 70
     1
  9
$LTSCALE
 40
1.0
  9
$ATTMODE
 70
     1
  9
$TEXTSIZE
 40
0.2
  9
$TRACEWID
 40
0.05
  9
$TEXTSTYLE
  7
Standard
  9
$CLAYER
  8
1
  9
$CELTYPE
  6
ByLayer
  9
$CECOLOR
 62
   256
  9
$CELTSCALE
 40
1.0
  9
$DISPSILH
 70
     0
  9
$DIMSCALE
 40
1.0
  9
$DIMASZ
 40
0.18
  9
$DIMEXO
 40
0.0625
  9
$DIMDLI
 40
0.38
  9
$DIMRND
 40
0.0
  9
$DIMDLE
 40
0.0
  9
$DIMEXE
 40
0.18
  9
$DIMTP
 40
0.0
  9
$DIMTM
 40
0.0
  9
$DIMTXT
 40
0.18
  9
$DIMCEN
 40
0.09
  9
$DIMTSZ
 40
0.0
  9
$DIMTOL
 70
     0
  9
$DIMLIM
 70
     0
  9
$DIMTIH
 70
     1
  9
$DIMTOH
 70
     1
  9
$DIMSE1
 70
     0
  9
$DIMSE2
 70
     0
  9
$DIMTAD
 70
     0
  9
$DIMZIN
 70
     0
  9
$DIMBLK
  1

  9
$DIMASO
 70
     1
  9
$DIMSHO
 70
     1
  9
$DIMPOST
  1

  9
$DIMAPOST
  1

  9
$DIMALT
 70
     0
  9
$DIMALTD
 70
     2
  9
$DIMALTF
 40
25.4
  9
$DIMLFAC
 40
1.0
  9
$DIMTOFL
 70
     0
  9
$DIMTVP
 40
0.0
  9
$DIMTIX
 70
     0
  9
$DIMSOXD
 70
     0
  9
$DIMSAH
 70
     0
  9
$DIMBLK1
  1

  9
$DIMBLK2
  1

  9
$DIMSTYLE
  2
Standard
  9
$DIMCLRD
 70
     0
  9
$DIMCLRE
 70
     0
  9
$DIMCLRT
 70
     0
  9
$DIMTFAC
 40
1.0
  9
$DIMGAP
 40
0.09
  9
$DIMJUST
 70
     0
  9
$DIMSD1
 70
     0
  9
$DIMSD2
 70
     0
  9
$DIMTOLJ
 70
     1
  9
$DIMTZIN
 70
     0
  9
$DIMALTZ
 70
     0
  9
$DIMALTTZ
 70
     0
  9
$DIMUPT
 70
     0
  9
$DIMDEC
 70
     4
  9
$DIMTDEC
 70
     4
  9
$DIMALTU
 70
     2
  9
$DIMALTTD
 70
     2
  9
$DIMTXSTY
  7
Standard
  9
$DIMAUNIT
 70
     0
  9
$DIMADEC
 70
     0
  9
$DIMALTRND
 40
0.0
  9
$DIMAZIN
 70
     0
  9
$DIMDSEP
 70
    46
  9
$DIMATFIT
 70
     3
  9
$DIMFRAC
 70
     0
  9
$DIMLDRBLK
  1

  9
$DIMLUNIT
 70
     2
  9
$DIMLWD
 70
    -2
  9
$DIMLWE
 70
    -2
  9
$DIMTMOVE
 70
     2
  9
$LUNITS
 70
     2
  9
$LUPREC
 70
     4
  9
$SKETCHINC
 40
0.1
  9
$FILLETRAD
 40
0.5
  9
$AUNITS
 70
     2
  9
$AUPREC
 70
     0
  9
$MENU
  1
.
  9
$ELEVATION
 40
0.0
  9
$PELEVATION
 40
0.0
  9
$THICKNESS
 40
0.0
  9
$LIMCHECK
 70
     0
  9
$CHAMFERA
 40
0.5
  9
$CHAMFERB
 40
0.5
  9
$CHAMFERC
 40
1.0
  9
$CHAMFERD
 40
0.0
  9
$SKPOLY
 70
     0
  9
$TDCREATE
 40
2458327.549351239
  9
$TDUCREATE
 40
2458327.466017905
  9
$TDUPDATE
 40
2458589.641301122
  9
$TDUUPDATE
 40
2458589.557967789
  9
$TDINDWG
 40
0.0056008333
  9
$TDUSRTIMER
 40
0.0001191551
  9
$USRTIMER
 70
     1
  9
$ANGBASE
 50
0.0
  9
$ANGDIR
 70
     0
  9
$PDMODE
 70
     0
  9
$PDSIZE
 40
0.0
  9
$PLINEWID
 40
0.0
  9
$SPLFRAME
 70
     0
  9
$SPLINETYPE
 70
     6
  9
$SPLINESEGS
 70
     8
  9
$HANDSEED
  5
2AB
  9
$SURFTAB1
 70
     6
  9
$SURFTAB2
 70
     6
  9
$SURFTYPE
 70
     6
  9
$SURFU
 70
     6
  9
$SURFV
 70
     6
  9
$UCSBASE
  2

  9
$UCSNAME
  2

  9
$UCSORG
 10
0.0
 20
0.0
 30
0.0
  9
$UCSXDIR
 10
1.0
 20
0.0
 30
0.0
  9
$UCSYDIR
 10
0.0
 20
1.0
 30
0.0
  9
$UCSORTHOREF
  2

  9
$UCSORTHOVIEW
 70
     0
  9
$UCSORGTOP
 10
0.0
 20
0.0
 30
0.0
  9
$UCSORGBOTTOM
 10
0.0
 20
0.0
 30
0.0
  9
$UCSORGLEFT
 10
0.0
 20
0.0
 30
0.0
  9
$UCSORGRIGHT
 10
0.0
 20
0.0
 30
0.0
  9
$UCSORGFRONT
 10
0.0
 20
0.0
 30
0.0
  9
$UCSORGBACK
 10
0.0
 20
0.0
 30
0.0
  9
$PUCSBASE
  2

  9
$PUCSNAME
  2

  9
$PUCSORG
 10
0.0
 20
0.0
 30
0.0
  9
$PUCSXDIR
 10
1.0
 20
0.0
 30
0.0
  9
$PUCSYDIR
 10
0.0
 20
1.0
 30
0.0
  9
$PUCSORTHOREF
  2

  9
$PUCSORTHOVIEW
 70
     0
  9
$PUCSORGTOP
 10
0.0
 20
0.0
 30
0.0
  9
$PUCSORGBOTTOM
 10
0.0
 20
0.0
 30
0.0
  9
$PUCSORGLEFT
 10
0.0
 20
0.0
 30
0.0
  9
$PUCSORGRIGHT
 10
0.0
 20
0.0
 30
0.0
  9
$PUCSORGFRONT
 10
0.0
 20
0.0
 30
0.0
  9
$PUCSORGBACK
 10
0.0
 20
0.0
 30
0.0
  9
$USERI1
 70
     0
  9
$USERI2
 70
     0
  9
$USERI3
 70
     0
  9
$USERI4
 70
     0
  9
$USERI5
 70
     0
  9
$USERR1
 40
0.0
  9
$USERR2
 40
0.0
  9
$USERR3
 40
0.0
  9
$USERR4
 40
0.0
  9
$USERR5
 40
0.0
  9
$WORLDVIEW
 70
     1
  9
$SHADEDGE
 70
     3
  9
$SHADEDIF
 70
    70
  9
$TILEMODE
 70
     1
  9
$MAXACTVP
 70
    64
  9
$PINSBASE
 10
0.0
 20
0.0
 30
0.0
  9
$PLIMCHECK
 70
     0
  9
$PEXTMIN
 10
1.000000000000000E+20
 20
1.000000000000000E+20
 30
1.000000000000000E+20
  9
$PEXTMAX
 10
-1.000000000000000E+20
 20
-1.000000000000000E+20
 30
-1.000000000000000E+20
  9
$PLIMMIN
 10
0.0
 20
0.0
  9
$PLIMMAX
 10
0.0
 20
0.0
  9
$UNITMODE
 70
     0
  9
$VISRETAIN
 70
     1
  9
$PLINEGEN
 70
     0
  9
$PSLTSCALE
 70
     1
  9
$TREEDEPTH
 70
  3020
  9
$CMLSTYLE
  2
Standard
  9
$CMLJUST
 70
     0
  9
$CMLSCALE
 40
1.0
  9
$PROXYGRAPHICS
 70
     1
  9
$MEASUREMENT
 70
     0
  9
$CELWEIGHT
370
    -1
  9
$ENDCAPS
280
     0
  9
$JOINSTYLE
280
     0
  9
$LWDISPLAY
290
     0
  9
$INSUNITS
 70
     0
  9
$HYPERLINKBASE
  1

  9
$STYLESHEET
  1

  9
$XEDIT
290
     1
  9
$CEPSNTYPE
380
     0
  9
$PSTYLEMODE
290
     1
  9
$FINGERPRINTGUID
  2
{A037CD40-2C1C-46A1-853D-8DFF5513D9A9}
  9
$VERSIONGUID
  2
{FAEB1C32-E019-11D5-929B-00C0DF256EC4}
  9
$EXTNAMES
290
     1
  9
$PSVPSCALE
 40
0.0
  9
$OLESTARTUP
290
     0
  0
ENDSEC
  0
SECTION
  2
CLASSES
  0
CLASS
  1
ACDBDICTIONARYWDFLT
  2
AcDbDictionaryWithDefault
  3
ObjectDBX Classes
 90
        0
280
     0
281
     0
  0
CLASS
  1
SCALE
  2
AcDbScale
  3
ObjectDBX Classes
 90
     1153
280
     0
281
     0
  0
CLASS
  1
VISUALSTYLE
  2
AcDbVisualStyle
  3
ObjectDBX Classes
 90
     4095
280
     0
281
     0
  0
CLASS
  1
MATERIAL
  2
AcDbMaterial
  3
ObjectDBX Classes
 90
     1153
280
     0
281
     0
  0
CLASS
  1
DICTIONARYVAR
  2
AcDbDictionaryVar
  3
ObjectDBX Classes
 90
        0
280
     0
281
     0
  0
CLASS
  1
ACDBPLACEHOLDER
  2
AcDbPlaceHolder
  3
ObjectDBX Classes
 90
        0
280
     0
281
     0
  0
CLASS
  1
LAYOUT
  2
AcDbLayout
  3
ObjectDBX Classes
 90
        0
280
     0
281
     0
  0
CLASS
  1
TABLESTYLE
  2
AcDbTableStyle
  3
ObjectDBX Classes
 90
     4095
280
     0
281
     0
  0
CLASS
  1
MLEADERSTYLE
  2
AcDbMLeaderStyle
  3
ACDB_MLEADERSTYLE_CLASS
 90
     4095
280
     0
281
     0
  0
CLASS
  1
SUN
  2
AcDbSun
  3
SCENEOE
 90
     1153
280
     0
281
     0
  0
CLASS
  1
CELLSTYLEMAP
  2
AcDbCellStyleMap
  3
ObjectDBX Classes
 90
     1152
280
     0
281
     0
  0
ENDSEC
  0
SECTION
  2
TABLES
  0
TABLE
  2
VPORT
  5
8
330
0
100
AcDbSymbolTable
 70
     1
  0
VPORT
  5
13F
330
8
100
AcDbSymbolTableRecord
100
AcDbViewportTableRecord
  2
*Active
 70
     0
 10
0.0
 20
0.0
 11
1.0
 21
1.0
 12
-48.09327917605168
 22
-12.67337612357436
 13
0.0
 23
0.0
 14
0.5
 24
0.5
 15
0.5
 25
0.5
 16
0.0
 26
0.0
 36
1.0
 17
0.0
 27
0.0
 37
0.0
 40
290.8368941823587
 41
1.978589420654912
 42
50.0
 43
0.0
 44
0.0
 50
0.0
 51
0.0
 71
    16
 72
   100
 73
     1
 74
     3
 75
     0
 76
     0
 77
     0
 78
     0
281
     0
 65
     1
110
0.0
120
0.0
130
0.0
111
1.0
121
0.0
131
0.0
112
0.0
122
1.0
132
0.0
 79
     0
146
0.0
  0
ENDTAB
  0
TABLE
  2
LTYPE
  5
5
330
0
100
AcDbSymbolTable
 70
     8
  0
LTYPE
  5
14
330
5
100
AcDbSymbolTableRecord
100
AcDbLinetypeTableRecord
  2
ByBlock
 70
     0
  3

 72
    65
 73
     0
 40
0.0
  0
LTYPE
  5
15
330
5
100
AcDbSymbolTableRecord
100
AcDbLinetypeTableRecord
  2
ByLayer
 70
     0
  3

 72
    65
 73
     0
 40
0.0
  0
LTYPE
  5
16
330
5
100
AcDbSymbolTableRecord
100
AcDbLinetypeTableRecord
  2
Continuous
 70
     0
  3
Solid line
 72
    65
 73
     0
 40
0.0
  0
LTYPE
  5
20
330
5
100
AcDbSymbolTableRecord
100
AcDbLinetypeTableRecord
  2
PUNKT
 70
     0
  3
..............
 72
    65
 73
     2
 40
1.5
 49
0.7
 74
     0
 49
-0.8
 74
     0
  0
LTYPE
  5
21
330
5
100
AcDbSymbolTableRecord
100
AcDbLinetypeTableRecord
  2
GESTRICHELT
 70
     0
  3
-- -- -- -- --
 72
    65
 73
     7
 40
2.8
 49
0.9
 74
     0
 49
0.0
 74
     0
 49
0.9
 74
     0
 49
0.0
 74
     0
 49
0.2
 74
     0
 49
0.0
 74
     0
 49
-0.8
 74
     0
  0
LTYPE
  5
22
330
5
100
AcDbSymbolTableRecord
100
AcDbLinetypeTableRecord
  2
STRICHPUNKT
 70
     0
  3
--.--.--.--.--
 72
    65
 73
     4
 40
8.8
 49
5.5
 74
     0
 49
-1.3
 74
     0
 49
0.7
 74
     0
 49
-1.3
 74
     0
  0
LTYPE
  5
25
330
5
100
AcDbSymbolTableRecord
100
AcDbLinetypeTableRecord
  2
PHANTOM
 70
     0
  3
--..--..--..--
 72
    65
 73
     6
 40
14.2
 49
7.0
 74
     0
 49
-1.8
 74
     0
 49
0.9
 74
     0
 49
-1.8
 74
     0
 49
0.9
 74
     0
 49
-1.8
 74
     0
  0
LTYPE
  5
1B7
330
5
100
AcDbSymbolTableRecord
100
AcDbLinetypeTableRecord
  2
DASH
 70
     0
  3
DASH _ _ _ _ _
 72
    65
 73
     2
 40
0.75
 49
0.4
 74
     0
 49
-0.35
 74
     0
  0
LTYPE
  5
1B8
330
5
100
AcDbSymbolTableRecord
100
AcDbLinetypeTableRecord
  2
LONGDASH_DASH
 70
     0
  3
LONGDASH_DASH __ . __ . __
 72
    65
 73
     4
 40
0.85
 49
0.4
 74
     0
 49
-0.2
 74
     0
 49
0.05
 74
     0
 49
-0.2
 74
     0
  0
LTYPE
  5
1B9
330
5
100
AcDbSymbolTableRecord
100
AcDbLinetypeTableRecord
  2
LONGDASH_DASH_DASH
 70
     0
  3
LONGDASH_DASH_DASH __ . . __ . . __
 72
    65
 73
     6
 40
1.1
 49
0.4
 74
     0
 49
-0.2
 74
     0
 49
0.05
 74
     0
 49
-0.2
 74
     0
 49
0.05
 74
     0
 49
-0.2
 74
     0
  0
ENDTAB
  0
TABLE
  2
LAYER
  5
2
102
{ACAD_XDICTIONARY
360
1D6
102
}
330
0
100
AcDbSymbolTable
 70
    15
  0
LAYER
  5
181
330
2
100
AcDbSymbolTableRecord
100
AcDbLayerTableRecord
  2
200
 70
     0
 62
     2
  6
Continuous
370
    50
390
F
  0
LAYER
  5
1BA
330
2
100
AcDbSymbolTableRecord
100
AcDbLayerTableRecord
  2
0
 70
     0
 62
     1
  6
Continuous
370
    -3
390
F
  0
LAYER
  5
1BB
330
2
100
AcDbSymbolTableRecord
100
AcDbLayerTableRecord
  2
1
 70
     0
 62
     4
  6
Continuous
370
    50
390
F
  0
LAYER
  5
1BC
330
2
100
AcDbSymbolTableRecord
100
AcDbLayerTableRecord
  2
2
 70
     0
 62
     7
  6
Continuous
370
    25
390
F
  0
LAYER
  5
1BD
330
2
100
AcDbSymbolTableRecord
100
AcDbLayerTableRecord
  2
3
 70
     0
 62
     1
  6
DASH
370
    35
390
F
  0
LAYER
  5
1BE
330
2
100
AcDbSymbolTableRecord
100
AcDbLayerTableRecord
  2
4
 70
     0
 62
     2
  6
LONGDASH_DASH
370
    25
390
F
  0
LAYER
  5
1BF
330
2
100
AcDbSymbolTableRecord
100
AcDbLayerTableRecord
  2
6
 70
     0
 62
     5
  6
Continuous
370
    -3
390
F
  0
LAYER
  5
1C0
330
2
100
AcDbSymbolTableRecord
100
AcDbLayerTableRecord
  2
CUT
 70
     0
 62
     1
  6
Continuous
370
    25
390
F
  0
LAYER
  5
1C1
330
2
100
AcDbSymbolTableRecord
100
AcDbLayerTableRecord
  2
NOCUT
 70
     0
 62
     7
  6
Continuous
370
    25
390
F
  0
LAYER
  5
1C2
330
2
100
AcDbSymbolTableRecord
100
AcDbLayerTableRecord
  2
SK1
 70
     0
 62
     4
  6
Continuous
370
    50
390
F
  0
LAYER
  5
1C3
330
2
100
AcDbSymbolTableRecord
100
AcDbLayerTableRecord
  2
SK2
 70
     0
 62
     7
  6
Continuous
370
    25
390
F
  0
LAYER
  5
1C4
330
2
100
AcDbSymbolTableRecord
100
AcDbLayerTableRecord
  2
SK3
 70
     0
 62
     1
  6
DASH
370
    35
390
F
  0
LAYER
  5
1C5
330
2
100
AcDbSymbolTableRecord
100
AcDbLayerTableRecord
  2
SK4
 70
     0
 62
     2
  6
LONGDASH_DASH
370
    25
390
F
  0
LAYER
  5
1C6
330
2
100
AcDbSymbolTableRecord
100
AcDbLayerTableRecord
  2
SK6
 70
     0
 62
     5
  6
Continuous
370
    -3
390
F
  0
LAYER
  5
1C7
330
2
100
AcDbSymbolTableRecord
100
AcDbLayerTableRecord
  2
INFTOTAL
 70
     0
 62
     9
  6
Continuous
370
    18
390
F
  0
ENDTAB
  0
TABLE
  2
STYLE
  5
3
330
0
100
AcDbSymbolTable
 70
     2
  0
STYLE
  5
11
330
3
100
AcDbSymbolTableRecord
100
AcDbTextStyleTableRecord
  2
Standard
 70
     0
 40
0.0
 41
1.0
 50
0.0
 71
     0
 42
0.2
  3
txt
  4

  0
STYLE
  5
180
330
3
100
AcDbSymbolTableRecord
100
AcDbTextStyleTableRecord
  2
BMG_Text
 70
     0
 40
3.5
 41
1.0
 50
0.0
 71
     0
 42
0.2
  3
monos.ttf
  4

1001
ACAD
1000
Monospac821 BT
1071
       49
  0
ENDTAB
  0
TABLE
  2
VIEW
  5
6
330
0
100
AcDbSymbolTable
 70
     0
  0
ENDTAB
  0
TABLE
  2
UCS
  5
7
330
0
100
AcDbSymbolTable
 70
     0
  0
ENDTAB
  0
TABLE
  2
APPID
  5
9
330
0
100
AcDbSymbolTable
 70
     1
  0
APPID
  5
12
330
9
100
AcDbSymbolTableRecord
100
AcDbRegAppTableRecord
  2
ACAD
 70
     0
  0
ENDTAB
  0
TABLE
  2
DIMSTYLE
  5
A
330
0
100
AcDbSymbolTable
 70
     1
100
AcDbDimStyleTable
  0
DIMSTYLE
105
28
330
A
100
AcDbSymbolTableRecord
100
AcDbDimStyleTableRecord
  2
Standard
 70
     0
178
     0
340
11
  0
ENDTAB
  0
TABLE
  2
BLOCK_RECORD
  5
1
330
0
100
AcDbSymbolTable
 70
     0
  0
BLOCK_RECORD
  5
1D
330
1
100
AcDbSymbolTableRecord
100
AcDbBlockTableRecord
  2
*Model_Space
340
1E
  0
BLOCK_RECORD
  5
1B
330
1
100
AcDbSymbolTableRecord
100
AcDbBlockTableRecord
  2
*Paper_Space
340
1C
  0
ENDTAB
  0
ENDSEC
  0
SECTION
  2
BLOCKS
  0
BLOCK
  5
169
330
1D
100
AcDbEntity
  8
0
100
AcDbBlockBegin
  2
*Model_Space
 70
     0
 10
0.0
 20
0.0
 30
0.0
  3
*Model_Space
  1

  0
ENDBLK
  5
16A
330
1D
100
AcDbEntity
  8
0
100
AcDbBlockEnd
  0
BLOCK
  5
167
330
1B
100
AcDbEntity
 67
     1
  8
0
100
AcDbBlockBegin
  2
*Paper_Space
 70
     0
 10
0.0
 20
0.0
 30
0.0
  3
*Paper_Space
  1

  0
ENDBLK
  5
168
330
1B
100
AcDbEntity
 67
     1
  8
0
100
AcDbBlockEnd
  0
ENDSEC
  0
SECTION
  2
ENTITIES
  0
ARC
  5
29
330
1D
100
AcDbEntity
  8
1
100
AcDbCircle
 10
1.5
 20
36.42500305
 30
0.0
 40
1.5
100
AcDbArc
 50
270.0
 51
0.0
  0
LINE
  5
2A
330
1D
100
AcDbEntity
  8
1
100
AcDbLine
 10
15.70022583
 20
50.0
 30
0.0
 11
15.70022583
 21
-50.0
 31
0.0
  0
LINE
  5
2B
330
1D
100
AcDbEntity
  8
1
100
AcDbLine
 10
30.69978333
 20
50.0
 30
0.0
 11
30.69978333
 21
-50.0
 31
0.0
  0
ARC
  5
2C
330
1D
100
AcDbEntity
  8
1
100
AcDbCircle
 10
26.44999695
 20
42.7250061
 30
0.0
 40
0.30000305
100
AcDbArc
 50
270.0
 51
0.0
  0
ARC
  5
2D
330
1D
100
AcDbEntity
  8
1
100
AcDbCircle
 10
19.94999695
 20
42.7250061
 30
0.0
 40
0.30000305
100
AcDbArc
 50
180.0
 51
270.0
  0
LINE
  5
2E
330
1D
100
AcDbEntity
  8
1
100
AcDbLine
 10
15.70022583
 20
50.0
 30
0.0
 11
4.0
 21
50.0
 31
0.0
  0
LINE
  5
2F
330
1D
100
AcDbEntity
  8
1
100
AcDbLine
 10
19.6499939
 20
43.15878296
 30
0.0
 11
15.70022583
 21
50.0
 31
0.0
  0
LINE
  5
30
330
1D
100
AcDbEntity
  8
1
100
AcDbLine
 10
26.75
 20
43.15878296
 30
0.0
 11
30.69978333
 21
50.0
 31
0.0
  0
LINE
  5
31
330
1D
100
AcDbEntity
  8
1
100
AcDbLine
 10
26.44999695
 20
42.42500305
 30
0.0
 11
19.94999695
 21
42.42500305
 31
0.0
  0
LINE
  5
32
330
1D
100
AcDbEntity
  8
1
100
AcDbLine
 10
19.6499939
 20
-43.15878296
 30
0.0
 11
19.6499939
 21
43.15878296
 31
0.0
  0
LINE
  5
33
330
1D
100
AcDbEntity
  8
1
100
AcDbLine
 10
26.75
 20
-43.15878296
 30
0.0
 11
26.75
 21
43.15878296
 31
0.0
  0
LINE
  5
34
330
1D
100
AcDbEntity
  8
1
100
AcDbLine
 10
1.5
 20
34.92500305
 30
0.0
 11
0.0
 21
34.92500305
 31
0.0
  0
ARC
  5
35
330
1D
100
AcDbEntity
  8
1
100
AcDbCircle
 10
43.0
 20
36.75
 30
0.0
 40
5.0
100
AcDbArc
 50
180.0
 51
270.0
  0
LINE
  5
36
330
1D
100
AcDbEntity
  8
1
100
AcDbLine
 10
4.0
 20
50.0
 30
0.0
 11
3.0
 21
49.0
 31
0.0
  0
LINE
  5
37
330
1D
100
AcDbEntity
  8
1
100
AcDbLine
 10
38.0
 20
49.0
 30
0.0
 11
36.99998474
 21
50.0
 31
0.0
  0
LINE
  5
38
330
1D
100
AcDbEntity
  8
1
100
AcDbLine
 10
36.99998474
 20
50.0
 30
0.0
 11
30.69978333
 21
50.0
 31
0.0
  0
LINE
  5
39
330
1D
100
AcDbEntity
  8
1
100
AcDbLine
 10
38.0
 20
49.0
 30
0.0
 11
38.0
 21
-49.0
 31
0.0
  0
LINE
  5
3A
330
1D
100
AcDbEntity
  8
1
100
AcDbLine
 10
3.0
 20
49.0
 30
0.0
 11
3.0
 21
-49.0
 31
0.0
  0
LINE
  5
3B
330
1D
100
AcDbEntity
  8
1
100
AcDbLine
 10
58.94999695
 20
-1.73204041
 30
0.0
 11
58.94999695
 21
1.73204041
 31
0.0
  0
LINE
  5
3C
330
1D
100
AcDbEntity
  8
1
100
AcDbLine
 10
55.94999695
 20
3.46409607
 30
0.0
 11
58.94999695
 21
1.73204041
 31
0.0
  0
LINE
  5
3D
330
1D
100
AcDbEntity
  8
1
100
AcDbLine
 10
52.94999695
 20
1.73204041
 30
0.0
 11
55.94999695
 21
3.46409607
 31
0.0
  0
LINE
  5
3E
330
1D
100
AcDbEntity
  8
1
100
AcDbLine
 10
52.94999695
 20
-1.73204041
 30
0.0
 11
52.94999695
 21
1.73204041
 31
0.0
  0
CIRCLE
  5
3F
330
1D
100
AcDbEntity
  8
1
100
AcDbCircle
 10
55.94999695
 20
0.0
 30
0.0
 40
6.0
  0
LINE
  5
40
330
1D
100
AcDbEntity
  8
1
100
AcDbLine
 10
71.0
 20
31.75
 30
0.0
 11
72.0
 21
30.75
 31
0.0
  0
LINE
  5
41
330
1D
100
AcDbEntity
  8
1
100
AcDbLine
 10
72.0
 20
30.75
 30
0.0
 11
72.0
 21
-30.75000763
 31
0.0
  0
LINE
  5
42
330
1D
100
AcDbEntity
  8
1
100
AcDbLine
 10
43.0
 20
31.75
 30
0.0
 11
71.0
 21
31.75
 31
0.0
  0
ARC
  5
43
330
1D
100
AcDbEntity
  8
1
100
AcDbCircle
 10
1.5
 20
-36.42500305
 30
0.0
 40
1.5
100
AcDbArc
 50
0.0
 51
90.0
  0
LINE
  5
44
330
1D
100
AcDbEntity
  8
1
100
AcDbLine
 10
15.70022583
 20
-50.0
 30
0.0
 11
4.0
 21
-50.0
 31
0.0
  0
ARC
  5
45
330
1D
100
AcDbEntity
  8
1
100
AcDbCircle
 10
26.44999695
 20
-42.72502136
 30
0.0
 40
0.30000305
100
AcDbArc
 50
0.0
 51
90.00000763000017
  0
ARC
  5
46
330
1D
100
AcDbEntity
  8
1
100
AcDbCircle
 10
19.94999695
 20
-42.72502136
 30
0.0
 40
0.30000305
100
AcDbArc
 50
90.0
 51
180.0
  0
LINE
  5
47
330
1D
100
AcDbEntity
  8
1
100
AcDbLine
 10
26.75
 20
-43.15878296
 30
0.0
 11
30.69978333
 21
-50.0
 31
0.0
  0
LINE
  5
48
330
1D
100
AcDbEntity
  8
1
100
AcDbLine
 10
26.44999695
 20
-42.42500305
 30
0.0
 11
19.94999695
 21
-42.42500305
 31
0.0
  0
LINE
  5
49
330
1D
100
AcDbEntity
  8
1
100
AcDbLine
 10
19.6499939
 20
-43.15878296
 30
0.0
 11
15.70022583
 21
-50.0
 31
0.0
  0
LINE
  5
4A
330
1D
100
AcDbEntity
  8
1
100
AcDbLine
 10
1.5
 20
-34.92500305
 30
0.0
 11
0.0
 21
-34.92500305
 31
0.0
  0
LINE
  5
4B
330
1D
100
AcDbEntity
  8
1
100
AcDbLine
 10
38.0
 20
-49.0
 30
0.0
 11
37.0
 21
-50.0
 31
0.0
  0
LINE
  5
4C
330
1D
100
AcDbEntity
  8
1
100
AcDbLine
 10
3.0
 20
-49.0
 30
0.0
 11
4.0
 21
-50.0
 31
0.0
  0
ARC
  5
4D
330
1D
100
AcDbEntity
  8
1
100
AcDbCircle
 10
43.0
 20
-36.75
 30
0.0
 40
5.0
100
AcDbArc
 50
90.0
 51
180.0
  0
LINE
  5
4E
330
1D
100
AcDbEntity
  8
1
100
AcDbLine
 10
37.0
 20
-50.0
 30
0.0
 11
30.69976807
 21
-50.0
 31
0.0
  0
LINE
  5
4F
330
1D
100
AcDbEntity
  8
1
100
AcDbLine
 10
52.94999695
 20
-1.73204041
 30
0.0
 11
55.94999695
 21
-3.46409607
 31
0.0
  0
LINE
  5
50
330
1D
100
AcDbEntity
  8
1
100
AcDbLine
 10
58.94999695
 20
-1.73204041
 30
0.0
 11
55.94999695
 21
-3.46409607
 31
0.0
  0
LINE
  5
51
330
1D
100
AcDbEntity
  8
1
100
AcDbLine
 10
72.0
 20
-30.75
 30
0.0
 11
71.0
 21
-31.75
 31
0.0
  0
LINE
  5
52
330
1D
100
AcDbEntity
  8
1
100
AcDbLine
 10
43.0
 20
-31.75
 30
0.0
 11
71.0
 21
-31.75
 31
0.0
  0
LINE
  5
53
330
1D
100
AcDbEntity
  8
SK4
100
AcDbLine
 10
55.94999695
 20
-7.0
 30
0.0
 11
55.94999695
 21
7.0
 31
0.0
  0
LINE
  5
54
330
1D
100
AcDbEntity
  8
SK4
100
AcDbLine
 10
74.0
 20
0.0
 30
0.0
 11
-103.80000305
 21
0.0
 31
0.0
  0
LINE
  5
55
330
1D
100
AcDbEntity
  8
SK3
100
AcDbLine
 10
-8.0
 20
13.0
 30
0.0
 11
-8.0
 21
-13.0
 31
0.0
  0
LINE
  5
56
330
1D
100
AcDbEntity
  8
SK3
100
AcDbLine
 10
-8.0
 20
13.0
 30
0.0
 11
-9.443374630000001
 21
10.5
 31
0.0
  0
LINE
  5
57
330
1D
100
AcDbEntity
  8
SK3
100
AcDbLine
 10
-9.443374630000001
 20
10.5
 30
0.0
 11
-9.443374630000001
 21
-10.5
 31
0.0
  0
LINE
  5
58
330
1D
100
AcDbEntity
  8
SK3
100
AcDbLine
 10
-9.443374630000001
 20
10.5
 30
0.0
 11
-89.44530487
 21
10.5
 31
0.0
  0
LINE
  5
59
330
1D
100
AcDbEntity
  8
SK3
100
AcDbLine
 10
-54.80000305
 20
12.0
 30
0.0
 11
-49.20192718999999
 21
10.5
 31
0.0
  0
LINE
  5
5A
330
1D
100
AcDbEntity
  8
SK3
100
AcDbLine
 10
-54.80000305
 20
12.0
 30
0.0
 11
-54.80000305
 21
-12.0
 31
0.0
  0
LINE
  5
5B
330
1D
100
AcDbEntity
  8
SK3
100
AcDbLine
 10
-54.80000305
 20
12.0
 30
0.0
 11
-90.3113327
 21
12.0
 31
0.0
  0
LINE
  5
5C
330
1D
100
AcDbEntity
  8
SK3
100
AcDbLine
 10
-90.6000061
 20
12.5
 30
0.0
 11
-89.44530487
 21
10.5
 31
0.0
  0
LINE
  5
5D
330
1D
100
AcDbEntity
  8
SK3
100
AcDbLine
 10
-89.44530487
 20
10.5
 30
0.0
 11
-89.44529724
 21
-10.5
 31
0.0
  0
LINE
  5
5E
330
1D
100
AcDbEntity
  8
SK3
100
AcDbLine
 10
-90.6000061
 20
12.5
 30
0.0
 11
-90.6000061
 21
-12.5
 31
0.0
  0
LINE
  5
5F
330
1D
100
AcDbEntity
  8
SK3
100
AcDbLine
 10
-90.6000061
 20
12.5
 30
0.0
 11
-101.80000305
 21
12.5
 31
0.0
  0
LINE
  5
60
330
1D
100
AcDbEntity
  8
3
100
AcDbLine
 10
30.0
 20
16.5
 30
0.0
 11
27.0
 21
16.5
 31
0.0
  0
LINE
  5
61
330
1D
100
AcDbEntity
  8
3
100
AcDbLine
 10
27.0
 20
16.5
 30
0.0
 11
27.0
 21
-16.5
 31
0.0
  0
LINE
  5
62
330
1D
100
AcDbEntity
  8
3
100
AcDbLine
 10
27.0
 20
13.0
 30
0.0
 11
0.0
 21
13.0
 31
0.0
  0
LINE
  5
63
330
1D
100
AcDbEntity
  8
3
100
AcDbLine
 10
30.0
 20
18.0
 30
0.0
 11
72.0
 21
18.0
 31
0.0
  0
LINE
  5
64
330
1D
100
AcDbEntity
  8
3
100
AcDbLine
 10
30.0
 20
18.0
 30
0.0
 11
30.0
 21
-18.0
 31
0.0
  0
LINE
  5
65
330
1D
100
AcDbEntity
  8
SK3
100
AcDbLine
 10
-8.0
 20
-13.0
 30
0.0
 11
-9.443374630000001
 21
-10.5
 31
0.0
  0
LINE
  5
66
330
1D
100
AcDbEntity
  8
SK3
100
AcDbLine
 10
-9.443374630000001
 20
-10.5
 30
0.0
 11
-89.44529724
 21
-10.5
 31
0.0
  0
LINE
  5
67
330
1D
100
AcDbEntity
  8
SK3
100
AcDbLine
 10
-54.80000305
 20
-12.0
 30
0.0
 11
-49.20192718999999
 21
-10.5
 31
0.0
  0
LINE
  5
68
330
1D
100
AcDbEntity
  8
SK3
100
AcDbLine
 10
-90.31132507
 20
-12.0
 30
0.0
 11
-54.80000305
 21
-12.0
 31
0.0
  0
LINE
  5
69
330
1D
100
AcDbEntity
  8
SK3
100
AcDbLine
 10
-90.6000061
 20
-12.5
 30
0.0
 11
-89.44529724
 21
-10.5
 31
0.0
  0
LINE
  5
6A
330
1D
100
AcDbEntity
  8
SK3
100
AcDbLine
 10
-90.6000061
 20
-12.5
 30
0.0
 11
-101.80000305
 21
-12.5
 31
0.0
  0
LINE
  5
6B
330
1D
100
AcDbEntity
  8
3
100
AcDbLine
 10
30.0
 20
-16.5
 30
0.0
 11
27.0
 21
-16.5
 31
0.0
  0
LINE
  5
6C
330
1D
100
AcDbEntity
  8
3
100
AcDbLine
 10
27.0
 20
-13.0
 30
0.0
 11
0.0
 21
-13.00000000000001
 31
0.0
  0
LINE
  5
6D
330
1D
100
AcDbEntity
  8
3
100
AcDbLine
 10
30.0
 20
-18.0
 30
0.0
 11
72.0
 21
-18.0
 31
0.0
  0
LINE
  5
6E
330
1D
100
AcDbEntity
  8
SK1
100
AcDbLine
 10
0.0
 20
34.92500305
 30
0.0
 11
-100.08862305
 21
20.32865906
 31
0.0
  0
LINE
  5
6F
330
1D
100
AcDbEntity
  8
SK1
100
AcDbLine
 10
0.0
 20
34.92500305
 30
0.0
 11
0.0
 21
-34.92500305
 31
0.0
  0
ARC
  5
70
330
1D
100
AcDbEntity
  8
SK1
100
AcDbCircle
 10
-99.80000304999999
 20
18.34957886
 30
0.0
 40
2.0
100
AcDbArc
 50
98.29714966000087
 51
180.0
  0
LINE
  5
71
330
1D
100
AcDbEntity
  8
SK1
100
AcDbLine
 10
-101.80000305
 20
18.34957886
 30
0.0
 11
-101.80000305
 21
-18.34957886
 31
0.0
  0
ARC
  5
72
330
1D
100
AcDbEntity
  8
SK1
100
AcDbCircle
 10
-99.80000304999999
 20
-18.34957886
 30
0.0
 40
2.0
100
AcDbArc
 50
180.0
 51
261.702789309999
  0
LINE
  5
73
330
1D
100
AcDbEntity
  8
SK1
100
AcDbLine
 10
0.0
 20
-34.92500305
 30
0.0
 11
-100.08862305
 21
-20.3286438
 31
0.0
  0
LINE
  5
74
330
1D
100
AcDbEntity
  8
2
100
AcDbLine
 10
0.0
 20
60.848064421
 30
0.0
 11
0.0
 21
34.92500305
 31
0.0
  0
LINE
  5
75
330
1D
100
AcDbEntity
  8
2
100
AcDbLine
 10
0.0
 20
58.848064421
 30
0.0
 11
3.5
 21
59.298064421
 31
0.0
  0
LINE
  5
76
330
1D
100
AcDbEntity
  8
2
100
AcDbLine
 10
3.5
 20
59.298064421
 30
0.0
 11
3.5
 21
58.398064421
 31
0.0
  0
LINE
  5
77
330
1D
100
AcDbEntity
  8
2
100
AcDbLine
 10
3.5
 20
58.398064421
 30
0.0
 11
0.0
 21
58.848064421
 31
0.0
  0
LINE
  5
78
330
1D
100
AcDbEntity
  8
2
100
AcDbLine
 10
3.399999999999999
 20
58.848064421
 30
0.0
 11
0.1000000000000014
 21
58.848064421
 31
0.0
  0
LINE
  5
79
330
1D
100
AcDbEntity
  8
2
100
AcDbLine
 10
3.399999999999999
 20
58.648064421
 30
0.0
 11
1.655555556000003
 21
58.648064421
 31
0.0
  0
LINE
  5
7A
330
1D
100
AcDbEntity
  8
2
100
AcDbLine
 10
3.399999999999999
 20
59.048064421
 30
0.0
 11
1.655555556000003
 21
59.048064421
 31
0.0
  0
LINE
  5
7B
330
1D
100
AcDbEntity
  8
2
100
AcDbLine
 10
3.399999999999999
 20
58.448064421
 30
0.0
 11
3.211111111000001
 21
58.448064421
 31
0.0
  0
LINE
  5
7C
330
1D
100
AcDbEntity
  8
2
100
AcDbLine
 10
3.399999999999999
 20
59.248064421
 30
0.0
 11
3.211111111000001
 21
59.248064421
 31
0.0
  0
LINE
  5
7D
330
1D
100
AcDbEntity
  8
2
100
AcDbLine
 10
72.0
 20
60.848064423
 30
0.0
 11
72.0
 21
30.75
 31
0.0
  0
LINE
  5
7E
330
1D
100
AcDbEntity
  8
2
100
AcDbLine
 10
72.0
 20
58.848064423
 30
0.0
 11
68.5
 21
58.398064423
 31
0.0
  0
LINE
  5
7F
330
1D
100
AcDbEntity
  8
2
100
AcDbLine
 10
68.5
 20
58.398064423
 30
0.0
 11
68.5
 21
59.298064423
 31
0.0
  0
LINE
  5
80
330
1D
100
AcDbEntity
  8
2
100
AcDbLine
 10
68.5
 20
59.298064423
 30
0.0
 11
72.0
 21
58.848064423
 31
0.0
  0
LINE
  5
81
330
1D
100
AcDbEntity
  8
2
100
AcDbLine
 10
68.6
 20
58.848064423
 30
0.0
 11
71.9
 21
58.848064423
 31
0.0
  0
LINE
  5
82
330
1D
100
AcDbEntity
  8
2
100
AcDbLine
 10
68.6
 20
59.048064423
 30
0.0
 11
70.344444444
 21
59.048064423
 31
0.0
  0
LINE
  5
83
330
1D
100
AcDbEntity
  8
2
100
AcDbLine
 10
68.6
 20
58.648064423
 30
0.0
 11
70.344444444
 21
58.648064423
 31
0.0
  0
LINE
  5
84
330
1D
100
AcDbEntity
  8
2
100
AcDbLine
 10
68.6
 20
59.248064423
 30
0.0
 11
68.788888889
 21
59.248064423
 31
0.0
  0
LINE
  5
85
330
1D
100
AcDbEntity
  8
2
100
AcDbLine
 10
68.6
 20
58.448064423
 30
0.0
 11
68.788888889
 21
58.448064423
 31
0.0
  0
LINE
  5
86
330
1D
100
AcDbEntity
  8
2
100
AcDbLine
 10
3.5
 20
58.848064421
 30
0.0
 11
68.5
 21
58.848064423
 31
0.0
  0
TEXT
  5
87
330
1D
100
AcDbEntity
  8
2
100
AcDbText
 10
34.335311695
 20
60.348064422
 30
0.0
 40
3.5
  1
72
  7
BMG_Text
100
AcDbText
  0
LINE
  5
88
330
1D
100
AcDbEntity
  8
2
100
AcDbLine
 10
84.255437851
 20
-18.0
 30
0.0
 11
72.0
 21
-18.0
 31
0.0
  0
LINE
  5
89
330
1D
100
AcDbEntity
  8
2
100
AcDbLine
 10
82.255437851
 20
-18.0
 30
0.0
 11
81.805437851
 21
-14.5
 31
0.0
  0
LINE
  5
8A
330
1D
100
AcDbEntity
  8
2
100
AcDbLine
 10
81.805437851
 20
-14.5
 30
0.0
 11
82.705437851
 21
-14.5
 31
0.0
  0
LINE
  5
8B
330
1D
100
AcDbEntity
  8
2
100
AcDbLine
 10
82.705437851
 20
-14.5
 30
0.0
 11
82.255437851
 21
-18.0
 31
0.0
  0
LINE
  5
8C
330
1D
100
AcDbEntity
  8
2
100
AcDbLine
 10
82.255437851
 20
-14.6
 30
0.0
 11
82.255437851
 21
-17.9
 31
0.0
  0
LINE
  5
8D
330
1D
100
AcDbEntity
  8
2
100
AcDbLine
 10
82.455437851
 20
-14.6
 30
0.0
 11
82.455437851
 21
-16.344444444
 31
0.0
  0
LINE
  5
8E
330
1D
100
AcDbEntity
  8
2
100
AcDbLine
 10
82.055437851
 20
-14.6
 30
0.0
 11
82.055437851
 21
-16.344444444
 31
0.0
  0
LINE
  5
8F
330
1D
100
AcDbEntity
  8
2
100
AcDbLine
 10
82.655437851
 20
-14.6
 30
0.0
 11
82.655437851
 21
-14.788888889
 31
0.0
  0
LINE
  5
90
330
1D
100
AcDbEntity
  8
2
100
AcDbLine
 10
81.855437851
 20
-14.6
 30
0.0
 11
81.855437851
 21
-14.788888889
 31
0.0
  0
LINE
  5
91
330
1D
100
AcDbEntity
  8
2
100
AcDbLine
 10
84.255437851
 20
18.0
 30
0.0
 11
72.0
 21
18.0
 31
0.0
  0
LINE
  5
92
330
1D
100
AcDbEntity
  8
2
100
AcDbLine
 10
82.255437851
 20
18.0
 30
0.0
 11
82.705437851
 21
14.5
 31
0.0
  0
LINE
  5
93
330
1D
100
AcDbEntity
  8
2
100
AcDbLine
 10
82.705437851
 20
14.5
 30
0.0
 11
81.805437851
 21
14.5
 31
0.0
  0
LINE
  5
94
330
1D
100
AcDbEntity
  8
2
100
AcDbLine
 10
81.805437851
 20
14.5
 30
0.0
 11
82.255437851
 21
18.0
 31
0.0
  0
LINE
  5
95
330
1D
100
AcDbEntity
  8
2
100
AcDbLine
 10
82.255437851
 20
14.6
 30
0.0
 11
82.255437851
 21
17.9
 31
0.0
  0
LINE
  5
96
330
1D
100
AcDbEntity
  8
2
100
AcDbLine
 10
82.055437851
 20
14.6
 30
0.0
 11
82.055437851
 21
16.344444444
 31
0.0
  0
LINE
  5
97
330
1D
100
AcDbEntity
  8
2
100
AcDbLine
 10
82.455437851
 20
14.6
 30
0.0
 11
82.455437851
 21
16.344444444
 31
0.0
  0
LINE
  5
98
330
1D
100
AcDbEntity
  8
2
100
AcDbLine
 10
81.855437851
 20
14.6
 30
0.0
 11
81.855437851
 21
14.788888889
 31
0.0
  0
LINE
  5
99
330
1D
100
AcDbEntity
  8
2
100
AcDbLine
 10
82.655437851
 20
14.6
 30
0.0
 11
82.655437851
 21
14.788888889
 31
0.0
  0
LINE
  5
9A
330
1D
100
AcDbEntity
  8
2
100
AcDbLine
 10
82.255437851
 20
-14.5
 30
0.0
 11
82.255437851
 21
14.5
 31
0.0
  0
TEXT
  5
9B
330
1D
100
AcDbEntity
  8
2
100
AcDbText
 10
80.755437851
 20
0.3314058480000002
 30
0.0
 40
3.5
  1
36
 50
90.0
  7
BMG_Text
100
AcDbText
  0
CIRCLE
  5
9C
330
1D
100
AcDbEntity
  8
2
100
AcDbCircle
 10
79.505437851
 20
-1.918594152
 30
0.0
 40
1.25
  0
LINE
  5
9D
330
1D
100
AcDbEntity
  8
2
100
AcDbLine
 10
80.755437851
 20
-3.168594152
 30
0.0
 11
78.255437851
 21
-0.6685941519999998
 31
0.0
  0
LINE
  5
9E
330
1D
100
AcDbEntity
  8
2
100
AcDbLine
 10
94.315942764
 20
-31.75
 30
0.0
 11
71.0
 21
-31.75
 31
0.0
  0
LINE
  5
9F
330
1D
100
AcDbEntity
  8
2
100
AcDbLine
 10
92.315942764
 20
-31.75
 30
0.0
 11
91.865942764
 21
-28.25
 31
0.0
  0
LINE
  5
A0
330
1D
100
AcDbEntity
  8
2
100
AcDbLine
 10
91.865942764
 20
-28.25
 30
0.0
 11
92.765942764
 21
-28.25
 31
0.0
  0
LINE
  5
A1
330
1D
100
AcDbEntity
  8
2
100
AcDbLine
 10
92.765942764
 20
-28.25
 30
0.0
 11
92.315942764
 21
-31.75
 31
0.0
  0
LINE
  5
A2
330
1D
100
AcDbEntity
  8
2
100
AcDbLine
 10
92.315942764
 20
-28.35
 30
0.0
 11
92.315942764
 21
-31.65
 31
0.0
  0
LINE
  5
A3
330
1D
100
AcDbEntity
  8
2
100
AcDbLine
 10
92.515942764
 20
-28.35
 30
0.0
 11
92.515942764
 21
-30.094444444
 31
0.0
  0
LINE
  5
A4
330
1D
100
AcDbEntity
  8
2
100
AcDbLine
 10
92.115942764
 20
-28.35
 30
0.0
 11
92.115942764
 21
-30.094444444
 31
0.0
  0
LINE
  5
A5
330
1D
100
AcDbEntity
  8
2
100
AcDbLine
 10
92.715942764
 20
-28.35
 30
0.0
 11
92.715942764
 21
-28.538888889
 31
0.0
  0
LINE
  5
A6
330
1D
100
AcDbEntity
  8
2
100
AcDbLine
 10
91.915942764
 20
-28.35
 30
0.0
 11
91.915942764
 21
-28.538888889
 31
0.0
  0
LINE
  5
A7
330
1D
100
AcDbEntity
  8
2
100
AcDbLine
 10
94.315942764
 20
31.75
 30
0.0
 11
71.0
 21
31.75
 31
0.0
  0
LINE
  5
A8
330
1D
100
AcDbEntity
  8
2
100
AcDbLine
 10
92.315942764
 20
31.75
 30
0.0
 11
92.765942764
 21
28.25
 31
0.0
  0
LINE
  5
A9
330
1D
100
AcDbEntity
  8
2
100
AcDbLine
 10
92.765942764
 20
28.25
 30
0.0
 11
91.865942764
 21
28.25
 31
0.0
  0
LINE
  5
AA
330
1D
100
AcDbEntity
  8
2
100
AcDbLine
 10
91.865942764
 20
28.25
 30
0.0
 11
92.315942764
 21
31.75
 31
0.0
  0
LINE
  5
AB
330
1D
100
AcDbEntity
  8
2
100
AcDbLine
 10
92.315942764
 20
28.35
 30
0.0
 11
92.315942764
 21
31.65
 31
0.0
  0
LINE
  5
AC
330
1D
100
AcDbEntity
  8
2
100
AcDbLine
 10
92.115942764
 20
28.35
 30
0.0
 11
92.115942764
 21
30.094444444
 31
0.0
  0
LINE
  5
AD
330
1D
100
AcDbEntity
  8
2
100
AcDbLine
 10
92.515942764
 20
28.35
 30
0.0
 11
92.515942764
 21
30.094444444
 31
0.0
  0
LINE
  5
AE
330
1D
100
AcDbEntity
  8
2
100
AcDbLine
 10
91.915942764
 20
28.35
 30
0.0
 11
91.915942764
 21
28.538888889
 31
0.0
  0
LINE
  5
AF
330
1D
100
AcDbEntity
  8
2
100
AcDbLine
 10
92.715942764
 20
28.35
 30
0.0
 11
92.715942764
 21
28.538888889
 31
0.0
  0
LINE
  5
B0
330
1D
100
AcDbEntity
  8
2
100
AcDbLine
 10
92.315942764
 20
-28.25
 30
0.0
 11
92.315942764
 21
28.25
 31
0.0
  0
TEXT
  5
B1
330
1D
100
AcDbEntity
  8
2
100
AcDbText
 10
90.815942764
 20
-1.17250071
 30
0.0
 40
3.5
  1
63.5
 50
90.0
  7
BMG_Text
100
AcDbText
  0
CIRCLE
  5
B2
330
1D
100
AcDbEntity
  8
2
100
AcDbCircle
 10
89.565942764
 20
-3.42250071
 30
0.0
 40
1.25
  0
LINE
  5
B3
330
1D
100
AcDbEntity
  8
2
100
AcDbLine
 10
90.815942764
 20
-4.67250071
 30
0.0
 11
88.315942764
 21
-2.17250071
 31
0.0
  0
LINE
  5
B4
330
1D
100
AcDbEntity
  8
SK2
100
AcDbLine
 10
-111.781486511
 20
-34.92500305
 30
0.0
 11
0.0
 21
-34.92500305
 31
0.0
  0
LINE
  5
B5
330
1D
100
AcDbEntity
  8
SK2
100
AcDbLine
 10
-109.781486511
 20
-34.92500305
 30
0.0
 11
-110.231486511
 21
-31.42500305
 31
0.0
  0
LINE
  5
B6
330
1D
100
AcDbEntity
  8
SK2
100
AcDbLine
 10
-110.231486511
 20
-31.42500305
 30
0.0
 11
-109.331486511
 21
-31.42500305
 31
0.0
  0
LINE
  5
B7
330
1D
100
AcDbEntity
  8
SK2
100
AcDbLine
 10
-109.331486511
 20
-31.42500305
 30
0.0
 11
-109.781486511
 21
-34.92500305
 31
0.0
  0
LINE
  5
B8
330
1D
100
AcDbEntity
  8
SK2
100
AcDbLine
 10
-109.781486511
 20
-31.52500305
 30
0.0
 11
-109.781486511
 21
-34.82500305
 31
0.0
  0
LINE
  5
B9
330
1D
100
AcDbEntity
  8
SK2
100
AcDbLine
 10
-109.581486511
 20
-31.52500305
 30
0.0
 11
-109.581486511
 21
-33.269447494
 31
0.0
  0
LINE
  5
BA
330
1D
100
AcDbEntity
  8
SK2
100
AcDbLine
 10
-109.981486511
 20
-31.52500305
 30
0.0
 11
-109.981486511
 21
-33.269447494
 31
0.0
  0
LINE
  5
BB
330
1D
100
AcDbEntity
  8
SK2
100
AcDbLine
 10
-109.381486511
 20
-31.52500305
 30
0.0
 11
-109.381486511
 21
-31.713891939
 31
0.0
  0
LINE
  5
BC
330
1D
100
AcDbEntity
  8
SK2
100
AcDbLine
 10
-110.181486511
 20
-31.52500305
 30
0.0
 11
-110.181486511
 21
-31.713891939
 31
0.0
  0
LINE
  5
BD
330
1D
100
AcDbEntity
  8
SK2
100
AcDbLine
 10
-111.781486511
 20
34.92500305
 30
0.0
 11
0.0
 21
34.92500305
 31
0.0
  0
LINE
  5
BE
330
1D
100
AcDbEntity
  8
SK2
100
AcDbLine
 10
-109.781486511
 20
34.92500305
 30
0.0
 11
-109.331486511
 21
31.42500305
 31
0.0
  0
LINE
  5
BF
330
1D
100
AcDbEntity
  8
SK2
100
AcDbLine
 10
-109.331486511
 20
31.42500305
 30
0.0
 11
-110.231486511
 21
31.42500305
 31
0.0
  0
LINE
  5
C0
330
1D
100
AcDbEntity
  8
SK2
100
AcDbLine
 10
-110.231486511
 20
31.42500305
 30
0.0
 11
-109.781486511
 21
34.92500305
 31
0.0
  0
LINE
  5
C1
330
1D
100
AcDbEntity
  8
SK2
100
AcDbLine
 10
-109.781486511
 20
31.52500305
 30
0.0
 11
-109.781486511
 21
34.82500305
 31
0.0
  0
LINE
  5
C2
330
1D
100
AcDbEntity
  8
SK2
100
AcDbLine
 10
-109.981486511
 20
31.52500305
 30
0.0
 11
-109.981486511
 21
33.269447494
 31
0.0
  0
LINE
  5
C3
330
1D
100
AcDbEntity
  8
SK2
100
AcDbLine
 10
-109.581486511
 20
31.52500305
 30
0.0
 11
-109.581486511
 21
33.269447494
 31
0.0
  0
LINE
  5
C4
330
1D
100
AcDbEntity
  8
SK2
100
AcDbLine
 10
-110.181486511
 20
31.52500305
 30
0.0
 11
-110.181486511
 21
31.713891939
 31
0.0
  0
LINE
  5
C5
330
1D
100
AcDbEntity
  8
SK2
100
AcDbLine
 10
-109.381486511
 20
31.52500305
 30
0.0
 11
-109.381486511
 21
31.713891939
 31
0.0
  0
LINE
  5
C6
330
1D
100
AcDbEntity
  8
SK2
100
AcDbLine
 10
-109.781486511
 20
-31.42500305
 30
0.0
 11
-109.781486511
 21
31.42500305
 31
0.0
  0
TEXT
  5
C7
330
1D
100
AcDbEntity
  8
SK2
100
AcDbText
 10
-111.281486511
 20
-2.430313281
 30
0.0
 40
3.5
  1
69.85
 50
90.0
  7
BMG_Text
100
AcDbText
  0
CIRCLE
  5
C8
330
1D
100
AcDbEntity
  8
SK2
100
AcDbCircle
 10
-112.531486511
 20
-4.680313281
 30
0.0
 40
1.25
  0
LINE
  5
C9
330
1D
100
AcDbEntity
  8
SK2
100
AcDbLine
 10
-111.281486511
 20
-5.930313281
 30
0.0
 11
-113.781486511
 21
-3.430313281
 31
0.0
  0
LINE
  5
CA
330
1D
100
AcDbEntity
  8
2
100
AcDbLine
 10
0.0
 20
-60.953681944
 30
0.0
 11
0.0
 21
-34.92500305
 31
0.0
  0
LINE
  5
CB
330
1D
100
AcDbEntity
  8
2
100
AcDbLine
 10
0.0
 20
-58.953681944
 30
0.0
 11
3.500000004999997
 21
-58.503681987
 31
0.0
  0
LINE
  5
CC
330
1D
100
AcDbEntity
  8
2
100
AcDbLine
 10
3.500000004999997
 20
-58.503681987
 30
0.0
 11
3.499999995000003
 21
-59.403681987
 31
0.0
  0
LINE
  5
CD
330
1D
100
AcDbEntity
  8
2
100
AcDbLine
 10
3.499999995000003
 20
-59.403681987
 30
0.0
 11
0.0
 21
-58.953681944
 31
0.0
  0
LINE
  5
CE
330
1D
100
AcDbEntity
  8
2
100
AcDbLine
 10
3.399999999999999
 20
-58.953681985
 30
0.0
 11
0.1000000000000014
 21
-58.953681945
 31
0.0
  0
LINE
  5
CF
330
1D
100
AcDbEntity
  8
2
100
AcDbLine
 10
3.399999997999998
 20
-59.153681985
 30
0.0
 11
1.655555552999999
 21
-59.153681964
 31
0.0
  0
LINE
  5
D0
330
1D
100
AcDbEntity
  8
2
100
AcDbLine
 10
3.400000001999999
 20
-58.753681985
 30
0.0
 11
1.655555558000003
 21
-58.753681964
 31
0.0
  0
LINE
  5
D1
330
1D
100
AcDbEntity
  8
2
100
AcDbLine
 10
3.399999995000002
 20
-59.353681985
 30
0.0
 11
3.211111105999997
 21
-59.353681983
 31
0.0
  0
LINE
  5
D2
330
1D
100
AcDbEntity
  8
2
100
AcDbLine
 10
3.400000005000003
 20
-58.553681985
 30
0.0
 11
3.211111115999998
 21
-58.553681983
 31
0.0
  0
LINE
  5
D3
330
1D
100
AcDbEntity
  8
2
100
AcDbLine
 10
43.0
 20
-60.953682466
 30
0.0
 11
43.0
 21
-35.624321505
 31
0.0
  0
LINE
  5
D4
330
1D
100
AcDbEntity
  8
2
100
AcDbLine
 10
43.0
 20
-58.953682466
 30
0.0
 11
39.499999995
 21
-59.403682424
 31
0.0
  0
LINE
  5
D5
330
1D
100
AcDbEntity
  8
2
100
AcDbLine
 10
39.499999995
 20
-59.403682424
 30
0.0
 11
39.500000005
 21
-58.503682424
 31
0.0
  0
LINE
  5
D6
330
1D
100
AcDbEntity
  8
2
100
AcDbLine
 10
39.500000005
 20
-58.503682424
 30
0.0
 11
43.0
 21
-58.953682466
 31
0.0
  0
LINE
  5
D7
330
1D
100
AcDbEntity
  8
2
100
AcDbLine
 10
39.6
 20
-58.953682425
 30
0.0
 11
42.9
 21
-58.953682465
 31
0.0
  0
LINE
  5
D8
330
1D
100
AcDbEntity
  8
2
100
AcDbLine
 10
39.600000002
 20
-58.753682425
 30
0.0
 11
41.344444447
 21
-58.753682446
 31
0.0
  0
LINE
  5
D9
330
1D
100
AcDbEntity
  8
2
100
AcDbLine
 10
39.599999998
 20
-59.153682425
 30
0.0
 11
41.344444442
 21
-59.153682446
 31
0.0
  0
LINE
  5
DA
330
1D
100
AcDbEntity
  8
2
100
AcDbLine
 10
39.600000005
 20
-58.553682425
 30
0.0
 11
39.788888894
 21
-58.553682427
 31
0.0
  0
LINE
  5
DB
330
1D
100
AcDbEntity
  8
2
100
AcDbLine
 10
39.599999995
 20
-59.353682425
 30
0.0
 11
39.788888884
 21
-59.353682427
 31
0.0
  0
LINE
  5
DC
330
1D
100
AcDbEntity
  8
2
100
AcDbLine
 10
3.5
 20
-58.953681987
 30
0.0
 11
39.5
 21
-58.953682424
 31
0.0
  0
TEXT
  5
DD
330
1D
100
AcDbEntity
  8
2
100
AcDbText
 10
20.026718288
 20
-57.453682187
 30
0.0
 40
3.499999999999999
  1
43
 50
359.999999304
  7
BMG_Text
100
AcDbText
  0
LINE
  5
DE
330
1D
100
AcDbEntity
  8
2
100
AcDbLine
 10
43.0
 20
-60.953682466
 30
0.0
 11
43.0
 21
-35.624321505
 31
0.0
  0
LINE
  5
DF
330
1D
100
AcDbEntity
  8
2
100
AcDbLine
 10
43.0
 20
-58.953682466
 30
0.0
 11
46.5
 21
-58.503682466
 31
0.0
  0
LINE
  5
E0
330
1D
100
AcDbEntity
  8
2
100
AcDbLine
 10
46.5
 20
-58.503682466
 30
0.0
 11
46.5
 21
-59.403682466
 31
0.0
  0
LINE
  5
E1
330
1D
100
AcDbEntity
  8
2
100
AcDbLine
 10
46.5
 20
-59.403682466
 30
0.0
 11
43.0
 21
-58.953682466
 31
0.0
  0
LINE
  5
E2
330
1D
100
AcDbEntity
  8
2
100
AcDbLine
 10
46.4
 20
-58.953682466
 30
0.0
 11
43.1
 21
-58.953682466
 31
0.0
  0
LINE
  5
E3
330
1D
100
AcDbEntity
  8
2
100
AcDbLine
 10
46.4
 20
-59.153682466
 30
0.0
 11
44.655555556
 21
-59.153682466
 31
0.0
  0
LINE
  5
E4
330
1D
100
AcDbEntity
  8
2
100
AcDbLine
 10
46.4
 20
-58.753682466
 30
0.0
 11
44.655555556
 21
-58.753682466
 31
0.0
  0
LINE
  5
E5
330
1D
100
AcDbEntity
  8
2
100
AcDbLine
 10
46.4
 20
-59.353682466
 30
0.0
 11
46.211111111
 21
-59.353682466
 31
0.0
  0
LINE
  5
E6
330
1D
100
AcDbEntity
  8
2
100
AcDbLine
 10
46.4
 20
-58.553682466
 30
0.0
 11
46.211111111
 21
-58.553682466
 31
0.0
  0
LINE
  5
E7
330
1D
100
AcDbEntity
  8
2
100
AcDbLine
 10
46.5
 20
-58.953682466
 30
0.0
 11
74.9
 21
-58.953682466
 31
0.0
  0
TEXT
  5
E8
330
1D
100
AcDbEntity
  8
2
100
AcDbText
 10
82.0986251652841
 20
-57.453682466
 30
0.0
 40
3.5
  1
100
  7
BMG_Text
100
AcDbText
  0
TEXT
  5
E9
330
1D
100
AcDbEntity
  8
2
100
AcDbText
 10
45.437030893
 20
-57.453682466
 30
0.0
 40
3.5
  1
Ausdrehtiefe
  7
BMG_Text
100
AcDbText
  0
TEXT
  5
EA
330
1D
100
AcDbEntity
  8
SK6
100
AcDbText
 10
84.10376072025183
 20
-84.0327638067098
 30
0.0
 40
3.5
  1
323.770
  7
BMG_Text
100
AcDbText
  0
LINE
  5
EB
330
1D
100
AcDbEntity
  8
SK6
100
AcDbLine
 10
-67.95976257
 20
-50.00996399
 30
0.0
 11
-67.95976257
 21
-52.07995605
 31
0.0
  0
ARC
  5
EC
330
1D
100
AcDbEntity
  8
SK6
100
AcDbCircle
 10
-70.8397522
 20
-53.15996552
 30
0.0
 40
1.08000004
100
AcDbArc
 50
90.00000763000021
 51
206.54360962
  0
LINE
  5
ED
330
1D
100
AcDbEntity
  8
SK6
100
AcDbLine
 10
-70.8397522
 20
-52.07998657
 30
0.0
 11
-67.95974731
 21
-52.07998657
 31
0.0
  0
ARC
  5
EE
330
1D
100
AcDbEntity
  8
SK6
100
AcDbCircle
 10
-72.009758
 20
-52.70996094
 30
0.0
 40
2.70000005
100
AcDbArc
 50
90.00000763000003
 51
206.5436554000001
  0
ARC
  5
EF
330
1D
100
AcDbEntity
  8
SK6
100
AcDbCircle
 10
-71.28974152
 20
-62.60997009
 30
0.0
 40
1.08000004
100
AcDbArc
 50
270.0
 51
26.54360961999999
  0
LINE
  5
F0
330
1D
100
AcDbEntity
  8
SK6
100
AcDbLine
 10
-71.28974152
 20
-63.68997192
 30
0.0
 11
-74.70973969
 21
-63.68997192
 31
0.0
  0
LINE
  5
F1
330
1D
100
AcDbEntity
  8
SK6
100
AcDbLine
 10
-74.42515564
 20
-53.91653442
 30
0.0
 11
-70.32359314
 21
-62.12732697
 31
0.0
  0
ARC
  5
F2
330
1D
100
AcDbEntity
  8
SK6
100
AcDbCircle
 10
-70.11975098
 20
-63.05997467
 30
0.0
 40
2.70000005
100
AcDbArc
 50
270.0
 51
26.54364014000005
  0
LINE
  5
F3
330
1D
100
AcDbEntity
  8
SK6
100
AcDbLine
 10
-71.80591583
 20
-53.64259338
 30
0.0
 11
-67.7043457
 21
-61.85339355
 31
0.0
  0
LINE
  5
F4
330
1D
100
AcDbEntity
  8
SK6
100
AcDbLine
 10
-74.70976257
 20
-63.68997192
 30
0.0
 11
-74.70976257
 21
-65.75997925
 31
0.0
  0
LINE
  5
F5
330
1D
100
AcDbEntity
  8
SK6
100
AcDbLine
 10
-74.70976257
 20
-65.75997925
 30
0.0
 11
-70.11975861
 21
-65.75997925
 31
0.0
  0
LINE
  5
F6
330
1D
100
AcDbEntity
  8
SK6
100
AcDbLine
 10
-65.259758
 20
-65.75997925
 30
0.0
 11
-65.259758
 21
-50.00997925
 31
0.0
  0
LINE
  5
F7
330
1D
100
AcDbEntity
  8
SK6
100
AcDbLine
 10
-56.97975159000001
 20
-65.75997925
 30
0.0
 11
-56.97975159000001
 21
-50.00997925
 31
0.0
  0
LINE
  5
F8
330
1D
100
AcDbEntity
  8
SK6
100
AcDbLine
 10
-56.97975159000001
 20
-65.75997925
 30
0.0
 11
-54.27975845
 21
-65.75997925
 31
0.0
  0
LINE
  5
F9
330
1D
100
AcDbEntity
  8
SK6
100
AcDbLine
 10
-54.27975845
 20
-65.75997925
 30
0.0
 11
-54.27975845
 21
-58.91998291
 31
0.0
  0
ARC
  5
FA
330
1D
100
AcDbEntity
  8
SK6
100
AcDbCircle
 10
-52.92974472
 20
-59.99996948
 30
0.0
 40
1.08000004
100
AcDbArc
 50
0.0
 51
90.00000763000021
  0
LINE
  5
FB
330
1D
100
AcDbEntity
  8
SK6
100
AcDbLine
 10
-52.92974472
 20
-58.91996765
 30
0.0
 11
-54.27974700999999
 21
-58.91996765
 31
0.0
  0
LINE
  5
FC
330
1D
100
AcDbEntity
  8
SK6
100
AcDbLine
 10
-51.84976578
 20
-63.23997498
 30
0.0
 11
-51.84976578
 21
-64.22996521
 31
0.0
  0
ARC
  5
FD
330
1D
100
AcDbEntity
  8
SK6
100
AcDbCircle
 10
-46.71976852
 20
-64.22997284
 30
0.0
 40
2.51999998
100
AcDbArc
 50
180.0
 51
217.3831939700002
  0
ARC
  5
FE
330
1D
100
AcDbEntity
  8
SK6
100
AcDbCircle
 10
-49.32977676
 20
-64.22997284
 30
0.0
 40
2.51999998
100
AcDbArc
 50
180.0
 51
217.3831939700002
  0
LINE
  5
FF
330
1D
100
AcDbEntity
  8
SK6
100
AcDbLine
 10
-48.81216049
 20
-65.75997925
 30
0.0
 11
-51.33216095
 21
-65.75997925
 31
0.0
  0
LINE
  5
100
330
1D
100
AcDbEntity
  8
SK6
100
AcDbLine
 10
-51.84976578
 20
-59.99998474
 30
0.0
 11
-51.84976578
 21
-64.22997284
 31
0.0
  0
ARC
  5
101
330
1D
100
AcDbEntity
  8
SK6
100
AcDbCircle
 10
-51.75974655
 20
-60.17997742
 30
0.0
 40
2.51999998
100
AcDbArc
 50
358.70883179
 51
93.06652832
  0
ARC
  5
102
330
1D
100
AcDbEntity
  8
SK6
100
AcDbCircle
 10
-52.02975845
 20
-55.1399765
 30
0.0
 40
2.51999998
100
AcDbArc
 50
273.06652832
 51
0.0
  0
ARC
  5
103
330
1D
100
AcDbEntity
  8
SK6
100
AcDbCircle
 10
-52.02975845
 20
-52.52998352
 30
0.0
 40
2.51999998
100
AcDbArc
 50
0.0
 51
90.0000076300001
  0
LINE
  5
104
330
1D
100
AcDbEntity
  8
SK6
100
AcDbLine
 10
-49.50974655
 20
-52.52998352
 30
0.0
 11
-49.50974655
 21
-55.13998413
 31
0.0
  0
ARC
  5
105
330
1D
100
AcDbEntity
  8
SK6
100
AcDbCircle
 10
-52.65975571
 20
-52.97998047
 30
0.0
 40
0.90000004
100
AcDbArc
 50
0.0
 51
90.00000762999981
  0
LINE
  5
106
330
1D
100
AcDbEntity
  8
SK6
100
AcDbLine
 10
-52.65975571
 20
-52.07998657
 30
0.0
 11
-54.27975845
 21
-52.07998657
 31
0.0
  0
ARC
  5
107
330
1D
100
AcDbEntity
  8
SK6
100
AcDbCircle
 10
-52.65975571
 20
-55.85997009
 30
0.0
 40
0.90000004
100
AcDbArc
 50
270.0
 51
0.0
  0
LINE
  5
108
330
1D
100
AcDbEntity
  8
SK6
100
AcDbLine
 10
-51.75974655
 20
-52.97998047
 30
0.0
 11
-51.75974655
 21
-55.85997772
 31
0.0
  0
LINE
  5
109
330
1D
100
AcDbEntity
  8
SK6
100
AcDbLine
 10
-54.27975845
 20
-52.07998657
 30
0.0
 11
-54.27975845
 21
-56.75997925
 31
0.0
  0
LINE
  5
10A
330
1D
100
AcDbEntity
  8
SK6
100
AcDbLine
 10
-52.65975571
 20
-56.75997925
 30
0.0
 11
-54.27975845
 21
-56.75997925
 31
0.0
  0
LINE
  5
10B
330
1D
100
AcDbEntity
  8
SK6
100
AcDbLine
 10
-49.24039841
 20
-60.236763
 30
0.0
 11
-49.23976898000001
 21
-64.2303772
 31
0.0
  0
LINE
  5
10C
330
1D
100
AcDbEntity
  8
SK6
100
AcDbLine
 10
-48.81216049
 20
-65.75997925
 30
0.0
 11
-48.72216415
 21
-65.75997925
 31
0.0
  0
LINE
  5
10D
330
1D
100
AcDbEntity
  8
SK6
100
AcDbLine
 10
-72.009758
 20
-50.00996399
 30
0.0
 11
-67.95975494
 21
-50.00996399
 31
0.0
  0
LINE
  5
10E
330
1D
100
AcDbEntity
  8
SK6
100
AcDbLine
 10
-52.02975845
 20
-50.00996399
 30
0.0
 11
-56.97976303
 21
-50.00996399
 31
0.0
  0
LINE
  5
10F
330
1D
100
AcDbEntity
  8
SK6
100
AcDbLine
 10
-99.009758
 20
-65.75997925
 30
0.0
 11
-101.79975891
 21
-65.75997925
 31
0.0
  0
LINE
  5
110
330
1D
100
AcDbEntity
  8
SK6
100
AcDbLine
 10
-99.009758
 20
-62.33998108
 30
0.0
 11
-99.009758
 21
-65.75997925
 31
0.0
  0
LINE
  5
111
330
1D
100
AcDbEntity
  8
SK6
100
AcDbLine
 10
-97.92975616000001
 20
-60.26997375
 30
0.0
 11
-99.009758
 21
-62.33998108
 31
0.0
  0
LINE
  5
112
330
1D
100
AcDbEntity
  8
SK6
100
AcDbLine
 10
-95.49976349000002
 20
-65.75997925
 30
0.0
 11
-97.92975616000001
 21
-60.26997375
 31
0.0
  0
LINE
  5
113
330
1D
100
AcDbEntity
  8
SK6
100
AcDbLine
 10
-92.70976257000001
 20
-65.75997925
 30
0.0
 11
-95.49975586
 21
-65.75997925
 31
0.0
  0
LINE
  5
114
330
1D
100
AcDbEntity
  8
SK6
100
AcDbLine
 10
-96.30976867999999
 20
-56.75997925
 30
0.0
 11
-92.70976257000001
 21
-65.75997925
 31
0.0
  0
LINE
  5
115
330
1D
100
AcDbEntity
  8
SK6
100
AcDbLine
 10
-93.24976349000002
 20
-50.00997925
 30
0.0
 11
-96.30975341999999
 21
-56.75997925
 31
0.0
  0
LINE
  5
116
330
1D
100
AcDbEntity
  8
SK6
100
AcDbLine
 10
-99.009758
 20
-57.11998749
 30
0.0
 11
-96.0397644
 21
-50.00999451
 31
0.0
  0
LINE
  5
117
330
1D
100
AcDbEntity
  8
SK6
100
AcDbLine
 10
-99.009758
 20
-50.00997925
 30
0.0
 11
-99.009758
 21
-57.11998749
 31
0.0
  0
LINE
  5
118
330
1D
100
AcDbEntity
  8
SK6
100
AcDbLine
 10
-101.79975891
 20
-65.75997925
 30
0.0
 11
-101.79975891
 21
-50.00997925
 31
0.0
  0
LINE
  5
119
330
1D
100
AcDbEntity
  8
SK6
100
AcDbLine
 10
-96.0397644
 20
-50.00997925
 30
0.0
 11
-93.24976349000002
 21
-50.00997925
 31
0.0
  0
LINE
  5
11A
330
1D
100
AcDbEntity
  8
SK6
100
AcDbLine
 10
-101.79975891
 20
-50.00997925
 30
0.0
 11
-99.009758
 21
-50.00997925
 31
0.0
  0
LINE
  5
11B
330
1D
100
AcDbEntity
  8
SK6
100
AcDbLine
 10
-79.74975586
 20
-50.00997925
 30
0.0
 11
-79.74975586
 21
-65.75997925
 31
0.0
  0
LINE
  5
11C
330
1D
100
AcDbEntity
  8
SK6
100
AcDbLine
 10
-76.86975098
 20
-65.75997925
 30
0.0
 11
-76.86975098
 21
-50.00997925
 31
0.0
  0
LINE
  5
11D
330
1D
100
AcDbEntity
  8
SK6
100
AcDbLine
 10
-79.74975586
 20
-65.75997925
 30
0.0
 11
-76.86975098
 21
-65.75997925
 31
0.0
  0
LINE
  5
11E
330
1D
100
AcDbEntity
  8
SK6
100
AcDbLine
 10
-76.86975098
 20
-50.00997925
 30
0.0
 11
-79.74976349
 21
-50.00997925
 31
0.0
  0
LINE
  5
11F
330
1D
100
AcDbEntity
  8
SK6
100
AcDbLine
 10
-59.40975571
 20
-65.75997925
 30
0.0
 11
-59.40975571
 21
-63.68997192
 31
0.0
  0
LINE
  5
120
330
1D
100
AcDbEntity
  8
SK6
100
AcDbLine
 10
-65.259758
 20
-65.75997925
 30
0.0
 11
-59.40975571
 21
-65.75997925
 31
0.0
  0
LINE
  5
121
330
1D
100
AcDbEntity
  8
SK6
100
AcDbLine
 10
-59.40976714999999
 20
-52.07997131
 30
0.0
 11
-59.40976714999999
 21
-50.00997925
 31
0.0
  0
LINE
  5
122
330
1D
100
AcDbEntity
  8
SK6
100
AcDbLine
 10
-62.37978362999999
 20
-52.07997131
 30
0.0
 11
-59.40977859
 21
-52.07997131
 31
0.0
  0
LINE
  5
123
330
1D
100
AcDbEntity
  8
SK6
100
AcDbLine
 10
-62.37978362999999
 20
-56.75997925
 30
0.0
 11
-62.37978362999999
 21
-52.07998657
 31
0.0
  0
LINE
  5
124
330
1D
100
AcDbEntity
  8
SK6
100
AcDbLine
 10
-59.40976714999999
 20
-56.75997925
 30
0.0
 11
-62.37977219
 21
-56.75997925
 31
0.0
  0
LINE
  5
125
330
1D
100
AcDbEntity
  8
SK6
100
AcDbLine
 10
-59.40976714999999
 20
-58.91996002
 30
0.0
 11
-59.40976714999999
 21
-56.75995636
 31
0.0
  0
LINE
  5
126
330
1D
100
AcDbEntity
  8
SK6
100
AcDbLine
 10
-62.37978362999999
 20
-58.91996002
 30
0.0
 11
-59.40977859
 21
-58.91996002
 31
0.0
  0
LINE
  5
127
330
1D
100
AcDbEntity
  8
SK6
100
AcDbLine
 10
-62.37978362999999
 20
-63.68997192
 30
0.0
 11
-62.37978362999999
 21
-58.91996002
 31
0.0
  0
LINE
  5
128
330
1D
100
AcDbEntity
  8
SK6
100
AcDbLine
 10
-59.40976714999999
 20
-63.68997192
 30
0.0
 11
-62.37977219
 21
-63.68997192
 31
0.0
  0
LINE
  5
129
330
1D
100
AcDbEntity
  8
SK6
100
AcDbLine
 10
-59.40976714999999
 20
-50.00997925
 30
0.0
 11
-65.25976563
 21
-50.00997925
 31
0.0
  0
LINE
  5
12A
330
1D
100
AcDbEntity
  8
SK6
100
AcDbLine
 10
-85.32975769
 20
-65.75997925
 30
0.0
 11
-91.62976074
 21
-65.75997925
 31
0.0
  0
LINE
  5
12B
330
1D
100
AcDbEntity
  8
SK6
100
AcDbLine
 10
-85.77974701
 20
-63.23996735
 30
0.0
 11
-85.32975769
 21
-65.75996399
 31
0.0
  0
LINE
  5
12C
330
1D
100
AcDbEntity
  8
SK6
100
AcDbLine
 10
-88.65976715
 20
-63.23996735
 30
0.0
 11
-85.7797699
 21
-63.23996735
 31
0.0
  0
LINE
  5
12D
330
1D
100
AcDbEntity
  8
SK6
100
AcDbLine
 10
-87.12976074
 20
-53.87998199
 30
0.0
 11
-88.65975952
 21
-63.23999023
 31
0.0
  0
LINE
  5
12E
330
1D
100
AcDbEntity
  8
SK6
100
AcDbLine
 10
-84.06976318
 20
-65.75997925
 30
0.0
 11
-87.12976074
 21
-53.87998199
 31
0.0
  0
LINE
  5
12F
330
1D
100
AcDbEntity
  8
SK6
100
AcDbLine
 10
-81.09975433
 20
-65.75997925
 30
0.0
 11
-84.06974792
 21
-65.75997925
 31
0.0
  0
LINE
  5
130
330
1D
100
AcDbEntity
  8
SK6
100
AcDbLine
 10
-85.509758
 20
-49.55997467
 30
0.0
 11
-81.09976196
 21
-65.75997925
 31
0.0
  0
LINE
  5
131
330
1D
100
AcDbEntity
  8
SK6
100
AcDbLine
 10
-88.56976318
 20
-49.55997467
 30
0.0
 11
-85.50976563
 21
-49.55997467
 31
0.0
  0
LINE
  5
132
330
1D
100
AcDbEntity
  8
SK6
100
AcDbLine
 10
-91.62976074
 20
-65.75997925
 30
0.0
 11
-88.56976318
 21
-49.55997467
 31
0.0
  0
POINT
  5
133
330
1D
100
AcDbEntity
  8
200
100
AcDbPoint
 10
0.0
 20
0.0
 30
0.0
  0
POINT
  5
134
330
1D
100
AcDbEntity
  8
200
100
AcDbPoint
 10
0.0
 20
0.0
 30
0.0
  0
POINT
  5
135
330
1D
100
AcDbEntity
  8
200
100
AcDbPoint
 10
0.0
 20
0.0
 30
0.0
  0
POINT
  5
136
330
1D
100
AcDbEntity
  8
200
100
AcDbPoint
 10
0.0
 20
0.0
 30
0.0
  0
POINT
  5
137
330
1D
100
AcDbEntity
  8
200
100
AcDbPoint
 10
0.0
 20
0.0
 30
0.0
  0
POINT
  5
138
330
1D
100
AcDbEntity
  8
200
100
AcDbPoint
 10
0.0
 20
0.0
 30
0.0
  0
POINT
  5
139
330
1D
100
AcDbEntity
  8
200
100
AcDbPoint
 10
0.0
 20
0.0
 30
0.0
  0
POINT
  5
13A
330
1D
100
AcDbEntity
  8
200
100
AcDbPoint
 10
0.0
 20
0.0
 30
0.0
  0
POINT
  5
13B
330
1D
100
AcDbEntity
  8
200
100
AcDbPoint
 10
0.0
 20
0.0
 30
0.0
  0
POINT
  5
13C
330
1D
100
AcDbEntity
  8
200
100
AcDbPoint
 10
0.0
 20
0.0
 30
0.0
  0
POINT
  5
13D
330
1D
100
AcDbEntity
  8
200
100
AcDbPoint
 10
0.0
 20
0.0
 30
0.0
  0
POINT
  5
13E
330
1D
100
AcDbEntity
  8
200
100
AcDbPoint
 10
0.0
 20
0.0
 30
0.0
  0
LWPOLYLINE
  5
1DC
330
1D
100
AcDbEntity
  8
INFTOTAL
100
AcDbPolyline
 90
        4
 70
     1
 43
0.0
 10
-134.4522374103179
 20
97.71508705643049
 10
-134.4522374103179
 20
-88.16500238457132
 10
109.8473087121413
 20
-88.16500238457132
 10
109.8473087121413
 20
97.71508705643049
  0
LINE
  5
1E0
330
1D
100
AcDbEntity
  8
NOCUT
100
AcDbLine
 10
0.0
 20
34.92500305
 30
0.0
 11
1.5
 21
34.92500305
 31
0.0
  0
LINE
  5
1E1
330
1D
100
AcDbEntity
  8
NOCUT
100
AcDbLine
 10
3.0
 20
36.42500305
 30
0.0
 11
3.0
 21
49.0
 31
0.0
  0
LINE
  5
1E2
330
1D
100
AcDbEntity
  8
NOCUT
100
AcDbLine
 10
3.0
 20
49.0
 30
0.0
 11
4.0
 21
50.0
 31
0.0
  0
LINE
  5
1E3
330
1D
100
AcDbEntity
  8
NOCUT
100
AcDbLine
 10
4.0
 20
50.0
 30
0.0
 11
15.70022583
 21
50.0
 31
0.0
  0
LINE
  5
1E4
330
1D
100
AcDbEntity
  8
NOCUT
100
AcDbLine
 10
15.70022583
 20
50.0
 30
0.0
 11
19.6499939
 21
43.15878296
 31
0.0
  0
LINE
  5
1E5
330
1D
100
AcDbEntity
  8
NOCUT
100
AcDbLine
 10
19.6499939
 20
43.15878296
 30
0.0
 11
19.6499939
 21
42.7250061
 31
0.0
  0
LINE
  5
1E6
330
1D
100
AcDbEntity
  8
NOCUT
100
AcDbLine
 10
19.94999695
 20
42.42500305
 30
0.0
 11
26.44999695
 21
42.42500305
 31
0.0
  0
LINE
  5
1E7
330
1D
100
AcDbEntity
  8
NOCUT
100
AcDbLine
 10
26.75
 20
42.7250061
 30
0.0
 11
26.75
 21
43.15878296
 31
0.0
  0
LINE
  5
1E8
330
1D
100
AcDbEntity
  8
NOCUT
100
AcDbLine
 10
26.75
 20
43.15878296
 30
0.0
 11
30.69978333
 21
50.0
 31
0.0
  0
LINE
  5
1E9
330
1D
100
AcDbEntity
  8
NOCUT
100
AcDbLine
 10
30.69978333
 20
50.0
 30
0.0
 11
36.99998474
 21
50.0
 31
0.0
  0
LINE
  5
1EA
330
1D
100
AcDbEntity
  8
NOCUT
100
AcDbLine
 10
36.99998474
 20
50.0
 30
0.0
 11
38.0
 21
49.0
 31
0.0
  0
LINE
  5
1EB
330
1D
100
AcDbEntity
  8
NOCUT
100
AcDbLine
 10
38.0
 20
49.0
 30
0.0
 11
38.0
 21
36.75
 31
0.0
  0
LINE
  5
1EC
330
1D
100
AcDbEntity
  8
NOCUT
100
AcDbLine
 10
43.0
 20
31.75
 30
0.0
 11
71.0
 21
31.75
 31
0.0
  0
LINE
  5
1ED
330
1D
100
AcDbEntity
  8
NOCUT
100
AcDbLine
 10
71.0
 20
31.75
 30
0.0
 11
72.0
 21
30.75
 31
0.0
  0
LINE
  5
1EE
330
1D
100
AcDbEntity
  8
NOCUT
100
AcDbLine
 10
72.0
 20
30.75
 30
0.0
 11
72.0
 21
-0.0000038149999995
 31
0.0
  0
LINE
  5
1EF
330
1D
100
AcDbEntity
  8
NOCUT
100
AcDbLine
 10
72.0
 20
-0.0000038149999995
 30
0.0
 11
0.0366451010581272
 21
-0.0000038149999906
 31
0.0
  0
ARC
  5
1F1
330
1D
100
AcDbEntity
  8
NOCUT
100
AcDbCircle
 10
43.0
 20
36.75
 30
0.0
 40
5.0
100
AcDbArc
 50
180.0
 51
270.0
  0
ARC
  5
1F2
330
1D
100
AcDbEntity
  8
NOCUT
100
AcDbCircle
 10
1.5
 20
36.42500305
 30
0.0
 40
1.499999999999998
100
AcDbArc
 50
270.0
 51
0.0
  0
LINE
  5
224
330
1D
100
AcDbEntity
  8
4
100
AcDbLine
 10
74.0
 20
0.0
 30
0.0
 11
0.0
 21
0.0
 31
0.0
  0
LINE
  5
225
330
1D
100
AcDbEntity
  8
4
100
AcDbLine
 10
55.94999695
 20
7.0
 30
0.0
 11
55.94999695
 21
-7.0
 31
0.0
  0
LINE
  5
234
330
1D
100
AcDbEntity
  8
1
100
AcDbLine
 10
0.0
 20
34.92500305
 30
0.0
 11
0.0
 21
-34.92500305
 31
0.0
  0
LINE
  5
243
330
1D
100
AcDbEntity
  8
SK3
100
AcDbLine
 10
-8.0
 20
13.0
 30
0.0
 11
0.0
 21
13.0
 31
0.0
  0
LINE
  5
244
330
1D
100
AcDbEntity
  8
SK3
100
AcDbLine
 10
0.0
 20
-13.00000000000001
 30
0.0
 11
-8.0
 21
-13.0
 31
0.0
  0
LINE
  5
261
330
1D
100
AcDbEntity
  8
SK3
100
AcDbLine
 10
-8.0
 20
13.0
 30
0.0
 11
0.0
 21
13.0
 31
0.0
  0
LINE
  5
262
330
1D
100
AcDbEntity
  8
SK3
100
AcDbLine
 10
0.0
 20
-13.00000000000001
 30
0.0
 11
-8.0
 21
-13.0
 31
0.0
  0
LINE
  5
272
330
1D
100
AcDbEntity
  8
NOCUT
100
AcDbLine
 10
0.0
 20
0.0
 30
0.0
 11
0.0
 21
34.92500305
 31
0.0
  0
ENDSEC
  0
SECTION
  2
OBJECTS
  0
DICTIONARY
  5
C
330
0
100
AcDbDictionary
281
     1
  3
ACAD_DETAILVIEWSTYLE
350
1F6
  3
ACAD_GROUP
350
D
  3
ACAD_LAYOUT
350
1A
  3
ACAD_MLINESTYLE
350
17
  3
ACAD_PLOTSETTINGS
350
19
  3
ACAD_PLOTSTYLENAME
350
E
  3
ACAD_SCALELIST
350
145
  3
ACAD_SECTIONVIEWSTYLE
350
1F7
  3
AcDbVariableDictionary
350
187
  3
APPDATA
350
1D5
  3
DWGPROPS
350
2AA
  0
DICTIONARY
  5
1D6
330
2
100
AcDbDictionary
280
     1
281
     1
  3
ACAD_LAYERSTATES
360
1D7
  0
DICTIONARY
  5
1F6
102
{ACAD_REACTORS
330
C
102
}
330
C
100
AcDbDictionary
281
     1
  0
DICTIONARY
  5
D
102
{ACAD_REACTORS
330
C
102
}
330
C
100
AcDbDictionary
281
     1
  0
DICTIONARY
  5
1A
102
{ACAD_REACTORS
330
C
102
}
330
C
100
AcDbDictionary
281
     1
  3
Layout1
350
1C
  3
Model
350
1E
  0
DICTIONARY
  5
17
102
{ACAD_REACTORS
330
C
102
}
330
C
100
AcDbDictionary
281
     1
  3
Standard
350
18
  0
DICTIONARY
  5
19
102
{ACAD_REACTORS
330
C
102
}
330
C
100
AcDbDictionary
281
     1
  0
ACDBDICTIONARYWDFLT
  5
E
102
{ACAD_REACTORS
330
C
102
}
330
C
100
AcDbDictionary
281
     1
  3
Normal
350
F
100
AcDbDictionaryWithDefault
340
F
  0
DICTIONARY
  5
145
102
{ACAD_REACTORS
330
C
102
}
330
C
100
AcDbDictionary
281
     1
  3
A0
350
146
  3
A1
350
147
  3
A2
350
148
  3
A3
350
149
  3
A4
350
14A
  3
A5
350
14B
  3
A6
350
14C
  3
A7
350
14D
  3
A8
350
14E
  3
A9
350
14F
  3
B0
350
150
  3
B1
350
151
  3
B2
350
152
  3
B3
350
153
  3
B4
350
154
  3
B5
350
155
  3
B6
350
156
  3
B7
350
157
  3
B8
350
158
  3
B9
350
159
  3
C0
350
15A
  3
C1
350
15B
  3
C2
350
15C
  3
C3
350
15D
  3
C4
350
15E
  3
C5
350
15F
  3
C6
350
160
  3
C7
350
161
  3
C8
350
162
  3
C9
350
163
  3
D0
350
164
  3
D1
350
165
  3
D2
350
166
  0
DICTIONARY
  5
1F7
102
{ACAD_REACTORS
330
C
102
}
330
C
100
AcDbDictionary
281
     1
  0
DICTIONARY
  5
187
102
{ACAD_REACTORS
330
C
102
}
330
C
100
AcDbDictionary
281
     1
  3
DIMASSOC
350
18B
  3
HIDETEXT
350
18C
  0
DICTIONARY
  5
1D5
102
{ACAD_REACTORS
330
C
102
}
330
C
100
AcDbDictionary
281
     1
  0
XRECORD
  5
2AA
102
{ACAD_REACTORS
330
C
102
}
330
C
100
AcDbXrecord
280
     1
  1
DWGPROPS COOKIE
  2

  3

  4

  6

  7

  8
matthias.ochs
  9

300
=
301
=
302
=
303
=
304
=
305
=
306
=
307
=
308
=
309
=
 40
0.0
 41
2458327.466017905
 42
2458589.557967789
  1

 90
        0
  0
DICTIONARY
  5
1D7
102
{ACAD_REACTORS
330
1D6
102
}
330
1D6
100
AcDbDictionary
281
     1
  0
LAYOUT
  5
1C
102
{ACAD_REACTORS
330
1A
102
}
330
1A
100
AcDbPlotSettings
  1

  2
none_device
  4

  6

 40
0.0
 41
0.0
 42
0.0
 43
0.0
 44
0.0
 45
0.0
 46
0.0
 47
0.0
 48
0.0
 49
0.0
140
0.0
141
0.0
142
1.0
143
1.0
 70
   688
 72
     0
 73
     0
 74
     5
  7

 75
    16
147
1.0
148
0.0
149
0.0
100
AcDbLayout
  1
Layout1
 70
     1
 71
     1
 10
0.0
 20
0.0
 11
12.0
 21
9.0
 12
0.0
 22
0.0
 32
0.0
 14
1.000000000000000E+20
 24
1.000000000000000E+20
 34
1.000000000000000E+20
 15
-1.000000000000000E+20
 25
-1.000000000000000E+20
 35
-1.000000000000000E+20
146
0.0
 13
0.0
 23
0.0
 33
0.0
 16
1.0
 26
0.0
 36
0.0
 17
0.0
 27
1.0
 37
0.0
 76
     0
330
1B
  0
LAYOUT
  5
1E
102
{ACAD_REACTORS
330
1A
102
}
330
1A
100
AcDbPlotSettings
  1

  2
none_device
  4

  6

 40
0.0
 41
0.0
 42
0.0
 43
0.0
 44
0.0
 45
0.0
 46
0.0
 47
0.0
 48
0.0
 49
0.0
140
0.0
141
0.0
142
1.0
143
1.0
 70
  1712
 72
     0
 73
     0
 74
     0
  7

 75
     0
147
1.0
148
0.0
149
0.0
100
AcDbLayout
  1
Model
 70
     1
 71
     0
 10
0.0
 20
0.0
 11
12.0
 21
9.0
 12
0.0
 22
0.0
 32
0.0
 14
-134.4522374103179
 24
-88.16500238457132
 34
0.0
 15
109.8473087121413
 25
97.71508705643049
 35
0.0
146
0.0
 13
0.0
 23
0.0
 33
0.0
 16
1.0
 26
0.0
 36
0.0
 17
0.0
 27
1.0
 37
0.0
 76
     0
330
1D
331
13F
  0
MLINESTYLE
  5
18
102
{ACAD_REACTORS
330
17
102
}
330
17
100
AcDbMlineStyle
  2
Standard
 70
     0
  3

 62
   256
 51
90.0
 52
90.0
 71
     2
 49
0.5
 62
   256
  6
BYLAYER
 49
-0.5
 62
   256
  6
BYLAYER
  0
ACDBPLACEHOLDER
  5
F
102
{ACAD_REACTORS
330
E
102
}
330
E
  0
SCALE
  5
146
102
{ACAD_REACTORS
330
145
102
}
330
145
100
AcDbScale
 70
     0
300
1:1
140
1.0
141
1.0
290
     1
  0
SCALE
  5
147
102
{ACAD_REACTORS
330
145
102
}
330
145
100
AcDbScale
 70
     0
300
1:2
140
1.0
141
2.0
290
     0
  0
SCALE
  5
148
102
{ACAD_REACTORS
330
145
102
}
330
145
100
AcDbScale
 70
     0
300
1:4
140
1.0
141
4.0
290
     0
  0
SCALE
  5
149
102
{ACAD_REACTORS
330
145
102
}
330
145
100
AcDbScale
 70
     0
300
1:5
140
1.0
141
5.0
290
     0
  0
SCALE
  5
14A
102
{ACAD_REACTORS
330
145
102
}
330
145
100
AcDbScale
 70
     0
300
1:8
140
1.0
141
8.0
290
     0
  0
SCALE
  5
14B
102
{ACAD_REACTORS
330
145
102
}
330
145
100
AcDbScale
 70
     0
300
1:10
140
1.0
141
10.0
290
     0
  0
SCALE
  5
14C
102
{ACAD_REACTORS
330
145
102
}
330
145
100
AcDbScale
 70
     0
300
1:16
140
1.0
141
16.0
290
     0
  0
SCALE
  5
14D
102
{ACAD_REACTORS
330
145
102
}
330
145
100
AcDbScale
 70
     0
300
1:20
140
1.0
141
20.0
290
     0
  0
SCALE
  5
14E
102
{ACAD_REACTORS
330
145
102
}
330
145
100
AcDbScale
 70
     0
300
1:30
140
1.0
141
30.0
290
     0
  0
SCALE
  5
14F
102
{ACAD_REACTORS
330
145
102
}
330
145
100
AcDbScale
 70
     0
300
1:40
140
1.0
141
40.0
290
     0
  0
SCALE
  5
150
102
{ACAD_REACTORS
330
145
102
}
330
145
100
AcDbScale
 70
     0
300
1:50
140
1.0
141
50.0
290
     0
  0
SCALE
  5
151
102
{ACAD_REACTORS
330
145
102
}
330
145
100
AcDbScale
 70
     0
300
1:100
140
1.0
141
100.0
290
     0
  0
SCALE
  5
152
102
{ACAD_REACTORS
330
145
102
}
330
145
100
AcDbScale
 70
     0
300
2:1
140
2.0
141
1.0
290
     0
  0
SCALE
  5
153
102
{ACAD_REACTORS
330
145
102
}
330
145
100
AcDbScale
 70
     0
300
4:1
140
4.0
141
1.0
290
     0
  0
SCALE
  5
154
102
{ACAD_REACTORS
330
145
102
}
330
145
100
AcDbScale
 70
     0
300
8:1
140
8.0
141
1.0
290
     0
  0
SCALE
  5
155
102
{ACAD_REACTORS
330
145
102
}
330
145
100
AcDbScale
 70
     0
300
10:1
140
10.0
141
1.0
290
     0
  0
SCALE
  5
156
102
{ACAD_REACTORS
330
145
102
}
330
145
100
AcDbScale
 70
     0
300
100:1
140
100.0
141
1.0
290
     0
  0
SCALE
  5
157
102
{ACAD_REACTORS
330
145
102
}
330
145
100
AcDbScale
 70
     0
300
1/128" = 1'-0"
140
0.0078125
141
12.0
290
     0
  0
SCALE
  5
158
102
{ACAD_REACTORS
330
145
102
}
330
145
100
AcDbScale
 70
     0
300
1/64" = 1'-0"
140
0.015625
141
12.0
290
     0
  0
SCALE
  5
159
102
{ACAD_REACTORS
330
145
102
}
330
145
100
AcDbScale
 70
     0
300
1/32" = 1'-0"
140
0.03125
141
12.0
290
     0
  0
SCALE
  5
15A
102
{ACAD_REACTORS
330
145
102
}
330
145
100
AcDbScale
 70
     0
300
1/16" = 1'-0"
140
0.0625
141
12.0
290
     0
  0
SCALE
  5
15B
102
{ACAD_REACTORS
330
145
102
}
330
145
100
AcDbScale
 70
     0
300
3/32" = 1'-0"
140
0.09375
141
12.0
290
     0
  0
SCALE
  5
15C
102
{ACAD_REACTORS
330
145
102
}
330
145
100
AcDbScale
 70
     0
300
1/8" = 1'-0"
140
0.125
141
12.0
290
     0
  0
SCALE
  5
15D
102
{ACAD_REACTORS
330
145
102
}
330
145
100
AcDbScale
 70
     0
300
3/16" = 1'-0"
140
0.1875
141
12.0
290
     0
  0
SCALE
  5
15E
102
{ACAD_REACTORS
330
145
102
}
330
145
100
AcDbScale
 70
     0
300
1/4" = 1'-0"
140
0.25
141
12.0
290
     0
  0
SCALE
  5
15F
102
{ACAD_REACTORS
330
145
102
}
330
145
100
AcDbScale
 70
     0
300
3/8" = 1'-0"
140
0.375
141
12.0
290
     0
  0
SCALE
  5
160
102
{ACAD_REACTORS
330
145
102
}
330
145
100
AcDbScale
 70
     0
300
1/2" = 1'-0"
140
0.5
141
12.0
290
     0
  0
SCALE
  5
161
102
{ACAD_REACTORS
330
145
102
}
330
145
100
AcDbScale
 70
     0
300
3/4" = 1'-0"
140
0.75
141
12.0
290
     0
  0
SCALE
  5
162
102
{ACAD_REACTORS
330
145
102
}
330
145
100
AcDbScale
 70
     0
300
1" = 1'-0"
140
1.0
141
12.0
290
     0
  0
SCALE
  5
163
102
{ACAD_REACTORS
330
145
102
}
330
145
100
AcDbScale
 70
     0
300
1-1/2" = 1'-0"
140
1.5
141
12.0
290
     0
  0
SCALE
  5
164
102
{ACAD_REACTORS
330
145
102
}
330
145
100
AcDbScale
 70
     0
300
3" = 1'-0"
140
3.0
141
12.0
290
     0
  0
SCALE
  5
165
102
{ACAD_REACTORS
330
145
102
}
330
145
100
AcDbScale
 70
     0
300
6" = 1'-0"
140
6.0
141
12.0
290
     0
  0
SCALE
  5
166
102
{ACAD_REACTORS
330
145
102
}
330
145
100
AcDbScale
 70
     0
300
1'-0" = 1'-0"
140
12.0
141
12.0
290
     0
  0
DICTIONARYVAR
  5
18B
102
{ACAD_REACTORS
330
187
102
}
330
187
100
DictionaryVariables
280
     0
  1
2
  0
DICTIONARYVAR
  5
18C
102
{ACAD_REACTORS
330
187
102
}
330
187
100
DictionaryVariables
280
     0
  1
1
  0
ENDSEC
  0
EOF
