  0
SECTION
  2
HEADER
  9
$ACADVER
  1
AC1027
  9
$ACADMAINTVER
 70
   105
  9
$DWGCODEPAGE
  3
ANSI_1252
  9
$REQUIREDVERSIONS
160
                 0
  9
$LASTSAVEDBY
  1
matthias.ochs
  9
$INSBASE
 10
0.0
 20
0.0
 30
0.0
  9
$EXTMIN
 10
-46.5251644672806
 20
-33.03664359186923
 30
0.0
  9
$EXTMAX
 10
59.66832422363061
 20
35.10891064828773
 30
0.0
  9
$LIMMIN
 10
-38.638350631
 20
-17.598377719
  9
$LIMMAX
 10
50.403943802
 20
21.279714088
  9
$ORTHOMODE
 70
     0
  9
$REGENMODE
 70
     1
  9
$FILLMODE
 70
     1
  9
$QTEXTMODE
 70
     0
  9
$MIRRTEXT
 70
     1
  9
$LTSCALE
 40
1.0
  9
$ATTMODE
 70
     1
  9
$TEXTSIZE
 40
0.2
  9
$TRACEWID
 40
0.05
  9
$TEXTSTYLE
  7
Standard
  9
$CLAYER
  8
0
  9
$CELTYPE
  6
ByLayer
  9
$CECOLOR
 62
   256
  9
$CELTSCALE
 40
1.0
  9
$DISPSILH
 70
     0
  9
$DIMSCALE
 40
1.0
  9
$DIMASZ
 40
0.18
  9
$DIMEXO
 40
0.0625
  9
$DIMDLI
 40
0.38
  9
$DIMRND
 40
0.0
  9
$DIMDLE
 40
0.0
  9
$DIMEXE
 40
0.18
  9
$DIMTP
 40
0.0
  9
$DIMTM
 40
0.0
  9
$DIMTXT
 40
0.18
  9
$DIMCEN
 40
0.09
  9
$DIMTSZ
 40
0.0
  9
$DIMTOL
 70
     0
  9
$DIMLIM
 70
     0
  9
$DIMTIH
 70
     1
  9
$DIMTOH
 70
     1
  9
$DIMSE1
 70
     0
  9
$DIMSE2
 70
     0
  9
$DIMTAD
 70
     0
  9
$DIMZIN
 70
     0
  9
$DIMBLK
  1

  9
$DIMASO
 70
     1
  9
$DIMSHO
 70
     1
  9
$DIMPOST
  1

  9
$DIMAPOST
  1

  9
$DIMALT
 70
     0
  9
$DIMALTD
 70
     2
  9
$DIMALTF
 40
25.4
  9
$DIMLFAC
 40
1.0
  9
$DIMTOFL
 70
     0
  9
$DIMTVP
 40
0.0
  9
$DIMTIX
 70
     0
  9
$DIMSOXD
 70
     0
  9
$DIMSAH
 70
     0
  9
$DIMBLK1
  1

  9
$DIMBLK2
  1

  9
$DIMSTYLE
  2
Standard
  9
$DIMCLRD
 70
     0
  9
$DIMCLRE
 70
     0
  9
$DIMCLRT
 70
     0
  9
$DIMTFAC
 40
1.0
  9
$DIMGAP
 40
0.09
  9
$DIMJUST
 70
     0
  9
$DIMSD1
 70
     0
  9
$DIMSD2
 70
     0
  9
$DIMTOLJ
 70
     1
  9
$DIMTZIN
 70
     0
  9
$DIMALTZ
 70
     0
  9
$DIMALTTZ
 70
     0
  9
$DIMUPT
 70
     0
  9
$DIMDEC
 70
     4
  9
$DIMTDEC
 70
     4
  9
$DIMALTU
 70
     2
  9
$DIMALTTD
 70
     2
  9
$DIMTXSTY
  7
Standard
  9
$DIMAUNIT
 70
     0
  9
$DIMADEC
 70
     0
  9
$DIMALTRND
 40
0.0
  9
$DIMAZIN
 70
     0
  9
$DIMDSEP
 70
    46
  9
$DIMATFIT
 70
     3
  9
$DIMFRAC
 70
     0
  9
$DIMLDRBLK
  1

  9
$DIMLUNIT
 70
     2
  9
$DIMLWD
 70
    -2
  9
$DIMLWE
 70
    -2
  9
$DIMTMOVE
 70
     2
  9
$DIMFXL
 40
1.0
  9
$DIMFXLON
 70
     0
  9
$DIMJOGANG
 40
0.7853981633974483
  9
$DIMTFILL
 70
     0
  9
$DIMTFILLCLR
 70
     0
  9
$DIMARCSYM
 70
     0
  9
$DIMLTYPE
  6

  9
$DIMLTEX1
  6

  9
$DIMLTEX2
  6

  9
$DIMTXTDIRECTION
 70
     0
  9
$LUNITS
 70
     2
  9
$LUPREC
 70
     4
  9
$SKETCHINC
 40
0.1
  9
$FILLETRAD
 40
0.5
  9
$AUNITS
 70
     2
  9
$AUPREC
 70
     0
  9
$MENU
  1
.
  9
$ELEVATION
 40
0.0
  9
$PELEVATION
 40
0.0
  9
$THICKNESS
 40
0.0
  9
$LIMCHECK
 70
     0
  9
$CHAMFERA
 40
0.5
  9
$CHAMFERB
 40
0.5
  9
$CHAMFERC
 40
1.0
  9
$CHAMFERD
 40
0.0
  9
$SKPOLY
 70
     0
  9
$TDCREATE
 40
2458327.502739583
  9
$TDUCREATE
 40
2458327.461072917
  9
$TDUPDATE
 40
2458507.579809097
  9
$TDUUPDATE
 40
2458507.538142431
  9
$TDINDWG
 40
0.0052206713
  9
$TDUSRTIMER
 40
0.0065426389
  9
$USRTIMER
 70
     1
  9
$ANGBASE
 50
0.0
  9
$ANGDIR
 70
     0
  9
$PDMODE
 70
     0
  9
$PDSIZE
 40
0.0
  9
$PLINEWID
 40
0.0
  9
$SPLFRAME
 70
     0
  9
$SPLINETYPE
 70
     6
  9
$SPLINESEGS
 70
     8
  9
$HANDSEED
  5
312
  9
$SURFTAB1
 70
     6
  9
$SURFTAB2
 70
     6
  9
$SURFTYPE
 70
     6
  9
$SURFU
 70
     6
  9
$SURFV
 70
     6
  9
$UCSBASE
  2

  9
$UCSNAME
  2

  9
$UCSORG
 10
0.0
 20
0.0
 30
0.0
  9
$UCSXDIR
 10
1.0
 20
0.0
 30
0.0
  9
$UCSYDIR
 10
0.0
 20
1.0
 30
0.0
  9
$UCSORTHOREF
  2

  9
$UCSORTHOVIEW
 70
     0
  9
$UCSORGTOP
 10
0.0
 20
0.0
 30
0.0
  9
$UCSORGBOTTOM
 10
0.0
 20
0.0
 30
0.0
  9
$UCSORGLEFT
 10
0.0
 20
0.0
 30
0.0
  9
$UCSORGRIGHT
 10
0.0
 20
0.0
 30
0.0
  9
$UCSORGFRONT
 10
0.0
 20
0.0
 30
0.0
  9
$UCSORGBACK
 10
0.0
 20
0.0
 30
0.0
  9
$PUCSBASE
  2

  9
$PUCSNAME
  2

  9
$PUCSORG
 10
0.0
 20
0.0
 30
0.0
  9
$PUCSXDIR
 10
1.0
 20
0.0
 30
0.0
  9
$PUCSYDIR
 10
0.0
 20
1.0
 30
0.0
  9
$PUCSORTHOREF
  2

  9
$PUCSORTHOVIEW
 70
     0
  9
$PUCSORGTOP
 10
0.0
 20
0.0
 30
0.0
  9
$PUCSORGBOTTOM
 10
0.0
 20
0.0
 30
0.0
  9
$PUCSORGLEFT
 10
0.0
 20
0.0
 30
0.0
  9
$PUCSORGRIGHT
 10
0.0
 20
0.0
 30
0.0
  9
$PUCSORGFRONT
 10
0.0
 20
0.0
 30
0.0
  9
$PUCSORGBACK
 10
0.0
 20
0.0
 30
0.0
  9
$USERI1
 70
     0
  9
$USERI2
 70
     0
  9
$USERI3
 70
     0
  9
$USERI4
 70
     0
  9
$USERI5
 70
     0
  9
$USERR1
 40
0.0
  9
$USERR2
 40
0.0
  9
$USERR3
 40
0.0
  9
$USERR4
 40
0.0
  9
$USERR5
 40
0.0
  9
$WORLDVIEW
 70
     1
  9
$SHADEDGE
 70
     3
  9
$SHADEDIF
 70
    70
  9
$TILEMODE
 70
     1
  9
$MAXACTVP
 70
    64
  9
$PINSBASE
 10
0.0
 20
0.0
 30
0.0
  9
$PLIMCHECK
 70
     0
  9
$PEXTMIN
 10
1.000000000000000E+20
 20
1.000000000000000E+20
 30
1.000000000000000E+20
  9
$PEXTMAX
 10
-1.000000000000000E+20
 20
-1.000000000000000E+20
 30
-1.000000000000000E+20
  9
$PLIMMIN
 10
0.0
 20
0.0
  9
$PLIMMAX
 10
0.0
 20
0.0
  9
$UNITMODE
 70
     0
  9
$VISRETAIN
 70
     1
  9
$PLINEGEN
 70
     0
  9
$PSLTSCALE
 70
     1
  9
$TREEDEPTH
 70
  3020
  9
$CMLSTYLE
  2
Standard
  9
$CMLJUST
 70
     0
  9
$CMLSCALE
 40
1.0
  9
$PROXYGRAPHICS
 70
     1
  9
$MEASUREMENT
 70
     0
  9
$CELWEIGHT
370
    -1
  9
$ENDCAPS
280
     0
  9
$JOINSTYLE
280
     0
  9
$LWDISPLAY
290
     0
  9
$INSUNITS
 70
     0
  9
$HYPERLINKBASE
  1

  9
$STYLESHEET
  1

  9
$XEDIT
290
     1
  9
$CEPSNTYPE
380
     0
  9
$PSTYLEMODE
290
     1
  9
$FINGERPRINTGUID
  2
{1304B82F-03AA-4B3D-8789-99C9520BE977}
  9
$VERSIONGUID
  2
{FAEB1C32-E019-11D5-929B-00C0DF256EC4}
  9
$EXTNAMES
290
     1
  9
$PSVPSCALE
 40
0.0
  9
$OLESTARTUP
290
     0
  9
$SORTENTS
280
   127
  9
$INDEXCTL
280
     0
  9
$HIDETEXT
280
     1
  9
$XCLIPFRAME
280
     2
  9
$HALOGAP
280
     0
  9
$OBSCOLOR
 70
   257
  9
$OBSLTYPE
280
     0
  9
$INTERSECTIONDISPLAY
280
     0
  9
$INTERSECTIONCOLOR
 70
   257
  9
$DIMASSOC
280
     2
  9
$PROJECTNAME
  1

  9
$CAMERADISPLAY
290
     0
  9
$LENSLENGTH
 40
50.0
  9
$CAMERAHEIGHT
 40
0.0
  9
$STEPSPERSEC
 40
2.0
  9
$STEPSIZE
 40
6.0
  9
$3DDWFPREC
 40
2.0
  9
$PSOLWIDTH
 40
0.25
  9
$PSOLHEIGHT
 40
4.0
  9
$LOFTANG1
 40
1.570796326794897
  9
$LOFTANG2
 40
1.570796326794897
  9
$LOFTMAG1
 40
0.0
  9
$LOFTMAG2
 40
0.0
  9
$LOFTPARAM
 70
     7
  9
$LOFTNORMALS
280
     1
  9
$LATITUDE
 40
37.795
  9
$LONGITUDE
 40
-122.394
  9
$NORTHDIRECTION
 40
0.0
  9
$TIMEZONE
 70
 -8000
  9
$LIGHTGLYPHDISPLAY
280
     1
  9
$TILEMODELIGHTSYNCH
280
     1
  9
$SOLIDHIST
280
     0
  9
$SHOWHIST
280
     1
  9
$DWFFRAME
280
     2
  9
$DGNFRAME
280
     2
  9
$REALWORLDSCALE
290
     1
  9
$INTERFERECOLOR
 62
   256
  9
$CSHADOW
280
     0
  9
$SHADOWPLANELOCATION
 40
0.0
  0
ENDSEC
  0
SECTION
  2
CLASSES
  0
CLASS
  1
ACDBDICTIONARYWDFLT
  2
AcDbDictionaryWithDefault
  3
ObjectDBX Classes
 90
        0
 91
        5
280
     0
281
     0
  0
CLASS
  1
SCALE
  2
AcDbScale
  3
ObjectDBX Classes
 90
     1153
 91
        5
280
     0
281
     0
  0
CLASS
  1
VISUALSTYLE
  2
AcDbVisualStyle
  3
ObjectDBX Classes
 90
     4095
 91
        5
280
     0
281
     0
  0
CLASS
  1
MATERIAL
  2
AcDbMaterial
  3
ObjectDBX Classes
 90
     1153
 91
        5
280
     0
281
     0
  0
CLASS
  1
DICTIONARYVAR
  2
AcDbDictionaryVar
  3
ObjectDBX Classes
 90
        0
 91
        5
280
     0
281
     0
  0
CLASS
  1
ACDBPLACEHOLDER
  2
AcDbPlaceHolder
  3
ObjectDBX Classes
 90
        0
 91
        1
280
     0
281
     0
  0
CLASS
  1
LAYOUT
  2
AcDbLayout
  3
ObjectDBX Classes
 90
        0
 91
        1
280
     0
281
     0
  0
CLASS
  1
TABLESTYLE
  2
AcDbTableStyle
  3
ObjectDBX Classes
 90
     4095
 91
        5
280
     0
281
     0
  0
CLASS
  1
MLEADERSTYLE
  2
AcDbMLeaderStyle
  3
ACDB_MLEADERSTYLE_CLASS
 90
     4095
 91
        5
280
     0
281
     0
  0
CLASS
  1
SUN
  2
AcDbSun
  3
SCENEOE
 90
     1153
 91
        5
280
     0
281
     0
  0
CLASS
  1
CELLSTYLEMAP
  2
AcDbCellStyleMap
  3
ObjectDBX Classes
 90
     1152
 91
        5
280
     0
281
     0
  0
ENDSEC
  0
SECTION
  2
TABLES
  0
TABLE
  2
VPORT
  5
8
330
0
100
AcDbSymbolTable
 70
     1
  0
VPORT
  5
1B1
330
8
100
AcDbSymbolTableRecord
100
AcDbViewportTableRecord
  2
*Active
 70
     0
 10
0.0
 20
0.0
 11
1.0
 21
1.0
 12
13.62709162256163
 22
-0.2490527770052999
 13
0.0
 23
0.0
 14
0.5
 24
0.5
 15
0.5
 25
0.5
 16
0.0
 26
0.0
 36
1.0
 17
0.0
 27
0.0
 37
0.0
 40
113.3183717104879
 41
1.941903584672435
 42
50.0
 43
0.0
 44
0.0
 50
0.0
 51
0.0
 71
    16
 72
   100
 73
     1
 74
     3
 75
     0
 76
     0
 77
     0
 78
     0
281
     0
 65
     1
110
0.0
120
0.0
130
0.0
111
1.0
121
0.0
131
0.0
112
0.0
122
1.0
132
0.0
 79
     0
146
0.0
348
1E3
 60
     3
 61
     5
292
     1
282
     1
141
0.0
142
0.0
 63
   256
361
295
  0
ENDTAB
  0
TABLE
  2
LTYPE
  5
5
330
0
100
AcDbSymbolTable
 70
     8
  0
LTYPE
  5
14
330
5
100
AcDbSymbolTableRecord
100
AcDbLinetypeTableRecord
  2
ByBlock
 70
     0
  3

 72
    65
 73
     0
 40
0.0
  0
LTYPE
  5
15
330
5
100
AcDbSymbolTableRecord
100
AcDbLinetypeTableRecord
  2
ByLayer
 70
     0
  3

 72
    65
 73
     0
 40
0.0
  0
LTYPE
  5
16
330
5
100
AcDbSymbolTableRecord
100
AcDbLinetypeTableRecord
  2
Continuous
 70
     0
  3
Solid line
 72
    65
 73
     0
 40
0.0
  0
LTYPE
  5
20
330
5
100
AcDbSymbolTableRecord
100
AcDbLinetypeTableRecord
  2
PUNKT
 70
     0
  3
..............
 72
    65
 73
     2
 40
1.5
 49
0.7
 74
     0
 49
-0.8
 74
     0
  0
LTYPE
  5
21
330
5
100
AcDbSymbolTableRecord
100
AcDbLinetypeTableRecord
  2
GESTRICHELT
 70
     0
  3
-- -- -- -- --
 72
    65
 73
     7
 40
2.8
 49
0.9
 74
     0
 49
0.0
 74
     0
 49
0.9
 74
     0
 49
0.0
 74
     0
 49
0.2
 74
     0
 49
0.0
 74
     0
 49
-0.8
 74
     0
  0
LTYPE
  5
22
330
5
100
AcDbSymbolTableRecord
100
AcDbLinetypeTableRecord
  2
STRICHPUNKT
 70
     0
  3
--.--.--.--.--
 72
    65
 73
     4
 40
8.8
 49
5.5
 74
     0
 49
-1.3
 74
     0
 49
0.7
 74
     0
 49
-1.3
 74
     0
  0
LTYPE
  5
25
330
5
100
AcDbSymbolTableRecord
100
AcDbLinetypeTableRecord
  2
PHANTOM
 70
     0
  3
--..--..--..--
 72
    65
 73
     6
 40
14.2
 49
7.0
 74
     0
 49
-1.8
 74
     0
 49
0.9
 74
     0
 49
-1.8
 74
     0
 49
0.9
 74
     0
 49
-1.8
 74
     0
  0
LTYPE
  5
22B
330
5
100
AcDbSymbolTableRecord
100
AcDbLinetypeTableRecord
  2
DASH
 70
     0
  3
DASH _ _ _ _ _
 72
    65
 73
     2
 40
0.75
 49
0.4
 74
     0
 49
-0.35
 74
     0
  0
LTYPE
  5
22C
330
5
100
AcDbSymbolTableRecord
100
AcDbLinetypeTableRecord
  2
LONGDASH_DASH
 70
     0
  3
LONGDASH_DASH __ . __ . __
 72
    65
 73
     4
 40
0.85
 49
0.4
 74
     0
 49
-0.2
 74
     0
 49
0.05
 74
     0
 49
-0.2
 74
     0
  0
LTYPE
  5
22D
330
5
100
AcDbSymbolTableRecord
100
AcDbLinetypeTableRecord
  2
LONGDASH_DASH_DASH
 70
     0
  3
LONGDASH_DASH_DASH __ . . __ . . __
 72
    65
 73
     6
 40
1.1
 49
0.4
 74
     0
 49
-0.2
 74
     0
 49
0.05
 74
     0
 49
-0.2
 74
     0
 49
0.05
 74
     0
 49
-0.2
 74
     0
  0
ENDTAB
  0
TABLE
  2
LAYER
  5
2
102
{ACAD_XDICTIONARY
360
24A
102
}
330
0
100
AcDbSymbolTable
 70
    15
  0
LAYER
  5
1F4
330
2
100
AcDbSymbolTableRecord
100
AcDbLayerTableRecord
  2
200
 70
     0
 62
     2
  6
Continuous
370
    50
390
F
347
1F2
348
0
  0
LAYER
  5
22E
330
2
100
AcDbSymbolTableRecord
100
AcDbLayerTableRecord
  2
0
 70
     0
 62
    -1
  6
Continuous
370
    -3
390
F
347
1F2
348
0
  0
LAYER
  5
22F
330
2
100
AcDbSymbolTableRecord
100
AcDbLayerTableRecord
  2
1
 70
     0
 62
     4
  6
Continuous
370
    50
390
F
347
1F2
348
0
  0
LAYER
  5
230
330
2
100
AcDbSymbolTableRecord
100
AcDbLayerTableRecord
  2
2
 70
     0
 62
     7
  6
Continuous
370
    25
390
F
347
1F2
348
0
  0
LAYER
  5
231
330
2
100
AcDbSymbolTableRecord
100
AcDbLayerTableRecord
  2
3
 70
     0
 62
     1
  6
DASH
370
    35
390
F
347
1F2
348
0
  0
LAYER
  5
232
330
2
100
AcDbSymbolTableRecord
100
AcDbLayerTableRecord
  2
4
 70
     0
 62
     2
  6
LONGDASH_DASH
370
    25
390
F
347
1F2
348
0
  0
LAYER
  5
233
330
2
100
AcDbSymbolTableRecord
100
AcDbLayerTableRecord
  2
6
 70
     0
 62
     5
  6
Continuous
370
    -3
390
F
347
1F2
348
0
  0
LAYER
  5
234
330
2
100
AcDbSymbolTableRecord
100
AcDbLayerTableRecord
  2
CUT
 70
     0
 62
     1
  6
Continuous
370
    25
390
F
347
1F2
348
0
  0
LAYER
  5
235
330
2
100
AcDbSymbolTableRecord
100
AcDbLayerTableRecord
  2
NOCUT
 70
     0
 62
     7
  6
Continuous
370
    25
390
F
347
1F2
348
0
  0
LAYER
  5
236
330
2
100
AcDbSymbolTableRecord
100
AcDbLayerTableRecord
  2
SK1
 70
     0
 62
     4
  6
Continuous
370
    50
390
F
347
1F2
348
0
  0
LAYER
  5
237
330
2
100
AcDbSymbolTableRecord
100
AcDbLayerTableRecord
  2
SK2
 70
     0
 62
     7
  6
Continuous
370
    25
390
F
347
1F2
348
0
  0
LAYER
  5
238
330
2
100
AcDbSymbolTableRecord
100
AcDbLayerTableRecord
  2
SK3
 70
     0
 62
     1
  6
DASH
370
    35
390
F
347
1F2
348
0
  0
LAYER
  5
239
330
2
100
AcDbSymbolTableRecord
100
AcDbLayerTableRecord
  2
SK4
 70
     0
 62
     2
  6
LONGDASH_DASH
370
    25
390
F
347
1F2
348
0
  0
LAYER
  5
23A
330
2
100
AcDbSymbolTableRecord
100
AcDbLayerTableRecord
  2
SK6
 70
     0
 62
     5
  6
Continuous
370
    -3
390
F
347
1F2
348
0
  0
LAYER
  5
23B
330
2
100
AcDbSymbolTableRecord
100
AcDbLayerTableRecord
  2
INFTOTAL
 70
     0
 62
     9
  6
Continuous
370
    18
390
F
347
1F2
348
0
  0
ENDTAB
  0
TABLE
  2
STYLE
  5
3
330
0
100
AcDbSymbolTable
 70
     2
  0
STYLE
  5
11
330
3
100
AcDbSymbolTableRecord
100
AcDbTextStyleTableRecord
  2
Standard
 70
     0
 40
0.0
 41
1.0
 50
0.0
 71
     0
 42
0.2
  3
txt
  4

  0
STYLE
  5
1F3
330
3
100
AcDbSymbolTableRecord
100
AcDbTextStyleTableRecord
  2
BMG_Text
 70
     0
 40
3.5
 41
1.0
 50
0.0
 71
     0
 42
0.2
  3
monos.ttf
  4

1001
ACAD
1000
Monospac821 BT
1071
       49
  0
ENDTAB
  0
TABLE
  2
VIEW
  5
6
330
0
100
AcDbSymbolTable
 70
     0
  0
ENDTAB
  0
TABLE
  2
UCS
  5
7
330
0
100
AcDbSymbolTable
 70
     0
  0
ENDTAB
  0
TABLE
  2
APPID
  5
9
330
0
100
AcDbSymbolTable
 70
     1
  0
APPID
  5
12
330
9
100
AcDbSymbolTableRecord
100
AcDbRegAppTableRecord
  2
ACAD
 70
     0
  0
ENDTAB
  0
TABLE
  2
DIMSTYLE
  5
A
330
0
100
AcDbSymbolTable
 70
     1
100
AcDbDimStyleTable
  0
DIMSTYLE
105
28
330
A
100
AcDbSymbolTableRecord
100
AcDbDimStyleTableRecord
  2
Standard
 70
     0
178
     0
340
11
  0
ENDTAB
  0
TABLE
  2
BLOCK_RECORD
  5
1
330
0
100
AcDbSymbolTable
 70
     0
  0
BLOCK_RECORD
  5
1D
330
1
100
AcDbSymbolTableRecord
100
AcDbBlockTableRecord
  2
*Model_Space
340
1E
 70
     0
280
     1
281
     0
  0
BLOCK_RECORD
  5
1B
330
1
100
AcDbSymbolTableRecord
100
AcDbBlockTableRecord
  2
*Paper_Space
340
1C
 70
     0
280
     1
281
     0
  0
ENDTAB
  0
ENDSEC
  0
SECTION
  2
BLOCKS
  0
BLOCK
  5
1DC
330
1D
100
AcDbEntity
  8
0
100
AcDbBlockBegin
  2
*Model_Space
 70
     0
 10
0.0
 20
0.0
 30
0.0
  3
*Model_Space
  1

  0
ENDBLK
  5
1DD
330
1D
100
AcDbEntity
  8
0
100
AcDbBlockEnd
  0
BLOCK
  5
1DA
330
1B
100
AcDbEntity
 67
     1
  8
0
100
AcDbBlockBegin
  2
*Paper_Space
 70
     0
 10
0.0
 20
0.0
 30
0.0
  3
*Paper_Space
  1

  0
ENDBLK
  5
1DB
330
1B
100
AcDbEntity
 67
     1
  8
0
100
AcDbBlockEnd
  0
ENDSEC
  0
SECTION
  2
ENTITIES
  0
LINE
  5
29
330
1D
100
AcDbEntity
  8
4
100
AcDbLine
 10
0.715358288
 20
-1.664138044
 30
0.0
 11
20.948331679
 21
-8.1062648
 31
0.0
  0
ARC
  5
2A
330
1D
100
AcDbEntity
  8
SK1
  6
Continuous
370
    50
100
AcDbCircle
 10
-0.299995422
 20
-5.800003052
 30
0.0
 40
0.500000021
100
AcDbArc
 50
53.129407465
 51
105.000236642
  0
LINE
  5
2B
330
1D
100
AcDbEntity
  8
SK1
  6
Continuous
370
    50
100
AcDbLine
 10
-0.429405212
 20
-5.317047119
 30
0.0
 11
-1.112213135
 21
-5.500015259
 31
0.0
  0
LINE
  5
2C
330
1D
100
AcDbEntity
  8
SK1
  6
Continuous
370
    50
100
AcDbLine
 10
-1.112213135
 20
-5.500015259
 30
0.0
 11
-1.112213135
 21
5.499984741
 31
0.0
  0
LINE
  5
2D
330
1D
100
AcDbEntity
  8
SK1
  6
Continuous
370
    50
100
AcDbLine
 10
-1.112213135
 20
5.499984741
 30
0.0
 11
-0.42941464
 21
5.317040688
 31
0.0
  0
ARC
  5
2E
330
1D
100
AcDbEntity
  8
SK1
  6
Continuous
370
    50
100
AcDbCircle
 10
-0.300003052
 20
5.800003052
 30
0.0
 40
0.500000004
100
AcDbArc
 50
254.999755105
 51
306.8706139920001
  0
LINE
  5
2F
330
1D
100
AcDbEntity
  8
SK1
  6
Continuous
370
    50
100
AcDbLine
 10
-11.675003052
 20
-5.336898804
 30
0.0
 11
-10.75
 21
-5.500015259
 31
0.0
  0
LINE
  5
30
330
1D
100
AcDbEntity
  8
SK1
  6
Continuous
370
    50
100
AcDbLine
 10
-10.75
 20
-5.500015259
 30
0.0
 11
-10.75
 21
5.499984741
 31
0.0
  0
LINE
  5
31
330
1D
100
AcDbEntity
  8
SK1
  6
Continuous
370
    50
100
AcDbLine
 10
-10.75
 20
5.499984741
 30
0.0
 11
-11.657485962
 21
5.33996582
 31
0.0
  0
LINE
  5
32
330
1D
100
AcDbEntity
  8
SK1
  6
Continuous
370
    50
100
AcDbLine
 10
-11.657485962
 20
5.33996582
 30
0.0
 11
-12.530539781
 21
5.493915596
 31
0.0
  0
ARC
  5
33
330
1D
100
AcDbEntity
  8
SK1
  6
Continuous
370
    50
100
AcDbCircle
 10
-12.599998474
 20
5.099990845
 30
0.0
 40
0.400001525
100
AcDbArc
 50
80.000122609
 51
180.0
  0
LINE
  5
34
330
1D
100
AcDbEntity
  8
SK1
  6
Continuous
370
    50
100
AcDbLine
 10
-13.0
 20
5.099990845
 30
0.0
 11
-12.999984794
 21
-5.099990845
 31
0.0
  0
ARC
  5
35
330
1D
100
AcDbEntity
  8
SK1
  6
Continuous
370
    50
100
AcDbCircle
 10
-12.599983215
 20
-5.099990845
 30
0.0
 40
0.400001579
100
AcDbArc
 50
180.0
 51
279.99987659
  0
LINE
  5
36
330
1D
100
AcDbEntity
  8
SK1
  6
Continuous
370
    50
100
AcDbLine
 10
-12.530525208
 20
-5.493911743
 30
0.0
 11
-11.657516479
 21
-5.33997345
 31
0.0
  0
LINE
  5
38
330
1D
100
AcDbEntity
  8
SK1
  6
Continuous
370
    50
100
AcDbLine
 10
-10.749984741
 20
-5.5
 30
0.0
 11
-1.112205505
 21
-5.5
 31
0.0
  0
LINE
  5
39
330
1D
100
AcDbEntity
  8
SK1
  6
Continuous
370
    50
100
AcDbLine
 10
-10.75
 20
5.499984741
 30
0.0
 11
-1.112197876
 21
5.499984741
 31
0.0
  0
CIRCLE
  5
3A
330
1D
100
AcDbEntity
  8
SK1
  6
Continuous
370
    50
100
AcDbCircle
 10
-4.75
 20
-0.000015259
 30
0.0
 40
1.5
  0
LINE
  5
3B
330
1D
100
AcDbEntity
  8
4
100
AcDbLine
 10
-0.0000000000000018
 20
0.0
 30
0.0
 11
35.352561147
 21
0.0
 31
0.0
  0
LINE
  5
3C
330
1D
100
AcDbEntity
  8
3
  6
DASH
370
    35
100
AcDbLine
 10
1.000000048
 20
2.999961853
 30
0.0
 11
0.0000000000000002
 21
2.999961853
 31
0.0
  0
LINE
  5
3D
330
1D
100
AcDbEntity
  8
3
  6
DASH
370
    35
100
AcDbLine
 10
-0.0000000000000018
 20
-3.000038147
 30
0.0
 11
1.000004391999999
 21
-3.000038147
 31
0.0
  0
LINE
  5
3E
330
1D
100
AcDbEntity
  8
SK1
  6
Continuous
370
    50
100
AcDbLine
 10
-4.489643833
 20
-6.750015259
 30
0.0
 11
-2.510371372
 21
-6.750015259
 31
0.0
  0
LINE
  5
3F
330
1D
100
AcDbEntity
  8
SK1
  6
Continuous
370
    50
100
AcDbLine
 10
-4.489643833
 20
6.749984741
 30
0.0
 11
-2.510371372
 21
6.749984741
 31
0.0
  0
LINE
  5
40
330
1D
100
AcDbEntity
  8
SK1
  6
Continuous
370
    50
100
AcDbLine
 10
-5.41962125
 20
-5.739245606
 30
0.0
 11
-5.009260533
 21
-6.450013733
 31
0.0
  0
LINE
  5
41
330
1D
100
AcDbEntity
  8
SK1
  6
Continuous
370
    50
100
AcDbLine
 10
-1.580390904
 20
-5.739245606
 30
0.0
 11
-1.990754673
 21
-6.450012207
 31
0.0
  0
LINE
  5
42
330
1D
100
AcDbEntity
  8
SK1
  6
Continuous
370
    50
100
AcDbLine
 10
-5.419624302
 20
5.739212036
 30
0.0
 11
-5.009260533
 21
6.449984741
 31
0.0
  0
LINE
  5
43
330
1D
100
AcDbEntity
  8
SK1
  6
Continuous
370
    50
100
AcDbLine
 10
-1.580393956
 20
5.739215088
 30
0.0
 11
-1.990754673
 21
6.449984741
 31
0.0
  0
ARC
  5
44
330
1D
100
AcDbEntity
  8
SK1
  6
Continuous
370
    50
100
AcDbCircle
 10
-4.900007603
 20
-5.439245606
 30
0.0
 40
0.599998951
100
AcDbArc
 50
185.811587583
 51
210.00014568
  0
ARC
  5
45
330
1D
100
AcDbEntity
  8
SK1
  6
Continuous
370
    50
100
AcDbCircle
 10
-4.489643833
 20
-6.150015259
 30
0.0
 40
0.600000469
100
AcDbArc
 50
209.999803672
 51
270.0
  0
ARC
  5
46
330
1D
100
AcDbEntity
  8
SK1
  6
Continuous
370
    50
100
AcDbCircle
 10
-2.510371372
 20
-6.150015259
 30
0.0
 40
0.6
100
AcDbArc
 50
270.0
 51
330.000326389
  0
ARC
  5
47
330
1D
100
AcDbEntity
  8
SK1
  6
Continuous
370
    50
100
AcDbCircle
 10
-2.100007603
 20
-5.439245606
 30
0.0
 40
0.600001256
100
AcDbArc
 50
330.000047439
 51
354.188434817
  0
ARC
  5
48
330
1D
100
AcDbEntity
  8
SK1
  6
Continuous
370
    50
100
AcDbCircle
 10
-2.100007603
 20
5.439215088
 30
0.0
 40
0.599999936
100
AcDbArc
 50
5.813042642
 51
30.000220782
  0
ARC
  5
49
330
1D
100
AcDbEntity
  8
SK1
  6
Continuous
370
    50
100
AcDbCircle
 10
-2.510371372
 20
6.149984741
 30
0.0
 40
0.600001256
100
AcDbArc
 50
29.999947197
 51
90.000004363
  0
ARC
  5
4A
330
1D
100
AcDbEntity
  8
SK1
  6
Continuous
370
    50
100
AcDbCircle
 10
-4.489643833
 20
6.149984741
 30
0.0
 40
0.6
100
AcDbArc
 50
90.0
 51
150.000063532
  0
ARC
  5
4B
330
1D
100
AcDbEntity
  8
SK1
  6
Continuous
370
    50
100
AcDbCircle
 10
-4.900007603
 20
5.439215088
 30
0.0
 40
0.600001224
100
AcDbArc
 50
150.000063532
 51
174.186969875
  0
LINE
  5
4C
330
1D
100
AcDbEntity
  8
SK4
100
AcDbLine
 10
-3.500007603
 20
7.033315236
 30
0.0
 11
-3.500007603
 21
4.256677796
 31
0.0
  0
LINE
  5
4D
330
1D
100
AcDbEntity
  8
SK4
100
AcDbLine
 10
-3.500007603
 20
-7.033345754
 30
0.0
 11
-3.500007603
 21
-4.256708314
 31
0.0
  0
LINE
  5
4E
330
1D
100
AcDbEntity
  8
SK2
100
AcDbLine
 10
-20.0
 20
-5.500015259
 30
0.0
 11
-10.75
 21
-5.500015259
 31
0.0
  0
LINE
  5
4F
330
1D
100
AcDbEntity
  8
SK2
100
AcDbLine
 10
-18.0
 20
-5.500015259
 30
0.0
 11
-18.45
 21
-2.000015259
 31
0.0
  0
LINE
  5
50
330
1D
100
AcDbEntity
  8
SK2
100
AcDbLine
 10
-18.45
 20
-2.000015259
 30
0.0
 11
-17.55
 21
-2.000015259
 31
0.0
  0
LINE
  5
51
330
1D
100
AcDbEntity
  8
SK2
100
AcDbLine
 10
-17.55
 20
-2.000015259
 30
0.0
 11
-18.0
 21
-5.500015259
 31
0.0
  0
LINE
  5
52
330
1D
100
AcDbEntity
  8
SK2
100
AcDbLine
 10
-20.0
 20
5.499984741
 30
0.0
 11
-10.75
 21
5.499984741
 31
0.0
  0
LINE
  5
53
330
1D
100
AcDbEntity
  8
SK2
100
AcDbLine
 10
-18.0
 20
5.499984741
 30
0.0
 11
-17.55
 21
1.999984741
 31
0.0
  0
LINE
  5
54
330
1D
100
AcDbEntity
  8
SK2
100
AcDbLine
 10
-17.55
 20
1.999984741
 30
0.0
 11
-18.45
 21
1.999984741
 31
0.0
  0
LINE
  5
55
330
1D
100
AcDbEntity
  8
SK2
100
AcDbLine
 10
-18.45
 20
1.999984741
 30
0.0
 11
-18.0
 21
5.499984741
 31
0.0
  0
LINE
  5
56
330
1D
100
AcDbEntity
  8
SK2
100
AcDbLine
 10
-18.0
 20
-2.000015259
 30
0.0
 11
-18.0
 21
1.999984741
 31
0.0
  0
TEXT
  5
57
330
1D
100
AcDbEntity
  8
SK2
100
AcDbText
 10
-19.5
 20
-0.7096385463153891
 30
0.0
 40
3.5
  1
11
 50
90.0
  7
BMG_Text
100
AcDbText
  0
CIRCLE
  5
58
330
1D
100
AcDbEntity
  8
SK2
100
AcDbCircle
 10
-20.75
 20
-2.959638546315389
 30
0.0
 40
1.25
  0
LINE
  5
59
330
1D
100
AcDbEntity
  8
SK2
100
AcDbLine
 10
-19.5
 20
-4.209638546315389
 30
0.0
 11
-22.0
 21
-1.709638546315389
 31
0.0
  0
TEXT
  5
5A
330
1D
100
AcDbEntity
  8
SK6
100
AcDbText
 10
-23.26867875885468
 20
-15.11920157874503
 30
0.0
 40
3.5
  1
319.101
  7
BMG_Text
100
AcDbText
  0
LINE
  5
5B
330
1D
100
AcDbEntity
  8
2
  6
Continuous
370
    25
100
AcDbLine
 10
0.0
 20
-19.217219919
 30
0.0
 11
0.0
 21
-8.999999613
 31
0.0
  0
LINE
  5
5C
330
1D
100
AcDbEntity
  8
2
  6
Continuous
370
    25
100
AcDbLine
 10
0.0
 20
-17.217219919
 30
0.0
 11
3.500000001
 21
-16.767219927
 31
0.0
  0
LINE
  5
5D
330
1D
100
AcDbEntity
  8
2
  6
Continuous
370
    25
100
AcDbLine
 10
3.500000001
 20
-16.767219927
 30
0.0
 11
3.499999999
 21
-17.667219927
 31
0.0
  0
LINE
  5
5E
330
1D
100
AcDbEntity
  8
2
  6
Continuous
370
    25
100
AcDbLine
 10
3.499999999
 20
-17.667219927
 30
0.0
 11
0.0
 21
-17.217219919
 31
0.0
  0
LINE
  5
5F
330
1D
100
AcDbEntity
  8
2
  6
Continuous
370
    25
100
AcDbLine
 10
20.500000566
 20
-19.217219964
 30
0.0
 11
20.500000566
 21
-9.00166668
 31
0.0
  0
LINE
  5
60
330
1D
100
AcDbEntity
  8
2
  6
Continuous
370
    25
100
AcDbLine
 10
20.500000566
 20
-17.217219964
 30
0.0
 11
17.000000565
 21
-17.667219956
 31
0.0
  0
LINE
  5
61
330
1D
100
AcDbEntity
  8
2
  6
Continuous
370
    25
100
AcDbLine
 10
17.000000565
 20
-17.667219956
 30
0.0
 11
17.000000567
 21
-16.767219956
 31
0.0
  0
LINE
  5
62
330
1D
100
AcDbEntity
  8
2
  6
Continuous
370
    25
100
AcDbLine
 10
17.000000567
 20
-16.767219956
 30
0.0
 11
20.500000566
 21
-17.217219964
 31
0.0
  0
LINE
  5
63
330
1D
100
AcDbEntity
  8
2
  6
Continuous
370
    25
100
AcDbLine
 10
3.5
 20
-17.217219927
 30
0.0
 11
17.000000566
 21
-17.217219956
 31
0.0
  0
TEXT
  5
64
330
1D
100
AcDbEntity
  8
2
  6
Continuous
370
    25
100
AcDbText
 10
4.533430964226365
 20
-15.717219934
 30
0.0
 40
3.5
  1
20.5
 50
359.999999875
  7
BMG_Text
100
AcDbText
  0
LINE
  5
65
330
1D
100
AcDbEntity
  8
2
  6
Continuous
370
    25
100
AcDbLine
 10
-27.616132712
 20
-9.499999695
 30
0.0
 11
0.500000024
 21
-9.499999695
 31
0.0
  0
LINE
  5
66
330
1D
100
AcDbEntity
  8
2
  6
Continuous
370
    25
100
AcDbLine
 10
-25.616132712
 20
-9.499999695
 30
0.0
 11
-26.066132712
 21
-5.999999695
 31
0.0
  0
LINE
  5
67
330
1D
100
AcDbEntity
  8
2
  6
Continuous
370
    25
100
AcDbLine
 10
-26.066132712
 20
-5.999999695
 30
0.0
 11
-25.166132712
 21
-5.999999695
 31
0.0
  0
LINE
  5
68
330
1D
100
AcDbEntity
  8
2
  6
Continuous
370
    25
100
AcDbLine
 10
-25.166132712
 20
-5.999999695
 30
0.0
 11
-25.616132712
 21
-9.499999695
 31
0.0
  0
LINE
  5
69
330
1D
100
AcDbEntity
  8
2
  6
Continuous
370
    25
100
AcDbLine
 10
-27.616132712
 20
9.499999695
 30
0.0
 11
0.500000024
 21
9.499999695
 31
0.0
  0
LINE
  5
6A
330
1D
100
AcDbEntity
  8
2
  6
Continuous
370
    25
100
AcDbLine
 10
-25.616132712
 20
9.499999695
 30
0.0
 11
-25.166132712
 21
5.999999695
 31
0.0
  0
LINE
  5
6B
330
1D
100
AcDbEntity
  8
2
  6
Continuous
370
    25
100
AcDbLine
 10
-25.166132712
 20
5.999999695
 30
0.0
 11
-26.066132712
 21
5.999999695
 31
0.0
  0
LINE
  5
6C
330
1D
100
AcDbEntity
  8
2
  6
Continuous
370
    25
100
AcDbLine
 10
-26.066132712
 20
5.999999695
 30
0.0
 11
-25.616132712
 21
9.499999695
 31
0.0
  0
LINE
  5
6D
330
1D
100
AcDbEntity
  8
2
  6
Continuous
370
    25
100
AcDbLine
 10
-25.616132712
 20
-5.999999695
 30
0.0
 11
-25.616132712
 21
5.999999695
 31
0.0
  0
TEXT
  5
6E
330
1D
100
AcDbEntity
  8
2
  6
Continuous
370
    25
100
AcDbText
 10
-27.116132712
 20
-0.7409637665080825
 30
0.0
 40
3.5
  1
19
 50
90.0
  7
BMG_Text
100
AcDbText
  0
CIRCLE
  5
6F
330
1D
100
AcDbEntity
  8
2
  6
Continuous
370
    25
100
AcDbCircle
 10
-28.366132712
 20
-2.990963766508083
 30
0.0
 40
1.25
  0
LINE
  5
70
330
1D
100
AcDbEntity
  8
2
  6
Continuous
370
    25
100
AcDbLine
 10
-27.116132712
 20
-4.240963766508083
 30
0.0
 11
-29.616132712
 21
-1.740963766508083
 31
0.0
  0
LINE
  5
71
330
1D
100
AcDbEntity
  8
1
100
AcDbLine
 10
18.917467445
 20
9.499999695
 30
0.0
 11
0.500000024
 21
9.499999695
 31
0.0
  0
LINE
  5
72
330
1D
100
AcDbEntity
  8
1
100
AcDbLine
 10
0.500000024
 20
-9.499999695
 30
0.0
 11
18.917467445
 21
-9.499999695
 31
0.0
  0
LINE
  5
73
330
1D
100
AcDbEntity
  8
1
  6
Continuous
370
    50
100
AcDbLine
 10
0.500000024
 20
9.499999695
 30
0.0
 11
0.0
 21
8.999999613
 31
0.0
  0
LINE
  5
74
330
1D
100
AcDbEntity
  8
1
  6
Continuous
370
    50
100
AcDbLine
 10
0.0
 20
-8.999999613
 30
0.0
 11
0.500000024
 21
-9.499999695
 31
0.0
  0
ARC
  5
75
330
1D
100
AcDbEntity
  8
1
100
AcDbCircle
 10
-28.378139568
 20
-6864.770236419
 30
0.0
 40
6874.289194479
100
AcDbArc
 50
89.595107878
 51
89.604188909
  0
ARC
  5
76
330
1D
100
AcDbEntity
  8
1
100
AcDbCircle
 10
19.075494186
 20
9.727969614
 30
0.0
 40
0.375465136
100
AcDbArc
 50
245.109677965
 51
275.347764059
  0
LINE
  5
77
330
1D
100
AcDbEntity
  8
1
100
AcDbLine
 10
18.917467445
 20
9.386836551
 30
0.0
 11
18.917467445
 21
9.499999695
 31
0.0
  0
LINE
  5
78
330
1D
100
AcDbEntity
  8
1
100
AcDbLine
 10
20.500000566
 20
3.041381249
 30
0.0
 11
14.499999583
 21
3.041381249
 31
0.0
  0
ARC
  5
79
330
1D
100
AcDbEntity
  8
1
100
AcDbCircle
 10
29.789325651
 20
0.0
 30
0.0
 40
15.588889596
100
AcDbArc
 50
168.749476207
 51
180.0
  0
ARC
  5
7A
330
1D
100
AcDbEntity
  8
1
100
AcDbCircle
 10
29.789325651
 20
0.0
 30
0.0
 40
15.578000785
100
AcDbArc
 50
180.0
 51
191.250523793
  0
LINE
  5
7B
330
1D
100
AcDbEntity
  8
1
100
AcDbLine
 10
20.500000566
 20
-3.041381249
 30
0.0
 11
14.499999583
 21
-3.041381249
 31
0.0
  0
ARC
  5
7C
330
1D
100
AcDbEntity
  8
1
100
AcDbCircle
 10
-28.478139568
 20
6864.770236419
 30
0.0
 40
6874.288478174
100
AcDbArc
 50
270.396644587
 51
270.405725618
  0
ARC
  5
7D
330
1D
100
AcDbEntity
  8
1
100
AcDbCircle
 10
19.075503427
 20
-9.726612789
 30
0.0
 40
0.374730921
100
AcDbArc
 50
84.643146496
 51
114.943977707
  0
LINE
  5
7E
330
1D
100
AcDbEntity
  8
1
100
AcDbLine
 10
18.917467445
 20
-9.386836551
 30
0.0
 11
18.917467445
 21
-9.499999695
 31
0.0
  0
LINE
  5
7F
330
1D
100
AcDbEntity
  8
1
  6
Continuous
370
    50
100
AcDbLine
 10
0.500000024
 20
0.0
 30
0.0
 11
0.500000024
 21
-9.499999695
 31
0.0
  0
LINE
  5
80
330
1D
100
AcDbEntity
  8
1
  6
Continuous
370
    50
100
AcDbLine
 10
0.500000024
 20
9.499999695
 30
0.0
 11
0.500000024
 21
0.0
 31
0.0
  0
LINE
  5
81
330
1D
100
AcDbEntity
  8
1
100
AcDbLine
 10
14.499999583
 20
-3.041381249
 30
0.0
 11
14.499999583
 21
3.041381249
 31
0.0
  0
LINE
  5
82
330
1D
100
AcDbEntity
  8
1
  6
Continuous
370
    50
100
AcDbLine
 10
0.0
 20
-8.999999613
 30
0.0
 11
0.0
 21
8.999999613
 31
0.0
  0
LINE
  5
83
330
1D
100
AcDbEntity
  8
1
100
AcDbLine
 10
20.39989084
 20
8.908686228
 30
0.0
 11
20.400000736
 21
8.910544217
 31
0.0
  0
LINE
  5
84
330
1D
100
AcDbEntity
  8
1
100
AcDbLine
 10
20.199999213
 20
9.346679784
 30
0.0
 11
20.206980407
 21
9.339540265
 31
0.0
  0
LINE
  5
85
330
1D
100
AcDbEntity
  8
1
100
AcDbLine
 10
20.199999213
 20
-9.346679784
 30
0.0
 11
20.206980407
 21
-9.339540266
 31
0.0
  0
LINE
  5
86
330
1D
100
AcDbEntity
  8
1
100
AcDbLine
 10
20.199999213
 20
9.347314015
 30
0.0
 11
20.306980237
 21
9.237878956
 31
0.0
  0
LINE
  5
87
330
1D
100
AcDbEntity
  8
1
100
AcDbLine
 10
20.199999213
 20
-9.347314015
 30
0.0
 11
20.306980237
 21
-9.237878956
 31
0.0
  0
LINE
  5
88
330
1D
100
AcDbEntity
  8
1
100
AcDbLine
 10
20.500000566
 20
9.00166668
 30
0.0
 11
20.500000566
 21
-9.00166668
 31
0.0
  0
ARC
  5
89
330
1D
100
AcDbEntity
  8
1
100
AcDbCircle
 10
19.819414863
 20
-8.642496808
 30
0.0
 40
0.769545253
100
AcDbArc
 50
309.314446101
 51
332.17775639
  0
ARC
  5
8A
330
1D
100
AcDbEntity
  8
1
100
AcDbCircle
 10
19.819414863
 20
8.642496808
 30
0.0
 40
0.769545253
100
AcDbArc
 50
27.82224361
 51
50.685553899
  0
LINE
  5
8B
330
1D
100
AcDbEntity
  8
3
  6
DASH
370
    35
100
AcDbLine
 10
1.000000048
 20
-3.000050085
 30
0.0
 11
1.000000048
 21
3.000050085
 31
0.0
  0
LINE
  5
8C
330
1D
100
AcDbEntity
  8
3
  6
DASH
370
    35
100
AcDbLine
 10
20.4948124
 20
9.011330189
 30
0.0
 11
1.063870126
 21
2.824568484
 31
0.0
  0
LINE
  5
8D
330
1D
100
AcDbEntity
  8
3
  6
DASH
370
    35
100
AcDbLine
 10
1.748480666
 20
0.943616459
 30
0.0
 11
20.500000566
 21
6.914052229
 31
0.0
  0
LINE
  5
8E
330
1D
100
AcDbEntity
  8
3
  6
DASH
370
    35
100
AcDbLine
 10
1.000000048
 20
-3.000050085
 30
0.0
 11
2.091928965
 21
0.0
 31
0.0
  0
LINE
  5
8F
330
1D
100
AcDbEntity
  8
3
  6
DASH
370
    35
100
AcDbLine
 10
2.091928965
 20
0.0
 30
0.0
 11
1.000000048
 21
3.000050085
 31
0.0
  0
LINE
  5
90
330
1D
100
AcDbEntity
  8
3
  6
DASH
370
    35
100
AcDbLine
 10
20.500000566
 20
-6.914052197
 30
0.0
 11
1.748480632
 21
-0.943616553
 31
0.0
  0
LINE
  5
91
330
1D
100
AcDbEntity
  8
3
  6
DASH
370
    35
100
AcDbLine
 10
1.063870107
 20
-2.824568535
 30
0.0
 11
20.49481241
 21
-9.011330172
 31
0.0
  0
LINE
  5
92
330
1D
100
AcDbEntity
  8
4
100
AcDbLine
 10
0.715358288
 20
1.664138044
 30
0.0
 11
20.948331679
 21
8.1062648
 31
0.0
  0
LINE
  5
93
330
1D
100
AcDbEntity
  8
2
  6
Continuous
370
    25
100
AcDbLine
 10
0.0
 20
17.898556322
 30
0.0
 11
0.0
 21
8.999999613
 31
0.0
  0
LINE
  5
94
330
1D
100
AcDbEntity
  8
2
  6
Continuous
370
    25
100
AcDbLine
 10
0.0
 20
15.898556322
 30
0.0
 11
3.5
 21
16.348556322
 31
0.0
  0
LINE
  5
95
330
1D
100
AcDbEntity
  8
2
  6
Continuous
370
    25
100
AcDbLine
 10
3.5
 20
16.348556322
 30
0.0
 11
3.5
 21
15.448556322
 31
0.0
  0
LINE
  5
96
330
1D
100
AcDbEntity
  8
2
  6
Continuous
370
    25
100
AcDbLine
 10
3.5
 20
15.448556322
 30
0.0
 11
0.0
 21
15.898556322
 31
0.0
  0
LINE
  5
97
330
1D
100
AcDbEntity
  8
2
  6
Continuous
370
    25
100
AcDbLine
 10
32.5
 20
17.898556327
 30
0.0
 11
32.5
 21
9.599999999
 31
0.0
  0
LINE
  5
98
330
1D
100
AcDbEntity
  8
2
  6
Continuous
370
    25
100
AcDbLine
 10
32.5
 20
15.898556327
 30
0.0
 11
29.0
 21
15.448556327
 31
0.0
  0
LINE
  5
99
330
1D
100
AcDbEntity
  8
2
  6
Continuous
370
    25
100
AcDbLine
 10
29.0
 20
15.448556327
 30
0.0
 11
29.0
 21
16.348556327
 31
0.0
  0
LINE
  5
9A
330
1D
100
AcDbEntity
  8
2
  6
Continuous
370
    25
100
AcDbLine
 10
29.0
 20
16.348556327
 30
0.0
 11
32.5
 21
15.898556327
 31
0.0
  0
LINE
  5
9B
330
1D
100
AcDbEntity
  8
2
  6
Continuous
370
    25
100
AcDbLine
 10
3.5
 20
15.898556322
 30
0.0
 11
29.0
 21
15.898556327
 31
0.0
  0
TEXT
  5
9C
330
1D
100
AcDbEntity
  8
2
  6
Continuous
370
    25
100
AcDbText
 10
13.272812137
 20
17.398556324
 30
0.0
 40
3.5
  1
32.5
 50
0.00000001
  7
BMG_Text
100
AcDbText
  0
LINE
  5
9D
330
1D
100
AcDbEntity
  8
1
100
AcDbLine
 10
22.150000557
 20
9.493550286
 30
0.0
 11
22.300940007
 21
9.493076243
 31
0.0
  0
LINE
  5
9E
330
1D
100
AcDbEntity
  8
1
100
AcDbLine
 10
22.300940007
 20
9.493076243
 30
0.0
 11
22.447625175
 21
9.491547942
 31
0.0
  0
LINE
  5
9F
330
1D
100
AcDbEntity
  8
1
100
AcDbLine
 10
22.447625175
 20
9.491547942
 30
0.0
 11
22.585807368
 21
9.48872976
 31
0.0
  0
LINE
  5
A0
330
1D
100
AcDbEntity
  8
1
100
AcDbLine
 10
22.585807368
 20
9.48872976
 30
0.0
 11
22.711699828
 21
9.48425103
 31
0.0
  0
LINE
  5
A1
330
1D
100
AcDbEntity
  8
1
100
AcDbLine
 10
22.711699828
 20
9.48425103
 30
0.0
 11
22.821471095
 21
9.477672167
 31
0.0
  0
LINE
  5
A2
330
1D
100
AcDbEntity
  8
1
100
AcDbLine
 10
22.821471095
 20
9.477672167
 30
0.0
 11
22.912340239
 21
9.468610399
 31
0.0
  0
LINE
  5
A3
330
1D
100
AcDbEntity
  8
1
100
AcDbLine
 10
22.912340239
 20
9.468610399
 30
0.0
 11
22.981446236
 21
9.456713684
 31
0.0
  0
LINE
  5
A4
330
1D
100
AcDbEntity
  8
1
100
AcDbLine
 10
22.981446236
 20
9.456713684
 30
0.0
 11
23.027300835
 21
9.441890754
 31
0.0
  0
LINE
  5
A5
330
1D
100
AcDbEntity
  8
1
100
AcDbLine
 10
23.027300835
 20
9.441890754
 30
0.0
 11
23.048430681
 21
9.424096905
 31
0.0
  0
LINE
  5
A6
330
1D
100
AcDbEntity
  8
1
100
AcDbLine
 10
23.048430681
 20
9.424096905
 30
0.0
 11
23.044569418
 21
9.403774515
 31
0.0
  0
LINE
  5
A7
330
1D
100
AcDbEntity
  8
1
100
AcDbLine
 10
23.044569418
 20
9.403774515
 30
0.0
 11
23.015243933
 21
9.381233715
 31
0.0
  0
LINE
  5
A8
330
1D
100
AcDbEntity
  8
1
100
AcDbLine
 10
23.015243933
 20
9.381233715
 30
0.0
 11
22.961618379
 21
9.357556701
 31
0.0
  0
LINE
  5
A9
330
1D
100
AcDbEntity
  8
1
100
AcDbLine
 10
22.961618379
 20
9.357556701
 30
0.0
 11
22.883893922
 21
9.333491325
 31
0.0
  0
LINE
  5
AA
330
1D
100
AcDbEntity
  8
1
100
AcDbLine
 10
22.883893922
 20
9.333491325
 30
0.0
 11
22.784961387
 21
9.310537949
 31
0.0
  0
LINE
  5
AB
330
1D
100
AcDbEntity
  8
1
100
AcDbLine
 10
22.784961387
 20
9.310537949
 30
0.0
 11
22.66709134
 21
9.289981797
 31
0.0
  0
LINE
  5
AC
330
1D
100
AcDbEntity
  8
1
100
AcDbLine
 10
22.66709134
 20
9.289981797
 30
0.0
 11
22.53385447
 21
9.273066185
 31
0.0
  0
LINE
  5
AD
330
1D
100
AcDbEntity
  8
1
100
AcDbLine
 10
22.53385447
 20
9.273066185
 30
0.0
 11
22.391300648
 21
9.261137806
 31
0.0
  0
LINE
  5
AE
330
1D
100
AcDbEntity
  8
1
100
AcDbLine
 10
22.391300648
 20
9.261137806
 30
0.0
 11
22.241597995
 21
9.254597127
 31
0.0
  0
LINE
  5
AF
330
1D
100
AcDbEntity
  8
1
100
AcDbLine
 10
22.241597995
 20
9.254597127
 30
0.0
 11
22.092586383
 21
9.253968485
 31
0.0
  0
LINE
  5
B0
330
1D
100
AcDbEntity
  8
1
100
AcDbLine
 10
22.092586383
 20
9.253968485
 30
0.0
 11
21.945215762
 21
9.258965962
 31
0.0
  0
LINE
  5
B1
330
1D
100
AcDbEntity
  8
1
100
AcDbLine
 10
21.945215762
 20
9.258965962
 30
0.0
 11
21.674031392
 21
9.284095839
 31
0.0
  0
LINE
  5
B2
330
1D
100
AcDbEntity
  8
1
100
AcDbLine
 10
21.674031392
 20
9.284095839
 30
0.0
 11
21.451866254
 21
9.324425831
 31
0.0
  0
LINE
  5
B3
330
1D
100
AcDbEntity
  8
1
100
AcDbLine
 10
21.451866254
 20
9.324425831
 30
0.0
 11
21.366519853
 21
9.347965941
 31
0.0
  0
LINE
  5
B4
330
1D
100
AcDbEntity
  8
1
100
AcDbLine
 10
21.366519853
 20
9.347965941
 30
0.0
 11
21.303271875
 21
9.371864609
 31
0.0
  0
LINE
  5
B5
330
1D
100
AcDbEntity
  8
1
100
AcDbLine
 10
21.303271875
 20
9.371864609
 30
0.0
 11
21.263835952
 21
9.395261295
 31
0.0
  0
LINE
  5
B6
330
1D
100
AcDbEntity
  8
1
100
AcDbLine
 10
21.263835952
 20
9.395261295
 30
0.0
 11
21.250007674
 21
9.416934103
 31
0.0
  0
LINE
  5
B7
330
1D
100
AcDbEntity
  8
1
100
AcDbLine
 10
21.250007674
 20
9.416934103
 30
0.0
 11
21.262576803
 21
9.43600852
 31
0.0
  0
LINE
  5
B8
330
1D
100
AcDbEntity
  8
1
100
AcDbLine
 10
21.262576803
 20
9.43600852
 30
0.0
 11
21.300856024
 21
9.452205151
 31
0.0
  0
LINE
  5
B9
330
1D
100
AcDbEntity
  8
1
100
AcDbLine
 10
21.300856024
 20
9.452205151
 30
0.0
 11
21.363345906
 21
9.465140291
 31
0.0
  0
LINE
  5
BA
330
1D
100
AcDbEntity
  8
1
100
AcDbLine
 10
21.363345906
 20
9.465140291
 30
0.0
 11
21.448308602
 21
9.475169703
 31
0.0
  0
LINE
  5
BB
330
1D
100
AcDbEntity
  8
1
100
AcDbLine
 10
21.448308602
 20
9.475169703
 30
0.0
 11
21.552758291
 21
9.482467547
 31
0.0
  0
LINE
  5
BC
330
1D
100
AcDbEntity
  8
1
100
AcDbLine
 10
21.552758291
 20
9.482467547
 30
0.0
 11
21.674063057
 21
9.4875535
 31
0.0
  0
LINE
  5
BD
330
1D
100
AcDbEntity
  8
1
100
AcDbLine
 10
21.674063057
 20
9.4875535
 30
0.0
 11
21.808771416
 21
9.49083548
 31
0.0
  0
LINE
  5
BE
330
1D
100
AcDbEntity
  8
1
100
AcDbLine
 10
21.808771416
 20
9.49083548
 30
0.0
 11
21.953077987
 21
9.492721409
 31
0.0
  0
LINE
  5
BF
330
1D
100
AcDbEntity
  8
1
100
AcDbLine
 10
21.953077987
 20
9.492721409
 30
0.0
 11
22.150000557
 21
9.493550286
 31
0.0
  0
ARC
  5
C0
330
1D
100
AcDbEntity
  8
1
100
AcDbCircle
 10
26.630618408
 20
-2.176640861
 30
0.0
 40
9.85251507
100
AcDbArc
 50
127.869292728
 51
135.456977739
  0
ARC
  5
C1
330
1D
100
AcDbEntity
  8
1
100
AcDbCircle
 10
20.395936426
 20
5.824109307
 30
0.0
 40
0.290804355
100
AcDbArc
 50
309.9153437740001
 51
50.08465622599999
  0
ARC
  5
C2
330
1D
100
AcDbEntity
  8
1
100
AcDbCircle
 10
10.965274351
 20
-8.022773434
 30
0.0
 40
17.042725983
100
AcDbArc
 50
55.646111901
 51
60.727401141
  0
LINE
  5
C3
330
1D
100
AcDbEntity
  8
1
100
AcDbLine
 10
19.300000742
 20
7.202473469
 30
0.0
 11
19.925113767
 21
7.192357443
 31
0.0
  0
LINE
  5
C4
330
1D
100
AcDbEntity
  8
1
100
AcDbLine
 10
19.925113767
 20
7.192357443
 30
0.0
 11
20.55002749
 21
7.205222268
 31
0.0
  0
LINE
  5
C5
330
1D
100
AcDbEntity
  8
1
100
AcDbLine
 10
20.55002749
 20
7.205222268
 30
0.0
 11
21.17389068
 21
7.238736376
 31
0.0
  0
LINE
  5
C6
330
1D
100
AcDbEntity
  8
1
100
AcDbLine
 10
21.17389068
 20
7.238736376
 30
0.0
 11
21.794348955
 21
7.292174269
 31
0.0
  0
LINE
  5
C7
330
1D
100
AcDbEntity
  8
1
100
AcDbLine
 10
21.794348955
 20
7.292174269
 30
0.0
 11
22.408785298
 21
7.365802303
 31
0.0
  0
LINE
  5
C8
330
1D
100
AcDbEntity
  8
1
100
AcDbLine
 10
22.408785298
 20
7.365802303
 30
0.0
 11
23.014852777
 21
7.462165784
 31
0.0
  0
LINE
  5
C9
330
1D
100
AcDbEntity
  8
1
100
AcDbLine
 10
23.014852777
 20
7.462165784
 30
0.0
 11
23.605989292
 21
7.587376051
 31
0.0
  0
LINE
  5
CA
330
1D
100
AcDbEntity
  8
1
100
AcDbLine
 10
23.605989292
 20
7.587376051
 30
0.0
 11
23.891147226
 21
7.664789911
 31
0.0
  0
LINE
  5
CB
330
1D
100
AcDbEntity
  8
1
100
AcDbLine
 10
23.891147226
 20
7.664789911
 30
0.0
 11
24.160986766
 21
7.757167798
 31
0.0
  0
LINE
  5
CC
330
1D
100
AcDbEntity
  8
1
100
AcDbLine
 10
24.160986766
 20
7.757167798
 30
0.0
 11
24.357425049
 21
7.847275585
 31
0.0
  0
LINE
  5
CD
330
1D
100
AcDbEntity
  8
1
100
AcDbLine
 10
24.357425049
 20
7.847275585
 30
0.0
 11
24.442661554
 21
7.900615223
 31
0.0
  0
LINE
  5
CE
330
1D
100
AcDbEntity
  8
1
100
AcDbLine
 10
24.442661554
 20
7.900615223
 30
0.0
 11
24.509729817
 21
7.960245013
 31
0.0
  0
LINE
  5
CF
330
1D
100
AcDbEntity
  8
1
100
AcDbLine
 10
24.509729817
 20
7.960245013
 30
0.0
 11
24.54855293
 21
8.029145189
 31
0.0
  0
LINE
  5
D0
330
1D
100
AcDbEntity
  8
1
100
AcDbLine
 10
24.54855293
 20
8.029145189
 30
0.0
 11
24.541568011
 21
8.099940605
 31
0.0
  0
LINE
  5
D1
330
1D
100
AcDbEntity
  8
1
100
AcDbLine
 10
24.541568011
 20
8.099940605
 30
0.0
 11
24.495335296
 21
8.158893324
 31
0.0
  0
LINE
  5
D2
330
1D
100
AcDbEntity
  8
1
100
AcDbLine
 10
24.495335296
 20
8.158893324
 30
0.0
 11
24.363473058
 21
8.239195682
 31
0.0
  0
LINE
  5
D3
330
1D
100
AcDbEntity
  8
1
100
AcDbLine
 10
24.363473058
 20
8.239195682
 30
0.0
 11
24.201096967
 21
8.29976052
 31
0.0
  0
LINE
  5
D4
330
1D
100
AcDbEntity
  8
1
100
AcDbLine
 10
24.201096967
 20
8.29976052
 30
0.0
 11
24.022690952
 21
8.347732015
 31
0.0
  0
LINE
  5
D5
330
1D
100
AcDbEntity
  8
1
100
AcDbLine
 10
24.022690952
 20
8.347732015
 30
0.0
 11
23.574022576
 21
8.430823684
 31
0.0
  0
LINE
  5
D6
330
1D
100
AcDbEntity
  8
1
100
AcDbLine
 10
23.574022576
 20
8.430823684
 30
0.0
 11
23.116001859
 21
8.48671142
 31
0.0
  0
LINE
  5
D7
330
1D
100
AcDbEntity
  8
1
100
AcDbLine
 10
23.116001859
 20
8.48671142
 30
0.0
 11
22.649653256
 21
8.525621146
 31
0.0
  0
ARC
  5
D8
330
1D
100
AcDbEntity
  8
1
100
AcDbCircle
 10
-7.170268602
 20
-435.196210637
 30
0.0
 40
444.722713389
100
AcDbArc
 50
86.155270482
 51
86.58771541999998
  0
LINE
  5
D9
330
1D
100
AcDbEntity
  8
1
100
AcDbLine
 10
19.300000742
 20
8.865484968
 30
0.0
 11
19.300000742
 21
8.741307072
 31
0.0
  0
ARC
  5
DA
330
1D
100
AcDbEntity
  8
1
100
AcDbCircle
 10
25.212658774
 20
-18.273260305
 30
0.0
 40
27.777998909
100
AcDbArc
 50
99.59503161499998
 51
102.290840468
  0
ARC
  5
DB
330
1D
100
AcDbEntity
  8
1
100
AcDbCircle
 10
20.588384217
 20
9.230719549
 30
0.0
 40
0.114730544
100
AcDbArc
 50
267.076422345
 51
325.1451095960001
  0
LINE
  5
DC
330
1D
100
AcDbEntity
  8
1
100
AcDbLine
 10
20.68253234
 20
9.306049906
 30
0.0
 11
20.68253234
 21
9.165151045
 31
0.0
  0
LINE
  5
DD
330
1D
100
AcDbEntity
  8
1
100
AcDbLine
 10
20.489512011
 20
9.344842285
 30
0.0
 11
20.55449225
 21
9.342404082
 31
0.0
  0
LINE
  5
DE
330
1D
100
AcDbEntity
  8
1
100
AcDbLine
 10
20.55449225
 20
9.342404082
 30
0.0
 11
20.611351356
 21
9.336140938
 31
0.0
  0
LINE
  5
DF
330
1D
100
AcDbEntity
  8
1
100
AcDbLine
 10
20.611351356
 20
9.336140938
 30
0.0
 11
20.654205233
 21
9.326519445
 31
0.0
  0
LINE
  5
E0
330
1D
100
AcDbEntity
  8
1
100
AcDbLine
 10
20.654205233
 20
9.326519445
 30
0.0
 11
20.67841962
 21
9.314239025
 31
0.0
  0
LINE
  5
E1
330
1D
100
AcDbEntity
  8
1
100
AcDbLine
 10
20.67841962
 20
9.314239025
 30
0.0
 11
20.68253234
 21
9.306049906
 31
0.0
  0
ARC
  5
E2
330
1D
100
AcDbEntity
  8
1
100
AcDbCircle
 10
-28.476950113
 20
-6864.770236418
 30
0.0
 40
6874.289478465
100
AcDbArc
 50
89.591871228
 51
89.60101043899999
  0
LINE
  5
E3
330
1D
100
AcDbEntity
  8
1
100
AcDbLine
 10
19.300000742
 20
9.356496856
 30
0.0
 11
19.362119958
 21
9.352392517
 31
0.0
  0
LINE
  5
E4
330
1D
100
AcDbEntity
  8
1
100
AcDbLine
 10
19.362119958
 20
9.352392517
 30
0.0
 11
19.393019378
 21
9.3517676
 31
0.0
  0
LINE
  5
E5
330
1D
100
AcDbEntity
  8
1
100
AcDbLine
 10
19.300000742
 20
9.499999695
 30
0.0
 11
19.300000742
 21
9.356496856
 31
0.0
  0
LINE
  5
E6
330
1D
100
AcDbEntity
  8
1
100
AcDbLine
 10
19.300000742
 20
9.499999695
 30
0.0
 11
24.400962517
 21
9.499999695
 31
0.0
  0
LINE
  5
E7
330
1D
100
AcDbEntity
  8
1
100
AcDbLine
 10
24.400962517
 20
9.499999695
 30
0.0
 11
24.407867342
 21
9.488038719
 31
0.0
  0
LINE
  5
E8
330
1D
100
AcDbEntity
  8
1
100
AcDbLine
 10
24.407867342
 20
9.488038719
 30
0.0
 11
24.428566918
 21
9.452185594
 31
0.0
  0
LINE
  5
E9
330
1D
100
AcDbEntity
  8
1
100
AcDbLine
 10
24.428566918
 20
9.452185594
 30
0.0
 11
24.463009089
 21
9.392529726
 31
0.0
  0
LINE
  5
EA
330
1D
100
AcDbEntity
  8
1
100
AcDbLine
 10
24.463009089
 20
9.392529726
 30
0.0
 11
24.511108175
 21
9.30922199
 31
0.0
  0
LINE
  5
EB
330
1D
100
AcDbEntity
  8
1
100
AcDbLine
 10
24.511108175
 20
9.30922199
 30
0.0
 11
24.572739378
 21
9.202472866
 31
0.0
  0
LINE
  5
EC
330
1D
100
AcDbEntity
  8
1
100
AcDbLine
 10
24.572739378
 20
9.202472866
 30
0.0
 11
24.64774996
 21
9.072550572
 31
0.0
  0
LINE
  5
ED
330
1D
100
AcDbEntity
  8
1
100
AcDbLine
 10
24.64774996
 20
9.072550572
 30
0.0
 11
24.735951796
 21
8.919781074
 31
0.0
  0
LINE
  5
EE
330
1D
100
AcDbEntity
  8
1
100
AcDbLine
 10
24.735951796
 20
8.919781074
 30
0.0
 11
24.837119505
 21
8.744550869
 31
0.0
  0
LINE
  5
EF
330
1D
100
AcDbEntity
  8
1
100
AcDbLine
 10
24.837119505
 20
8.744550869
 30
0.0
 11
24.951003492
 21
8.547301404
 31
0.0
  0
LINE
  5
F0
330
1D
100
AcDbEntity
  8
1
100
AcDbLine
 10
24.951003492
 20
8.547301404
 30
0.0
 11
25.077311322
 21
8.328527212
 31
0.0
  0
LINE
  5
F1
330
1D
100
AcDbEntity
  8
1
100
AcDbLine
 10
25.077311322
 20
8.328527212
 30
0.0
 11
25.215730071
 21
8.088781498
 31
0.0
  0
LINE
  5
F2
330
1D
100
AcDbEntity
  8
1
100
AcDbLine
 10
25.215730071
 20
8.088781498
 30
0.0
 11
25.365905836
 21
7.828666829
 31
0.0
  0
LINE
  5
F3
330
1D
100
AcDbEntity
  8
1
100
AcDbLine
 10
25.365905836
 20
7.828666829
 30
0.0
 11
25.527466088
 21
7.548837923
 31
0.0
  0
LINE
  5
F4
330
1D
100
AcDbEntity
  8
1
100
AcDbLine
 10
25.527466088
 20
7.548837923
 30
0.0
 11
25.699999183
 21
7.249999791
 31
0.0
  0
LINE
  5
F5
330
1D
100
AcDbEntity
  8
1
100
AcDbLine
 10
25.699999183
 20
0.0
 30
0.0
 11
25.699999183
 21
7.249999791
 31
0.0
  0
ARC
  5
F6
330
1D
100
AcDbEntity
  8
1
100
AcDbCircle
 10
27.700150922
 20
0.000151644
 30
0.0
 40
2.000151744
100
AcDbArc
 50
180.004343938
 51
269.995662732
  0
LINE
  5
F7
330
1D
100
AcDbEntity
  8
1
100
AcDbLine
 10
29.699999839
 20
-2.000000095
 30
0.0
 11
27.699999511
 21
-2.000000095
 31
0.0
  0
LINE
  5
F8
330
1D
100
AcDbEntity
  8
1
100
AcDbLine
 10
30.552070588
 20
-2.491943305
 30
0.0
 11
30.269291252
 21
-2.32868013
 31
0.0
  0
LINE
  5
F9
330
1D
100
AcDbEntity
  8
1
100
AcDbLine
 10
30.269291252
 20
-2.32868013
 30
0.0
 11
29.985237867
 21
-2.164681675
 31
0.0
  0
LINE
  5
FA
330
1D
100
AcDbEntity
  8
1
100
AcDbLine
 10
29.985237867
 20
-2.164681675
 30
0.0
 11
29.699999839
 21
-2.000000095
 31
0.0
  0
LINE
  5
FB
330
1D
100
AcDbEntity
  8
1
100
AcDbLine
 10
30.552070588
 20
-2.491943305
 30
0.0
 11
30.552070588
 21
-9.308060631
 31
0.0
  0
LINE
  5
FC
330
1D
100
AcDbEntity
  8
1
100
AcDbLine
 10
26.384444907
 20
-9.308060631
 30
0.0
 11
30.552070588
 21
-9.308060631
 31
0.0
  0
ARC
  5
FD
330
1D
100
AcDbEntity
  8
1
100
AcDbCircle
 10
26.36479566
 20
-9.470857958
 30
0.0
 40
0.163978848
100
AcDbArc
 50
83.11782736
 51
119.341707761
  0
LINE
  5
FE
330
1D
100
AcDbEntity
  8
1
100
AcDbLine
 10
26.284443214
 20
-9.474175051
 30
0.0
 11
26.284443214
 21
-9.327915497
 31
0.0
  0
ARC
  5
FF
330
1D
100
AcDbEntity
  8
1
100
AcDbCircle
 10
26.204689092
 20
-9.333182811
 30
0.0
 40
0.16628047
100
AcDbArc
 50
277.876615813
 51
299.495426008
  0
LINE
  5
100
330
1D
100
AcDbEntity
  8
1
100
AcDbLine
 10
26.227476075
 20
-9.497894905
 30
0.0
 11
19.300000742
 21
-9.497894905
 31
0.0
  0
LINE
  5
101
330
1D
100
AcDbEntity
  8
1
100
AcDbLine
 10
19.393019378
 20
-9.3517676
 30
0.0
 11
19.32798326
 21
-9.354135022
 31
0.0
  0
LINE
  5
102
330
1D
100
AcDbEntity
  8
1
100
AcDbLine
 10
19.32798326
 20
-9.354135022
 30
0.0
 11
19.300000742
 21
-9.356496856
 31
0.0
  0
ARC
  5
103
330
1D
100
AcDbEntity
  8
1
100
AcDbCircle
 10
-28.476950113
 20
6864.770236418
 30
0.0
 40
6874.288680752
100
AcDbArc
 50
270.398989561
 51
270.408128772
  0
ARC
  5
104
330
1D
100
AcDbEntity
  8
1
100
AcDbCircle
 10
20.52609314
 20
-9.027255511
 30
0.0
 40
0.319686625
100
AcDbArc
 50
263.429360969
 51
299.297981074
  0
LINE
  5
105
330
1D
100
AcDbEntity
  8
1
100
AcDbLine
 10
20.68253234
 20
-9.165151045
 30
0.0
 11
20.68253234
 21
-9.306049906
 31
0.0
  0
ARC
  5
106
330
1D
100
AcDbEntity
  8
1
100
AcDbCircle
 10
20.589544623
 20
-9.228351991
 30
0.0
 40
0.112432536
100
AcDbArc
 50
34.202764626
 51
93.575703434
  0
ARC
  5
107
330
1D
100
AcDbEntity
  8
1
100
AcDbCircle
 10
25.212658774
 20
18.273260305
 30
0.0
 40
27.775367212
100
AcDbArc
 50
257.709159532
 51
260.404968385
  0
ARC
  5
108
330
1D
100
AcDbEntity
  8
1
100
AcDbCircle
 10
13.739699092
 20
11.771502211
 30
0.0
 40
21.093783289
100
AcDbArc
 50
285.283723807
 51
288.928464416
  0
LINE
  5
109
330
1D
100
AcDbEntity
  8
1
100
AcDbLine
 10
20.58253251
 20
-8.182423189
 30
0.0
 11
20.634666085
 21
-8.156679571
 31
0.0
  0
LINE
  5
10A
330
1D
100
AcDbEntity
  8
1
100
AcDbLine
 10
20.634666085
 20
-8.156679571
 30
0.0
 11
20.667975768
 21
-8.123634383
 31
0.0
  0
LINE
  5
10B
330
1D
100
AcDbEntity
  8
1
100
AcDbLine
 10
20.667975768
 20
-8.123634383
 30
0.0
 11
20.682411268
 21
-8.08205083
 31
0.0
  0
LINE
  5
10C
330
1D
100
AcDbEntity
  8
1
100
AcDbLine
 10
20.682411268
 20
-8.08205083
 30
0.0
 11
20.670382306
 21
-8.034850471
 31
0.0
  0
LINE
  5
10D
330
1D
100
AcDbEntity
  8
1
100
AcDbLine
 10
20.670382306
 20
-8.034850471
 30
0.0
 11
20.6276346
 21
-7.990910672
 31
0.0
  0
LINE
  5
10E
330
1D
100
AcDbEntity
  8
1
100
AcDbLine
 10
20.6276346
 20
-7.990910672
 30
0.0
 11
20.58253251
 21
-7.96793215
 31
0.0
  0
ARC
  5
10F
330
1D
100
AcDbEntity
  8
1
100
AcDbCircle
 10
26.469662139
 20
8.022773434
 30
0.0
 40
17.039518655
100
AcDbArc
 50
245.116997681
 51
247.461812867
  0
ARC
  5
110
330
1D
100
AcDbEntity
  8
1
100
AcDbCircle
 10
28.025364417
 20
11.771502211
 30
0.0
 40
21.096777254
100
AcDbArc
 50
247.461812867
 51
249.340848603
  0
ARC
  5
111
330
1D
100
AcDbEntity
  8
1
100
AcDbCircle
 10
10.965274351
 20
8.022773434
 30
0.0
 40
17.045637007
100
AcDbArc
 50
299.272598859
 51
304.3538880990001
  0
ARC
  5
112
330
1D
100
AcDbEntity
  8
1
100
AcDbCircle
 10
20.393235795
 20
-5.824109307
 30
0.0
 40
0.292544562
100
AcDbArc
 50
310.3210307909999
 51
49.67896920899999
  0
ARC
  5
113
330
1D
100
AcDbEntity
  8
1
100
AcDbCircle
 10
26.630618408
 20
2.176640861
 30
0.0
 40
9.855946544
100
AcDbArc
 50
221.945909325
 51
232.130707272
  0
LINE
  5
114
330
1D
100
AcDbEntity
  8
1
100
AcDbLine
 10
19.300000742
 20
-3.041381249
 30
0.0
 11
23.499999195
 21
-3.041381249
 31
0.0
  0
ARC
  5
115
330
1D
100
AcDbEntity
  8
1
100
AcDbCircle
 10
8.210674349
 20
0.0
 30
0.0
 40
15.588889596
100
AcDbArc
 50
348.749476207
 51
0.0
  0
ARC
  5
116
330
1D
100
AcDbEntity
  8
1
100
AcDbCircle
 10
8.210674349
 20
0.0
 30
0.0
 40
15.578000785
100
AcDbArc
 50
0.0
 51
11.250523793
  0
LINE
  5
117
330
1D
100
AcDbEntity
  8
1
100
AcDbLine
 10
23.499999195
 20
3.041381249
 30
0.0
 11
19.300000742
 21
3.041381249
 31
0.0
  0
LINE
  5
118
330
1D
100
AcDbEntity
  8
1
100
AcDbLine
 10
23.499999195
 20
3.041381249
 30
0.0
 11
23.499999195
 21
-3.041381249
 31
0.0
  0
ARC
  5
119
330
1D
100
AcDbEntity
  8
1
100
AcDbCircle
 10
31.71815973
 20
-9.09607103
 30
0.0
 40
0.403407686
100
AcDbArc
 50
260.54085288
 51
357.643235358
  0
LINE
  5
11A
330
1D
100
AcDbEntity
  8
1
100
AcDbLine
 10
30.924772844
 20
-2.707122825
 30
0.0
 11
31.098362058
 21
-2.807344543
 31
0.0
  0
LINE
  5
11B
330
1D
100
AcDbEntity
  8
1
100
AcDbLine
 10
31.098362058
 20
-2.807344543
 30
0.0
 11
31.235320493
 21
-2.88641802
 31
0.0
  0
LINE
  5
11C
330
1D
100
AcDbEntity
  8
1
100
AcDbLine
 10
31.235320493
 20
-2.88641802
 30
0.0
 11
31.349465251
 21
-2.952320036
 31
0.0
  0
LINE
  5
11D
330
1D
100
AcDbEntity
  8
1
100
AcDbLine
 10
31.349465251
 20
-2.952320036
 30
0.0
 11
31.399387866
 21
-2.981142374
 31
0.0
  0
LINE
  5
11E
330
1D
100
AcDbEntity
  8
1
100
AcDbLine
 10
31.399387866
 20
-2.981142374
 30
0.0
 11
31.404837966
 21
-2.984288381
 31
0.0
  0
LINE
  5
11F
330
1D
100
AcDbEntity
  8
1
100
AcDbLine
 10
30.552070588
 20
-9.308060631
 30
0.0
 11
31.247004867
 21
-9.433090687
 31
0.0
  0
LINE
  5
120
330
1D
100
AcDbEntity
  8
1
100
AcDbLine
 10
31.247004867
 20
-9.433090687
 30
0.0
 11
31.651861966
 21
-9.505900554
 31
0.0
  0
LINE
  5
121
330
1D
100
AcDbEntity
  8
1
100
AcDbLine
 10
30.924772844
 20
-2.707122825
 30
0.0
 11
30.552070588
 21
-2.491943305
 31
0.0
  0
LINE
  5
122
330
1D
100
AcDbEntity
  8
1
100
AcDbLine
 10
29.733974487
 20
-0.500000024
 30
0.0
 11
30.155424029
 21
-0.743323762
 31
0.0
  0
LINE
  5
123
330
1D
100
AcDbEntity
  8
1
100
AcDbLine
 10
30.155424029
 20
-0.743323762
 30
0.0
 11
30.575187877
 21
-0.98567456
 31
0.0
  0
LINE
  5
124
330
1D
100
AcDbEntity
  8
1
100
AcDbLine
 10
30.575187877
 20
-0.98567456
 30
0.0
 11
30.991587788
 21
-1.226083608
 31
0.0
  0
ARC
  5
125
330
1D
100
AcDbEntity
  8
1
100
AcDbCircle
 10
34.600699838
 20
0.500555346
 30
0.0
 40
4.000871389
100
AcDbArc
 50
205.566965975
 51
231.43350335
  0
ARC
  5
126
330
1D
100
AcDbEntity
  8
1
100
AcDbCircle
 10
62.027550689
 20
-0.5
 30
0.0
 40
30.667980295
100
AcDbArc
 50
184.709454381
 51
185.344722231
  0
ARC
  5
127
330
1D
100
AcDbEntity
  8
1
100
AcDbCircle
 10
36.497529194
 20
-2.888422324
 30
0.0
 40
5.021477671
100
AcDbArc
 50
185.345024151
 51
192.606993773
  0
ARC
  5
128
330
1D
100
AcDbEntity
  8
1
100
AcDbCircle
 10
32.978632241
 20
-3.675439989
 30
0.0
 40
1.41564454
100
AcDbArc
 50
192.606993773
 51
207.00288411
  0
ARC
  5
129
330
1D
100
AcDbEntity
  8
1
100
AcDbCircle
 10
31.769223612
 20
-4.291741447
 30
0.0
 40
0.058258553
100
AcDbArc
 50
207.002623801
 51
270.0
  0
ARC
  5
12A
330
1D
100
AcDbEntity
  8
1
100
AcDbCircle
 10
31.769223612
 20
-4.291741447
 30
0.0
 40
0.058258553
100
AcDbArc
 50
270.0
 51
332.997376199
  0
ARC
  5
12B
330
1D
100
AcDbEntity
  8
1
100
AcDbCircle
 10
30.559814983
 20
-3.675439989
 30
0.0
 40
1.41564454
100
AcDbArc
 50
332.9971158899999
 51
347.393006227
  0
ARC
  5
12C
330
1D
100
AcDbEntity
  8
1
100
AcDbCircle
 10
27.04091803
 20
-2.888422324
 30
0.0
 40
5.021477671
100
AcDbArc
 50
347.393006227
 51
354.654975849
  0
ARC
  5
12D
330
1D
100
AcDbEntity
  8
1
100
AcDbCircle
 10
1.510896535
 20
-0.5
 30
0.0
 40
30.662978383
100
AcDbArc
 50
354.655277769
 51
356.021961328
  0
LINE
  5
12E
330
1D
100
AcDbEntity
  8
1
100
AcDbLine
 10
19.300000742
 20
-3.041381249
 30
0.0
 11
19.200000912
 21
-3.024896607
 31
0.0
  0
LINE
  5
12F
330
1D
100
AcDbEntity
  8
1
100
AcDbLine
 10
19.200000912
 20
3.024896607
 30
0.0
 11
19.200000912
 21
-3.024896607
 31
0.0
  0
LINE
  5
130
330
1D
100
AcDbEntity
  8
1
100
AcDbLine
 10
19.300000742
 20
3.041381249
 30
0.0
 11
19.200000912
 21
3.024896607
 31
0.0
  0
ARC
  5
131
330
1D
100
AcDbEntity
  8
1
100
AcDbCircle
 10
21.315182737
 20
-3.766040667
 30
0.0
 40
2.115984789
100
AcDbArc
 50
181.578495057
 51
197.756485324
  0
LINE
  5
132
330
1D
100
AcDbEntity
  8
1
100
AcDbLine
 10
19.200000912
 20
-3.024896607
 30
0.0
 11
19.200000912
 21
-3.824328538
 31
0.0
  0
LINE
  5
133
330
1D
100
AcDbEntity
  8
1
100
AcDbLine
 10
19.200000912
 20
3.824328538
 30
0.0
 11
19.200000912
 21
3.024896607
 31
0.0
  0
LINE
  5
134
330
1D
100
AcDbEntity
  8
1
100
AcDbLine
 10
19.300000742
 20
4.411356989
 30
0.0
 11
19.220190123
 21
4.062229302
 31
0.0
  0
LINE
  5
135
330
1D
100
AcDbEntity
  8
1
100
AcDbLine
 10
19.220190123
 20
4.062229302
 30
0.0
 11
19.200000912
 21
3.824328538
 31
0.0
  0
ARC
  5
136
330
1D
100
AcDbEntity
  8
1
100
AcDbCircle
 10
34.6
 20
0.5
 30
0.0
 40
4.0
100
AcDbArc
 50
231.4363971229999
 51
234.900367805
  0
LINE
  5
137
330
1D
100
AcDbEntity
  8
1
100
AcDbLine
 10
32.299999148
 20
-2.772613661
 30
0.0
 11
32.299999148
 21
-3.674340434
 31
0.0
  0
LINE
  5
138
330
1D
100
AcDbEntity
  8
1
100
AcDbLine
 10
32.299999148
 20
-3.674340434
 30
0.0
 11
32.247446477
 21
-3.722882364
 31
0.0
  0
LINE
  5
139
330
1D
100
AcDbEntity
  8
1
100
AcDbLine
 10
32.131832093
 20
-3.702392336
 30
0.0
 11
32.247446477
 21
-3.722882364
 31
0.0
  0
ARC
  5
13A
330
1D
100
AcDbEntity
  8
1
100
AcDbCircle
 10
32.257304969
 20
-3.740464374
 30
0.0
 40
0.133188416
100
AcDbArc
 50
167.639176193
 51
174.834712783
  0
ARC
  5
13B
330
1D
100
AcDbEntity
  8
1
100
AcDbCircle
 10
32.942426512
 20
-3.802395933
 30
0.0
 40
0.821103417
100
AcDbArc
 50
174.834774516
 51
179.978511677
  0
LINE
  5
13C
330
1D
100
AcDbEntity
  8
1
100
AcDbLine
 10
32.121323049
 20
-9.103845805
 30
0.0
 11
32.121323049
 21
-3.802088089
 31
0.0
  0
LINE
  5
13D
330
1D
100
AcDbEntity
  8
1
100
AcDbLine
 10
32.121323049
 20
-9.103845805
 30
0.0
 11
32.121226191
 21
-9.112659842
 31
0.0
  0
LINE
  5
13E
330
1D
100
AcDbEntity
  8
1
100
AcDbLine
 10
31.404837966
 20
-2.984288381
 30
0.0
 11
31.463108957
 21
-3.017931944
 31
0.0
  0
LINE
  5
13F
330
1D
100
AcDbEntity
  8
1
100
AcDbLine
 10
19.200000912
 20
3.824328538
 30
0.0
 11
19.200000912
 21
4.283820279
 31
0.0
  0
ARC
  5
140
330
1D
100
AcDbEntity
  8
1
100
AcDbCircle
 10
19.844295474
 20
-7.080413189
 30
0.0
 40
0.649577766
100
AcDbArc
 50
187.312493706
 51
213.078790024
  0
LINE
  5
141
330
1D
100
AcDbEntity
  8
1
100
AcDbLine
 10
19.200000912
 20
-6.872546393
 30
0.0
 11
19.200000912
 21
-7.163092028
 31
0.0
  0
LINE
  5
142
330
1D
100
AcDbEntity
  8
1
100
AcDbLine
 10
19.300000742
 20
-6.84619043
 30
0.0
 11
19.277788699
 21
-6.829691585
 31
0.0
  0
LINE
  5
143
330
1D
100
AcDbEntity
  8
1
100
AcDbLine
 10
19.277788699
 20
-6.829691585
 30
0.0
 11
19.246112555
 21
-6.815140136
 31
0.0
  0
LINE
  5
144
330
1D
100
AcDbEntity
  8
1
100
AcDbLine
 10
19.246112555
 20
-6.815140136
 30
0.0
 11
19.223425537
 21
-6.816109177
 31
0.0
  0
LINE
  5
145
330
1D
100
AcDbEntity
  8
1
100
AcDbLine
 10
19.223425537
 20
-6.816109177
 30
0.0
 11
19.210342318
 21
-6.827017292
 31
0.0
  0
LINE
  5
146
330
1D
100
AcDbEntity
  8
1
100
AcDbLine
 10
19.210342318
 20
-6.827017292
 30
0.0
 11
19.200801849
 21
-6.856901105
 31
0.0
  0
LINE
  5
147
330
1D
100
AcDbEntity
  8
1
100
AcDbLine
 10
19.200801849
 20
-6.856901105
 30
0.0
 11
19.200000912
 21
-6.872546393
 31
0.0
  0
LINE
  5
148
330
1D
100
AcDbEntity
  8
1
100
AcDbLine
 10
19.200000912
 20
-3.824328538
 30
0.0
 11
19.200000912
 21
-6.872546393
 31
0.0
  0
LINE
  5
149
330
1D
100
AcDbEntity
  8
1
100
AcDbLine
 10
19.200000912
 20
6.872546393
 30
0.0
 11
19.203202799
 21
6.843508221
 31
0.0
  0
LINE
  5
14A
330
1D
100
AcDbEntity
  8
1
100
AcDbLine
 10
19.203202799
 20
6.843508221
 30
0.0
 11
19.214292988
 21
6.822239608
 31
0.0
  0
LINE
  5
14B
330
1D
100
AcDbEntity
  8
1
100
AcDbLine
 10
19.214292988
 20
6.822239608
 30
0.0
 11
19.230648875
 21
6.814179942
 31
0.0
  0
LINE
  5
14C
330
1D
100
AcDbEntity
  8
1
100
AcDbLine
 10
19.230648875
 20
6.814179942
 30
0.0
 11
19.253117964
 21
6.817173678
 31
0.0
  0
LINE
  5
14D
330
1D
100
AcDbEntity
  8
1
100
AcDbLine
 10
19.253117964
 20
6.817173678
 30
0.0
 11
19.277287647
 21
6.829370279
 31
0.0
  0
LINE
  5
14E
330
1D
100
AcDbEntity
  8
1
100
AcDbLine
 10
19.277287647
 20
6.829370279
 30
0.0
 11
19.300000742
 21
6.84619043
 31
0.0
  0
LINE
  5
14F
330
1D
100
AcDbEntity
  8
1
100
AcDbLine
 10
19.200000912
 20
7.10083032
 30
0.0
 11
19.200000912
 21
6.872546393
 31
0.0
  0
LINE
  5
150
330
1D
100
AcDbEntity
  8
1
100
AcDbLine
 10
19.300000742
 20
7.202473469
 30
0.0
 11
19.200000912
 21
7.10083032
 31
0.0
  0
LINE
  5
151
330
1D
100
AcDbEntity
  8
1
100
AcDbLine
 10
19.200000912
 20
6.872546393
 30
0.0
 11
19.200000912
 21
4.408217967
 31
0.0
  0
LINE
  5
152
330
1D
100
AcDbEntity
  8
1
100
AcDbLine
 10
19.200000912
 20
7.126453798
 30
0.0
 11
19.200000912
 21
7.427349687
 31
0.0
  0
LINE
  5
153
330
1D
100
AcDbEntity
  8
1
100
AcDbLine
 10
19.200000912
 20
7.427349687
 30
0.0
 11
19.200000912
 21
8.63856636
 31
0.0
  0
LINE
  5
154
330
1D
100
AcDbEntity
  8
1
100
AcDbLine
 10
19.200000912
 20
8.63856636
 30
0.0
 11
19.300000742
 21
8.741307072
 31
0.0
  0
LINE
  5
155
330
1D
100
AcDbEntity
  8
1
100
AcDbLine
 10
19.200000912
 20
4.408217967
 30
0.0
 11
19.200000912
 21
4.283820279
 31
0.0
  0
LINE
  5
156
330
1D
100
AcDbEntity
  8
1
100
AcDbLine
 10
19.300000742
 20
-8.576243184
 30
0.0
 11
19.265851006
 21
-8.550257422
 31
0.0
  0
LINE
  5
157
330
1D
100
AcDbEntity
  8
1
100
AcDbLine
 10
19.265851006
 20
-8.550257422
 30
0.0
 11
19.234593958
 21
-8.53267312
 31
0.0
  0
LINE
  5
158
330
1D
100
AcDbEntity
  8
1
100
AcDbLine
 10
19.234593958
 20
-8.53267312
 30
0.0
 11
19.211566076
 21
-8.528540842
 31
0.0
  0
LINE
  5
159
330
1D
100
AcDbEntity
  8
1
100
AcDbLine
 10
19.211566076
 20
-8.528540842
 30
0.0
 11
19.201550633
 21
-8.537068032
 31
0.0
  0
LINE
  5
15A
330
1D
100
AcDbEntity
  8
1
100
AcDbLine
 10
19.201550633
 20
-8.537068032
 30
0.0
 11
19.200000912
 21
-8.546782657
 31
0.0
  0
LINE
  5
15B
330
1D
100
AcDbEntity
  8
1
100
AcDbLine
 10
19.200000912
 20
-7.163092028
 30
0.0
 11
19.200000912
 21
-8.546782657
 31
0.0
  0
ARC
  5
15C
330
1D
100
AcDbEntity
  8
1
100
AcDbCircle
 10
19.657159302
 20
-8.546743826
 30
0.0
 40
0.478704661
100
AcDbArc
 50
197.255693469
 51
221.746869204
  0
LINE
  5
15D
330
1D
100
AcDbEntity
  8
1
100
AcDbLine
 10
19.200000912
 20
-8.546782657
 30
0.0
 11
19.200000912
 21
-8.688745089
 31
0.0
  0
ARC
  5
15E
330
1D
100
AcDbEntity
  8
1
100
AcDbCircle
 10
19.532360298
 20
8.61735539
 30
0.0
 40
0.33994007
100
AcDbArc
 50
133.120183398
 51
167.877253929
  0
LINE
  5
15F
330
1D
100
AcDbEntity
  8
1
100
AcDbLine
 10
19.200000912
 20
8.688745089
 30
0.0
 11
19.200000912
 21
8.63856636
 31
0.0
  0
ARC
  5
160
330
1D
100
AcDbEntity
  8
1
100
AcDbCircle
 10
31.718163511
 20
-9.108206285
 30
0.0
 40
0.403183118
100
AcDbArc
 50
260.534991012
 51
0.619673711
  0
LINE
  5
161
330
1D
100
AcDbEntity
  8
1
100
AcDbLine
 10
19.200000912
 20
9.284065105
 30
0.0
 11
19.200000912
 21
8.688745089
 31
0.0
  0
ARC
  5
162
330
1D
100
AcDbEntity
  8
1
100
AcDbCircle
 10
19.140495827
 20
9.471464423
 30
0.0
 40
0.196619835
100
AcDbArc
 50
287.616254636
 51
324.216781995
  0
ARC
  5
163
330
1D
100
AcDbEntity
  8
1
100
AcDbCircle
 10
19.114085827
 20
-9.507926271
 30
0.0
 40
0.239781616
100
AcDbArc
 50
39.163134072
 51
69.00382929700001
  0
LINE
  5
164
330
1D
100
AcDbEntity
  8
1
100
AcDbLine
 10
19.200000912
 20
-8.688745089
 30
0.0
 11
19.200000912
 21
-9.284065105
 31
0.0
  0
LINE
  5
165
330
1D
100
AcDbEntity
  8
1
100
AcDbLine
 10
19.200000912
 20
9.284065105
 30
0.0
 11
19.200000912
 21
9.399468079
 31
0.0
  0
LINE
  5
166
330
1D
100
AcDbEntity
  8
1
100
AcDbLine
 10
19.300000742
 20
9.499999695
 30
0.0
 11
19.200000912
 21
9.399468079
 31
0.0
  0
LINE
  5
167
330
1D
100
AcDbEntity
  8
1
100
AcDbLine
 10
19.300000742
 20
-9.497894905
 30
0.0
 11
19.200000912
 21
-9.395211935
 31
0.0
  0
LINE
  5
168
330
1D
100
AcDbEntity
  8
1
100
AcDbLine
 10
19.200000912
 20
-9.395211935
 30
0.0
 11
19.200000912
 21
-9.284065105
 31
0.0
  0
ARC
  5
169
330
1D
100
AcDbEntity
  8
1
100
AcDbCircle
 10
27.700693163
 20
2.98383311
 30
0.0
 40
2.000693983
100
AcDbArc
 50
180.003331401
 51
198.19184523
  0
LINE
  5
16A
330
1D
100
AcDbEntity
  8
1
100
AcDbLine
 10
26.699999347
 20
1.251665992
 30
0.0
 11
29.733974487
 21
-0.500000024
 31
0.0
  0
ARC
  5
16B
330
1D
100
AcDbEntity
  8
1
100
AcDbCircle
 10
27.7
 20
2.983716857
 30
0.0
 40
2.0
100
AcDbArc
 50
198.194872339
 51
240.0
  0
ARC
  5
16D
330
1D
100
AcDbEntity
  8
1
100
AcDbCircle
 10
26.55
 20
8.621385257
 30
0.0
 40
0.4
100
AcDbArc
 50
100.0
 51
180.0
  0
ARC
  5
16E
330
1D
100
AcDbEntity
  8
CUT
100
AcDbCircle
 10
32.1
 20
9.599999999
 30
0.0
 40
0.4
100
AcDbArc
 50
0.0
 51
100.0
  0
LINE
  5
16F
330
1D
100
AcDbEntity
  8
CUT
100
AcDbLine
 10
32.499998808
 20
9.600000456
 30
0.0
 11
32.499998808
 21
3.964382224
 31
0.0
  0
ARC
  5
170
330
1D
100
AcDbEntity
  8
CUT
100
AcDbCircle
 10
32.1
 20
3.964382304
 30
0.0
 40
0.4
100
AcDbArc
 50
280.0
 51
0.0
  0
LINE
  5
171
330
1D
100
AcDbEntity
  8
1
100
AcDbLine
 10
32.169457525
 20
3.570459317
 30
0.0
 11
26.619458571
 21
2.591844415
 31
0.0
  0
ARC
  5
172
330
1D
100
AcDbEntity
  8
CUT
100
AcDbCircle
 10
26.55
 20
2.985767561
 30
0.0
 40
0.4
100
AcDbArc
 50
180.0
 51
280.0
  0
ARC
  5
174
330
1D
100
AcDbEntity
  8
CUT
100
AcDbCircle
 10
32.1
 20
-3.964382303
 30
0.0
 40
0.107772745
100
AcDbArc
 50
0.0
 51
78.588759403
  0
LINE
  5
175
330
1D
100
AcDbEntity
  8
CUT
100
AcDbLine
 10
32.207772136
 20
-9.600000456
 30
0.0
 11
32.207772136
 21
-3.964382224
 31
0.0
  0
ARC
  5
176
330
1D
100
AcDbEntity
  8
CUT
100
AcDbCircle
 10
32.1
 20
-9.599999999
 30
0.0
 40
0.107772745
100
AcDbArc
 50
260.0
 51
0.0
  0
LINE
  5
177
330
1D
100
AcDbEntity
  8
CUT
100
AcDbLine
 10
29.823692515
 20
-9.308060631
 30
0.0
 11
32.081283629
 21
-9.706135839
 31
0.0
  0
LINE
  5
178
330
1D
100
AcDbEntity
  8
CUT
100
AcDbLine
 10
28.140824288
 20
-9.308060631
 30
0.0
 11
32.03054145
 21
-9.993922897
 31
0.0
  0
LINE
  5
179
330
1D
100
AcDbEntity
  8
CUT
100
AcDbLine
 10
32.499998808
 20
-9.600000456
 30
0.0
 11
32.499998808
 21
-3.964382224
 31
0.0
  0
ARC
  5
17A
330
1D
100
AcDbEntity
  8
CUT
100
AcDbCircle
 10
32.1
 20
-3.964382303
 30
0.0
 40
0.4
100
AcDbArc
 50
0.0
 51
60.0
  0
ARC
  5
17B
330
1D
100
AcDbEntity
  8
CUT
100
AcDbCircle
 10
32.1
 20
-9.599999999
 30
0.0
 40
0.4
100
AcDbArc
 50
260.0
 51
0.0
  0
ARC
  5
17C
330
1D
100
AcDbEntity
  8
1
100
AcDbCircle
 10
29.740994268
 20
5.189461916
 30
0.0
 40
0.4
100
AcDbArc
 50
65.992794362
 51
174.007205638
  0
ARC
  5
17D
330
1D
100
AcDbEntity
  8
1
100
AcDbCircle
 10
29.964762609
 20
5.69188378
 30
0.0
 40
0.15
100
AcDbArc
 50
245.992794362
 51
54.007205638
  0
ARC
  5
17E
330
1D
100
AcDbEntity
  8
1
100
AcDbCircle
 10
30.287988536
 20
6.13688378
 30
0.0
 40
0.4
100
AcDbArc
 50
125.992794362
 51
234.007205638
  0
ARC
  5
17F
330
1D
100
AcDbEntity
  8
1
100
AcDbCircle
 10
29.964762609
 20
6.58188378
 30
0.0
 40
0.15
100
AcDbArc
 50
305.992794362
 51
114.007205638
  0
ARC
  5
180
330
1D
100
AcDbEntity
  8
1
100
AcDbCircle
 10
29.740994268
 20
7.084305644
 30
0.0
 40
0.4
100
AcDbArc
 50
185.992794362
 51
294.007205638
  0
ARC
  5
181
330
1D
100
AcDbEntity
  8
1
100
AcDbCircle
 10
29.194
 20
7.02688378
 30
0.0
 40
0.15
100
AcDbArc
 50
5.992794361999998
 51
174.007205638
  0
ARC
  5
182
330
1D
100
AcDbEntity
  8
1
100
AcDbCircle
 10
28.647005732
 20
7.084305644
 30
0.0
 40
0.4
100
AcDbArc
 50
245.992794362
 51
354.007205638
  0
ARC
  5
183
330
1D
100
AcDbEntity
  8
1
100
AcDbCircle
 10
28.423237391
 20
6.58188378
 30
0.0
 40
0.15
100
AcDbArc
 50
65.992794362
 51
234.007205638
  0
ARC
  5
184
330
1D
100
AcDbEntity
  8
1
100
AcDbCircle
 10
28.100011463
 20
6.13688378
 30
0.0
 40
0.4
100
AcDbArc
 50
305.992794362
 51
54.007205638
  0
ARC
  5
185
330
1D
100
AcDbEntity
  8
1
100
AcDbCircle
 10
28.423237391
 20
5.69188378
 30
0.0
 40
0.15
100
AcDbArc
 50
125.992794362
 51
294.007205638
  0
ARC
  5
186
330
1D
100
AcDbEntity
  8
1
100
AcDbCircle
 10
28.647005732
 20
5.189461916
 30
0.0
 40
0.4
100
AcDbArc
 50
5.992794361999998
 51
114.007205638
  0
ARC
  5
187
330
1D
100
AcDbEntity
  8
1
100
AcDbCircle
 10
29.194
 20
5.24688378
 30
0.0
 40
0.15
100
AcDbArc
 50
185.992794362
 51
354.007205638
  0
CIRCLE
  5
188
330
1D
100
AcDbEntity
  8
1
100
AcDbCircle
 10
29.194
 20
6.13688378
 30
0.0
 40
1.725
  0
LINE
  5
189
330
1D
100
AcDbEntity
  8
1
100
AcDbLine
 10
19.400000572
 20
-9.497894905
 30
0.0
 11
19.400000572
 21
-9.499999694
 31
0.0
  0
LINE
  5
18A
330
1D
100
AcDbEntity
  8
1
100
AcDbLine
 10
24.402176961
 20
-9.497894905
 30
0.0
 11
24.400962517
 21
-9.499999694
 31
0.0
  0
LINE
  5
18B
330
1D
100
AcDbEntity
  8
1
100
AcDbLine
 10
26.384444907
 20
9.308060631
 30
0.0
 11
28.140824288
 21
9.308060631
 31
0.0
  0
ARC
  5
18C
330
1D
100
AcDbEntity
  8
1
100
AcDbCircle
 10
26.36479566
 20
9.470857958
 30
0.0
 40
0.163978848
100
AcDbArc
 50
240.658292239
 51
276.88217264
  0
ARC
  5
18D
330
1D
100
AcDbEntity
  8
1
100
AcDbCircle
 10
26.204689092
 20
9.333182811
 30
0.0
 40
0.161986931
100
AcDbArc
 50
60.504573992
 51
82.12338418699998
  0
LINE
  5
18E
330
1D
100
AcDbEntity
  8
1
100
AcDbLine
 10
26.227476075
 20
9.497894906
 30
0.0
 11
24.402176961
 21
9.497894906
 31
0.0
  0
LINE
  5
18F
330
1D
100
AcDbEntity
  8
1
100
AcDbLine
 10
25.699999183
 20
5.304573104
 30
0.0
 11
26.14999935
 21
5.384325516
 31
0.0
  0
LINE
  5
190
330
1D
100
AcDbEntity
  8
1
100
AcDbLine
 10
32.299999148
 20
2.772613661
 30
0.0
 11
32.299999148
 21
3.617972136
 31
0.0
  0
ARC
  5
191
330
1D
100
AcDbEntity
  8
1
100
AcDbCircle
 10
34.6
 20
-0.5
 30
0.0
 40
4.0
100
AcDbArc
 50
125.099632195
 51
154.435881431
  0
LINE
  5
192
330
1D
100
AcDbEntity
  8
1
100
AcDbLine
 10
28.8679488
 20
0.0
 30
0.0
 11
30.991587788
 21
1.226083608
 31
0.0
  0
LINE
  5
193
330
1D
100
AcDbEntity
  8
1
100
AcDbLine
 10
26.033231988
 20
2.621556167
 30
0.0
 11
26.008350775
 21
2.617146354
 31
0.0
  0
LINE
  5
194
330
1D
100
AcDbEntity
  8
1
100
AcDbLine
 10
26.008350775
 20
2.617146354
 30
0.0
 11
25.970684364
 21
2.610470867
 31
0.0
  0
LINE
  5
195
330
1D
100
AcDbEntity
  8
1
100
AcDbLine
 10
25.970684364
 20
2.610470867
 30
0.0
 11
25.915585458
 21
2.60070595
 31
0.0
  0
LINE
  5
196
330
1D
100
AcDbEntity
  8
1
100
AcDbLine
 10
25.915585458
 20
2.60070595
 30
0.0
 11
25.742184371
 21
2.581964713
 31
0.0
  0
LINE
  5
197
330
1D
100
AcDbEntity
  8
1
100
AcDbLine
 10
26.304852217
 20
2.669694368
 30
0.0
 11
26.033231988
 21
2.621556167
 31
0.0
  0
LINE
  5
198
330
1D
100
AcDbEntity
  8
1
100
AcDbLine
 10
26.284443214
 20
9.474175051
 30
0.0
 11
26.284443214
 21
8.92051775
 31
0.0
  0
ARC
  5
199
330
1D
100
AcDbEntity
  8
1
100
AcDbCircle
 10
105.700091857
 20
0.0
 30
0.0
 40
74.355166739
100
AcDbArc
 50
182.300217607
 51
185.345567256
  0
ARC
  5
19A
330
1D
100
AcDbEntity
  8
1
100
AcDbCircle
 10
43.800130709
 20
-5.791847293
 30
0.0
 40
12.176406868
100
AcDbArc
 50
185.346011244
 51
192.608482125
  0
ARC
  5
19B
330
1D
100
AcDbEntity
  8
1
100
AcDbCircle
 10
35.267653507
 20
-7.700408225
 30
0.0
 40
3.433079581
100
AcDbArc
 50
192.608482125
 51
204.172582481
  0
ARC
  5
19C
330
1D
100
AcDbEntity
  8
1
100
AcDbCircle
 10
58.568683727
 20
-3.177965712
 30
0.0
 40
27.647920391
100
AcDbArc
 50
179.024208185
 51
193.205536923
  0
LINE
  5
19D
330
1D
100
AcDbEntity
  8
1
100
AcDbLine
 10
31.651861966
 20
-9.493993595
 30
0.0
 11
31.651861966
 21
-9.505900554
 31
0.0
  0
LINE
  5
19E
330
1D
100
AcDbEntity
  8
CUT
100
AcDbLine
 10
32.121323049
 20
-3.843454644
 30
0.0
 11
32.145760953
 21
-3.704860806
 31
0.0
  0
LINE
  5
19F
330
1D
100
AcDbEntity
  8
CUT
100
AcDbLine
 10
32.081283629
 20
-9.706135839
 30
0.0
 11
32.03054145
 21
-9.993922897
 31
0.0
  0
LINE
  5
1A0
330
1D
100
AcDbEntity
  8
CUT
100
AcDbLine
 10
32.207772136
 20
-9.600000456
 30
0.0
 11
32.499998808
 21
-9.600000456
 31
0.0
  0
LINE
  5
1A1
330
1D
100
AcDbEntity
  8
CUT
100
AcDbLine
 10
32.207772136
 20
-3.964382224
 30
0.0
 11
32.499998808
 21
-3.964382224
 31
0.0
  0
LINE
  5
1A2
330
1D
100
AcDbEntity
  8
1
100
AcDbLine
 10
25.915250182
 20
2.602597931
 30
0.0
 11
25.915585458
 21
2.60070595
 31
0.0
  0
LINE
  5
1A3
330
1D
100
AcDbEntity
  8
1
100
AcDbLine
 10
19.607891468
 20
4.734946887
 30
0.0
 11
19.300000742
 21
4.411356989
 31
0.0
  0
LINE
  5
1A4
330
1D
100
AcDbEntity
  8
2
  6
Continuous
370
    25
100
AcDbLine
 10
44.381725883
 20
-9.999999999
 30
0.0
 11
32.1
 21
-9.999999999
 31
0.0
  0
LINE
  5
1A5
330
1D
100
AcDbEntity
  8
2
  6
Continuous
370
    25
100
AcDbLine
 10
42.381725883
 20
-9.999999999
 30
0.0
 11
41.931725883
 21
-6.499999999
 31
0.0
  0
LINE
  5
1A6
330
1D
100
AcDbEntity
  8
2
  6
Continuous
370
    25
100
AcDbLine
 10
41.931725883
 20
-6.499999999
 30
0.0
 11
42.831725883
 21
-6.499999999
 31
0.0
  0
LINE
  5
1A7
330
1D
100
AcDbEntity
  8
2
  6
Continuous
370
    25
100
AcDbLine
 10
42.831725883
 20
-6.499999999
 30
0.0
 11
42.381725883
 21
-9.999999999
 31
0.0
  0
LINE
  5
1A8
330
1D
100
AcDbEntity
  8
2
  6
Continuous
370
    25
100
AcDbLine
 10
44.381725883
 20
9.999999999
 30
0.0
 11
32.1
 21
9.999999999
 31
0.0
  0
LINE
  5
1A9
330
1D
100
AcDbEntity
  8
2
  6
Continuous
370
    25
100
AcDbLine
 10
42.381725883
 20
9.999999999
 30
0.0
 11
42.831725883
 21
6.499999999
 31
0.0
  0
LINE
  5
1AA
330
1D
100
AcDbEntity
  8
2
  6
Continuous
370
    25
100
AcDbLine
 10
42.831725883
 20
6.499999999
 30
0.0
 11
41.931725883
 21
6.499999999
 31
0.0
  0
LINE
  5
1AB
330
1D
100
AcDbEntity
  8
2
  6
Continuous
370
    25
100
AcDbLine
 10
41.931725883
 20
6.499999999
 30
0.0
 11
42.381725883
 21
9.999999999
 31
0.0
  0
LINE
  5
1AC
330
1D
100
AcDbEntity
  8
2
  6
Continuous
370
    25
100
AcDbLine
 10
42.381725883
 20
-6.499999999
 30
0.0
 11
42.381725883
 21
6.499999999
 31
0.0
  0
TEXT
  5
1AD
330
1D
100
AcDbEntity
  8
2
  6
Continuous
370
    25
100
AcDbText
 10
40.881725883
 20
-5.98777526473024
 30
0.0
 40
3.5
  1
20
 50
90.0
  7
BMG_Text
100
AcDbText
  0
CIRCLE
  5
1AE
330
1D
100
AcDbEntity
  8
2
  6
Continuous
370
    25
100
AcDbCircle
 10
39.631725883
 20
-8.23777526473024
 30
0.0
 40
1.25
  0
LINE
  5
1AF
330
1D
100
AcDbEntity
  8
2
  6
Continuous
370
    25
100
AcDbLine
 10
40.881725883
 20
-9.48777526473024
 30
0.0
 11
38.381725883
 21
-6.98777526473024
 31
0.0
  0
TEXT
  5
1B0
330
1D
100
AcDbEntity
  8
2
  6
Continuous
370
    25
100
AcDbText
 10
40.881725883
 20
-0.3388840397920891
 30
0.0
 40
3.5
  1
-26
 50
90.0
  7
BMG_Text
100
AcDbText
  0
LINE
  5
257
330
1D
100
AcDbEntity
  8
1
100
AcDbLine
 10
26.14999935
 20
5.384325516
 30
0.0
 11
26.14999935
 21
8.610921490832073
 31
0.0
  0
LINE
  5
25E
330
1D
100
AcDbEntity
  8
1
100
AcDbLine
 10
26.619458571
 20
2.591844415
 30
0.0
 11
26.48333333625967
 21
2.577785319379277
 31
0.0
  0
LINE
  5
25F
330
1D
100
AcDbEntity
  8
1
100
AcDbLine
 10
26.48333333625967
 20
2.577785319379277
 30
0.0
 11
26.31534321190716
 21
2.652741507650268
 31
0.0
  0
LINE
  5
260
330
1D
100
AcDbEntity
  8
1
100
AcDbLine
 10
26.31534321190716
 20
2.652741507650268
 30
0.0
 11
26.304852217
 21
2.669694368
 31
0.0
  0
LINE
  5
261
330
1D
100
AcDbEntity
  8
1
100
AcDbLine
 10
32.1
 20
3.964382304
 30
0.0
 11
32.299999148
 21
3.617972136
 31
0.0
  0
LINE
  5
262
330
1D
100
AcDbEntity
  8
1
100
AcDbLine
 10
32.1
 20
3.964382304
 30
0.0
 11
32.1
 21
9.599999999
 31
0.0
  0
LINE
  5
263
330
1D
100
AcDbEntity
  8
1
100
AcDbLine
 10
32.1
 20
9.599999999
 30
0.0
 11
28.140824288
 21
9.308060631
 31
0.0
  0
LINE
  5
264
330
1D
100
AcDbEntity
  8
1
100
AcDbLine
 10
26.48054072893323
 20
9.015308358204884
 30
0.0
 11
28.140824288
 21
9.308060631
 31
0.0
  0
LINE
  5
266
330
1D
100
AcDbEntity
  8
CUT
100
AcDbLine
 10
32.03054072893323
 20
9.993923100204883
 30
0.0
 11
26.480540633
 21
9.015308693
 31
0.0
  0
ARC
  5
267
330
1D
100
AcDbEntity
  8
CUT
100
AcDbCircle
 10
26.55000074024317
 20
8.621384987573522
 30
0.0
 40
0.4000007402432644
100
AcDbArc
 50
100.0001029246622
 51
179.9999614075713
  0
LINE
  5
268
330
1D
100
AcDbEntity
  8
CUT
100
AcDbLine
 10
32.169457525
 20
3.570459317
 30
0.0
 11
26.61945927106677
 21
2.591844459795117
 31
0.0
  0
LINE
  5
269
330
1D
100
AcDbEntity
  8
CUT
100
AcDbLine
 10
26.15
 20
2.985767561
 30
0.0
 11
26.15
 21
8.621385257
 31
0.0
  0
CIRCLE
  5
26C
330
1D
100
AcDbEntity
  8
CUT
100
AcDbCircle
 10
29.194
 20
6.13688378
 30
0.0
 40
1.725
  0
LINE
  5
26F
330
1D
100
AcDbEntity
  8
NOCUT
100
AcDbLine
 10
0.0
 20
0.0
 30
0.0
 11
0.0
 21
8.999999613
 31
0.0
  0
LINE
  5
270
330
1D
100
AcDbEntity
  8
NOCUT
100
AcDbLine
 10
0.0
 20
8.999999613
 30
0.0
 11
0.500000024
 21
9.499999695
 31
0.0
  0
LINE
  5
271
330
1D
100
AcDbEntity
  8
NOCUT
100
AcDbLine
 10
0.500000024
 20
9.499999695
 30
0.0
 11
18.917467445
 21
9.499999695
 31
0.0
  0
LINE
  5
272
330
1D
100
AcDbEntity
  8
NOCUT
100
AcDbLine
 10
18.917467445
 20
9.499999695
 30
0.0
 11
18.917467445
 21
9.386836551
 31
0.0
  0
LINE
  5
273
330
1D
100
AcDbEntity
  8
NOCUT
100
AcDbLine
 10
18.917467445
 20
9.386836551
 30
0.0
 11
19.01177192660935
 21
9.357951314439493
 31
0.0
  0
LINE
  5
274
330
1D
100
AcDbEntity
  8
NOCUT
100
AcDbLine
 10
19.01177192660935
 20
9.357951314439493
 30
0.0
 11
19.200000912
 21
9.357951314439493
 31
0.0
  0
LINE
  5
275
330
1D
100
AcDbEntity
  8
NOCUT
100
AcDbLine
 10
19.200000912
 20
9.357951314439493
 30
0.0
 11
19.200000912
 21
9.399468079
 31
0.0
  0
LINE
  5
276
330
1D
100
AcDbEntity
  8
NOCUT
100
AcDbLine
 10
19.200000912
 20
9.399468079
 30
0.0
 11
19.300000742
 21
9.499999695
 31
0.0
  0
LINE
  5
277
330
1D
100
AcDbEntity
  8
NOCUT
100
AcDbLine
 10
19.300000742
 20
9.499999695
 30
0.0
 11
26.22777146949604
 21
9.499999695
 31
0.0
  0
LINE
  5
278
330
1D
100
AcDbEntity
  8
NOCUT
100
AcDbLine
 10
26.22777146949604
 20
9.499999695
 30
0.0
 11
26.22777146949604
 21
9.493516742729778
 31
0.0
  0
LINE
  5
279
330
1D
100
AcDbEntity
  8
NOCUT
100
AcDbLine
 10
26.22777146949604
 20
9.493516742729778
 30
0.0
 11
26.25658676942502
 21
9.486631163525164
 31
0.0
  0
LINE
  5
27A
330
1D
100
AcDbEntity
  8
NOCUT
100
AcDbLine
 10
26.25658676942502
 20
9.486631163525164
 30
0.0
 11
26.284443214
 21
9.474175051
 31
0.0
  0
LINE
  5
27B
330
1D
100
AcDbEntity
  8
NOCUT
100
AcDbLine
 10
26.284443214
 20
9.474175051
 30
0.0
 11
26.28444321483703
 21
9.327915497031475
 31
0.0
  0
LINE
  5
27C
330
1D
100
AcDbEntity
  8
NOCUT
100
AcDbLine
 10
26.28444321483703
 20
9.327915497031475
 30
0.0
 11
26.33286176776267
 21
9.310018630974605
 31
0.0
  0
LINE
  5
27D
330
1D
100
AcDbEntity
  8
NOCUT
100
AcDbLine
 10
26.33286176776267
 20
9.310018630974605
 30
0.0
 11
26.38497943985772
 21
9.310018630974605
 31
0.0
  0
LINE
  5
27E
330
1D
100
AcDbEntity
  8
NOCUT
100
AcDbLine
 10
26.38497943985772
 20
9.310018630974605
 30
0.0
 11
28.140824288
 21
9.308060631
 31
0.0
  0
ARC
  5
283
330
1D
100
AcDbEntity
  8
NOCUT
100
AcDbCircle
 10
34.60000432285863
 20
-0.5000047285467579
 30
0.0
 40
4.000006354320442
100
AcDbArc
 50
125.0996439097787
 51
154.435849271593
  0
LINE
  5
284
330
1D
100
AcDbEntity
  8
NOCUT
100
AcDbLine
 10
32.299999148
 20
3.617972136000001
 30
0.0
 11
32.299999148
 21
2.772613661
 31
0.0
  0
LINE
  5
285
330
1D
100
AcDbEntity
  8
NOCUT
100
AcDbLine
 10
30.99158822856124
 20
1.226083569165229
 30
0.0
 11
28.8679488
 21
0.0
 31
0.0
  0
LINE
  5
286
330
1D
100
AcDbEntity
  8
NOCUT
100
AcDbLine
 10
28.8679488
 20
0.0
 30
0.0
 11
0.0
 21
0.0
 31
0.0
  0
LWPOLYLINE
  5
28D
330
1D
100
AcDbEntity
  8
INFTOTAL
100
AcDbPolyline
 90
        4
 70
     1
 43
0.0
 10
59.66832422363061
 20
35.10891064828773
 10
59.66832422363061
 20
-33.03664359186923
 10
-46.5251644672806
 20
-33.03664359186923
 10
-46.5251644672806
 20
35.10891064828773
  0
LINE
  5
297
330
1D
100
AcDbEntity
  8
SK4
100
AcDbLine
 10
-14.999996213
 20
0.0
 30
0.0
 11
0.0
 21
0.0
 31
0.0
  0
LINE
  5
29B
330
1D
100
AcDbEntity
  8
SK3
100
AcDbLine
 10
-12.999990152
 20
2.999961853
 30
0.0
 11
0.0
 21
2.999961853
 31
0.0
  0
LINE
  5
29C
330
1D
100
AcDbEntity
  8
SK3
100
AcDbLine
 10
-12.999996213
 20
-3.000038147
 30
0.0
 11
0.0
 21
-3.000038147
 31
0.0
  0
LINE
  5
2C3
330
1D
100
AcDbEntity
  8
NOCUT
100
AcDbLine
 10
32.299999148
 20
3.617972136000001
 30
0.0
 11
32.1
 21
3.964382304
 31
0.0
  0
LINE
  5
2C4
330
1D
100
AcDbEntity
  8
NOCUT
100
AcDbLine
 10
32.1
 20
3.964382304
 30
0.0
 11
32.1
 21
9.599999999
 31
0.0
  0
LINE
  5
2C5
330
1D
100
AcDbEntity
  8
NOCUT
100
AcDbLine
 10
32.1
 20
9.599999999
 30
0.0
 11
28.140824288
 21
9.308060631
 31
0.0
  0
ENDSEC
  0
SECTION
  2
OBJECTS
  0
DICTIONARY
  5
C
330
0
100
AcDbDictionary
281
     1
  3
ACAD_DETAILVIEWSTYLE
350
28B
  3
ACAD_GROUP
350
D
  3
ACAD_LAYOUT
350
1A
  3
ACAD_MATERIAL
350
1EF
  3
ACAD_MLEADERSTYLE
350
1FD
  3
ACAD_MLINESTYLE
350
17
  3
ACAD_PLOTSETTINGS
350
19
  3
ACAD_PLOTSTYLENAME
350
E
  3
ACAD_SCALELIST
350
1B8
  3
ACAD_SECTIONVIEWSTYLE
350
28C
  3
ACAD_TABLESTYLE
350
246
  3
ACAD_VISUALSTYLE
350
1DE
  3
ACDB_RECOMPOSE_DATA
350
311
  3
AcDbVariableDictionary
350
1FB
  3
APPDATA
350
249
  0
SUN
  5
295
330
1B1
100
AcDbSun
 90
        1
290
     0
 63
     7
421
 16777215
 40
1.0
291
     1
 91
  2455826
 92
 54000000
292
     0
 70
     2
 71
   256
280
     1
  0
DICTIONARY
  5
24A
330
2
100
AcDbDictionary
280
     1
281
     1
  3
ACAD_LAYERSTATES
360
24B
  0
DICTIONARY
  5
28B
102
{ACAD_REACTORS
330
C
102
}
330
C
100
AcDbDictionary
281
     1
  0
DICTIONARY
  5
D
102
{ACAD_REACTORS
330
C
102
}
330
C
100
AcDbDictionary
281
     1
  0
DICTIONARY
  5
1A
102
{ACAD_REACTORS
330
C
102
}
330
C
100
AcDbDictionary
281
     1
  3
Layout1
350
1C
  3
Model
350
1E
  0
DICTIONARY
  5
1EF
102
{ACAD_REACTORS
330
C
102
}
330
C
100
AcDbDictionary
281
     1
  3
ByBlock
350
1F1
  3
ByLayer
350
1F0
  3
Global
350
1F2
  0
DICTIONARY
  5
1FD
102
{ACAD_REACTORS
330
C
102
}
330
C
100
AcDbDictionary
281
     1
  3
Standard
350
248
  0
DICTIONARY
  5
17
102
{ACAD_REACTORS
330
C
102
}
330
C
100
AcDbDictionary
281
     1
  3
Standard
350
18
  0
DICTIONARY
  5
19
102
{ACAD_REACTORS
330
C
102
}
330
C
100
AcDbDictionary
281
     1
  0
ACDBDICTIONARYWDFLT
  5
E
102
{ACAD_REACTORS
330
C
102
}
330
C
100
AcDbDictionary
281
     1
  3
Normal
350
F
100
AcDbDictionaryWithDefault
340
F
  0
DICTIONARY
  5
1B8
102
{ACAD_REACTORS
330
C
102
}
330
C
100
AcDbDictionary
281
     1
  3
A0
350
1B9
  3
A1
350
1BA
  3
A2
350
1BB
  3
A3
350
1BC
  3
A4
350
1BD
  3
A5
350
1BE
  3
A6
350
1BF
  3
A7
350
1C0
  3
A8
350
1C1
  3
A9
350
1C2
  3
B0
350
1C3
  3
B1
350
1C4
  3
B2
350
1C5
  3
B3
350
1C6
  3
B4
350
1C7
  3
B5
350
1C8
  3
B6
350
1C9
  3
B7
350
1CA
  3
B8
350
1CB
  3
B9
350
1CC
  3
C0
350
1CD
  3
C1
350
1CE
  3
C2
350
1CF
  3
C3
350
1D0
  3
C4
350
1D1
  3
C5
350
1D2
  3
C6
350
1D3
  3
C7
350
1D4
  3
C8
350
1D5
  3
C9
350
1D6
  3
D0
350
1D7
  3
D1
350
1D8
  3
D2
350
1D9
  0
DICTIONARY
  5
28C
102
{ACAD_REACTORS
330
C
102
}
330
C
100
AcDbDictionary
281
     1
  0
DICTIONARY
  5
246
102
{ACAD_REACTORS
330
C
102
}
330
C
100
AcDbDictionary
281
     1
  3
Standard
350
247
  0
DICTIONARY
  5
1DE
102
{ACAD_REACTORS
330
C
102
}
330
C
100
AcDbDictionary
281
     1
  3
2dWireframe
350
1E3
  3
3D Hidden
350
1E5
  3
3dWireframe
350
1E4
  3
Basic
350
1E6
  3
Brighten
350
1EA
  3
ColorChange
350
1EE
  3
Conceptual
350
1E8
  3
Dim
350
1E9
  3
EdgeColorOff
350
240
  3
Facepattern
350
1ED
  3
Flat
350
1DF
  3
FlatWithEdges
350
1E0
  3
Gouraud
350
1E1
  3
GouraudWithEdges
350
1E2
  3
Hidden
350
23D
  3
JitterOff
350
23E
  3
Linepattern
350
1EC
  3
OverhangOff
350
23F
  3
Realistic
350
1E7
  3
Shaded
350
245
  3
Shaded with edges
350
244
  3
Shades of Gray
350
241
  3
Sketchy
350
242
  3
Thicken
350
1EB
  3
Wireframe
350
23C
  3
X-Ray
350
243
  0
XRECORD
  5
311
102
{ACAD_REACTORS
330
C
102
}
330
C
100
AcDbXrecord
280
     1
 90
        1
330
247
  0
DICTIONARY
  5
1FB
102
{ACAD_REACTORS
330
C
102
}
330
C
100
AcDbDictionary
281
     1
  3
CANNOSCALE
350
288
  3
CMLEADERSTYLE
350
28A
  3
CTABLESTYLE
350
289
  3
DIMASSOC
350
1FF
  3
HIDETEXT
350
200
  3
MSLTSCALE
350
1FE
  0
DICTIONARY
  5
249
102
{ACAD_REACTORS
330
C
102
}
330
C
100
AcDbDictionary
281
     1
  0
DICTIONARY
  5
24B
102
{ACAD_REACTORS
330
24A
102
}
330
24A
100
AcDbDictionary
281
     1
  0
LAYOUT
  5
1C
102
{ACAD_REACTORS
330
1A
102
}
330
1A
100
AcDbPlotSettings
  1

  2
none_device
  4

  6

 40
0.0
 41
0.0
 42
0.0
 43
0.0
 44
0.0
 45
0.0
 46
0.0
 47
0.0
 48
0.0
 49
0.0
140
0.0
141
0.0
142
1.0
143
1.0
 70
   688
 72
     0
 73
     0
 74
     5
  7

 75
    16
 76
     0
 77
     2
 78
   300
147
1.0
148
0.0
149
0.0
100
AcDbLayout
  1
Layout1
 70
     1
 71
     1
 10
0.0
 20
0.0
 11
12.0
 21
9.0
 12
0.0
 22
0.0
 32
0.0
 14
1.000000000000000E+20
 24
1.000000000000000E+20
 34
1.000000000000000E+20
 15
-1.000000000000000E+20
 25
-1.000000000000000E+20
 35
-1.000000000000000E+20
146
0.0
 13
0.0
 23
0.0
 33
0.0
 16
1.0
 26
0.0
 36
0.0
 17
0.0
 27
1.0
 37
0.0
 76
     0
330
1B
  0
LAYOUT
  5
1E
102
{ACAD_REACTORS
330
1A
102
}
330
1A
100
AcDbPlotSettings
  1

  2
none_device
  4

  6

 40
0.0
 41
0.0
 42
0.0
 43
0.0
 44
0.0
 45
0.0
 46
0.0
 47
0.0
 48
0.0
 49
0.0
140
0.0
141
0.0
142
1.0
143
1.0
 70
  1712
 72
     0
 73
     0
 74
     0
  7

 75
     0
 76
     0
 77
     2
 78
   300
147
1.0
148
0.0
149
0.0
100
AcDbLayout
  1
Model
 70
     1
 71
     0
 10
0.0
 20
0.0
 11
12.0
 21
9.0
 12
0.0
 22
0.0
 32
0.0
 14
-46.5251644672806
 24
-33.03664359186923
 34
0.0
 15
59.66832422363061
 25
35.10891064828773
 35
0.0
146
0.0
 13
0.0
 23
0.0
 33
0.0
 16
1.0
 26
0.0
 36
0.0
 17
0.0
 27
1.0
 37
0.0
 76
     0
330
1D
331
1B1
  0
MATERIAL
  5
1F1
102
{ACAD_REACTORS
330
1EF
102
}
330
1EF
100
AcDbMaterial
  1
ByBlock
 72
     1
 94
      127
  0
MATERIAL
  5
1F0
102
{ACAD_REACTORS
330
1EF
102
}
330
1EF
100
AcDbMaterial
  1
ByLayer
 72
     1
 94
      127
  0
MATERIAL
  5
1F2
102
{ACAD_REACTORS
330
1EF
102
}
330
1EF
100
AcDbMaterial
  1
Global
 72
     1
 94
      127
  0
MLEADERSTYLE
  5
248
102
{ACAD_REACTORS
330
1FD
102
}
330
1FD
100
AcDbMLeaderStyle
179
     2
170
     2
171
     1
172
     0
 90
        2
 40
0.0
 41
0.0
173
     1
 91
-1056964608
340
14
 92
       -2
290
     1
 42
0.09
291
     1
 43
0.36
  3
Standard
341
0
 44
0.18
300

342
11
174
     1
178
     1
175
     1
176
     0
 93
-1056964608
 45
0.18
292
     0
297
     0
 46
0.18
343
0
 94
-1056964608
 47
1.0
 49
1.0
140
1.0
293
     1
141
0.0
294
     1
177
     0
142
1.0
295
     0
296
     0
143
0.125
271
     0
272
     9
273
     9
298
     0
  0
MLINESTYLE
  5
18
102
{ACAD_REACTORS
330
17
102
}
330
17
100
AcDbMlineStyle
  2
Standard
 70
     0
  3

 62
   256
 51
90.0
 52
90.0
 71
     2
 49
0.5
 62
   256
  6
BYLAYER
 49
-0.5
 62
   256
  6
BYLAYER
  0
ACDBPLACEHOLDER
  5
F
102
{ACAD_REACTORS
330
E
102
}
330
E
  0
SCALE
  5
1B9
102
{ACAD_REACTORS
330
1B8
102
}
330
1B8
100
AcDbScale
 70
     0
300
1:1
140
1.0
141
1.0
290
     1
  0
SCALE
  5
1BA
102
{ACAD_REACTORS
330
1B8
102
}
330
1B8
100
AcDbScale
 70
     0
300
1:2
140
1.0
141
2.0
290
     0
  0
SCALE
  5
1BB
102
{ACAD_REACTORS
330
1B8
102
}
330
1B8
100
AcDbScale
 70
     0
300
1:4
140
1.0
141
4.0
290
     0
  0
SCALE
  5
1BC
102
{ACAD_REACTORS
330
1B8
102
}
330
1B8
100
AcDbScale
 70
     0
300
1:5
140
1.0
141
5.0
290
     0
  0
SCALE
  5
1BD
102
{ACAD_REACTORS
330
1B8
102
}
330
1B8
100
AcDbScale
 70
     0
300
1:8
140
1.0
141
8.0
290
     0
  0
SCALE
  5
1BE
102
{ACAD_REACTORS
330
1B8
102
}
330
1B8
100
AcDbScale
 70
     0
300
1:10
140
1.0
141
10.0
290
     0
  0
SCALE
  5
1BF
102
{ACAD_REACTORS
330
1B8
102
}
330
1B8
100
AcDbScale
 70
     0
300
1:16
140
1.0
141
16.0
290
     0
  0
SCALE
  5
1C0
102
{ACAD_REACTORS
330
1B8
102
}
330
1B8
100
AcDbScale
 70
     0
300
1:20
140
1.0
141
20.0
290
     0
  0
SCALE
  5
1C1
102
{ACAD_REACTORS
330
1B8
102
}
330
1B8
100
AcDbScale
 70
     0
300
1:30
140
1.0
141
30.0
290
     0
  0
SCALE
  5
1C2
102
{ACAD_REACTORS
330
1B8
102
}
330
1B8
100
AcDbScale
 70
     0
300
1:40
140
1.0
141
40.0
290
     0
  0
SCALE
  5
1C3
102
{ACAD_REACTORS
330
1B8
102
}
330
1B8
100
AcDbScale
 70
     0
300
1:50
140
1.0
141
50.0
290
     0
  0
SCALE
  5
1C4
102
{ACAD_REACTORS
330
1B8
102
}
330
1B8
100
AcDbScale
 70
     0
300
1:100
140
1.0
141
100.0
290
     0
  0
SCALE
  5
1C5
102
{ACAD_REACTORS
330
1B8
102
}
330
1B8
100
AcDbScale
 70
     0
300
2:1
140
2.0
141
1.0
290
     0
  0
SCALE
  5
1C6
102
{ACAD_REACTORS
330
1B8
102
}
330
1B8
100
AcDbScale
 70
     0
300
4:1
140
4.0
141
1.0
290
     0
  0
SCALE
  5
1C7
102
{ACAD_REACTORS
330
1B8
102
}
330
1B8
100
AcDbScale
 70
     0
300
8:1
140
8.0
141
1.0
290
     0
  0
SCALE
  5
1C8
102
{ACAD_REACTORS
330
1B8
102
}
330
1B8
100
AcDbScale
 70
     0
300
10:1
140
10.0
141
1.0
290
     0
  0
SCALE
  5
1C9
102
{ACAD_REACTORS
330
1B8
102
}
330
1B8
100
AcDbScale
 70
     0
300
100:1
140
100.0
141
1.0
290
     0
  0
SCALE
  5
1CA
102
{ACAD_REACTORS
330
1B8
102
}
330
1B8
100
AcDbScale
 70
     0
300
1/128" = 1'-0"
140
0.0078125
141
12.0
290
     0
  0
SCALE
  5
1CB
102
{ACAD_REACTORS
330
1B8
102
}
330
1B8
100
AcDbScale
 70
     0
300
1/64" = 1'-0"
140
0.015625
141
12.0
290
     0
  0
SCALE
  5
1CC
102
{ACAD_REACTORS
330
1B8
102
}
330
1B8
100
AcDbScale
 70
     0
300
1/32" = 1'-0"
140
0.03125
141
12.0
290
     0
  0
SCALE
  5
1CD
102
{ACAD_REACTORS
330
1B8
102
}
330
1B8
100
AcDbScale
 70
     0
300
1/16" = 1'-0"
140
0.0625
141
12.0
290
     0
  0
SCALE
  5
1CE
102
{ACAD_REACTORS
330
1B8
102
}
330
1B8
100
AcDbScale
 70
     0
300
3/32" = 1'-0"
140
0.09375
141
12.0
290
     0
  0
SCALE
  5
1CF
102
{ACAD_REACTORS
330
1B8
102
}
330
1B8
100
AcDbScale
 70
     0
300
1/8" = 1'-0"
140
0.125
141
12.0
290
     0
  0
SCALE
  5
1D0
102
{ACAD_REACTORS
330
1B8
102
}
330
1B8
100
AcDbScale
 70
     0
300
3/16" = 1'-0"
140
0.1875
141
12.0
290
     0
  0
SCALE
  5
1D1
102
{ACAD_REACTORS
330
1B8
102
}
330
1B8
100
AcDbScale
 70
     0
300
1/4" = 1'-0"
140
0.25
141
12.0
290
     0
  0
SCALE
  5
1D2
102
{ACAD_REACTORS
330
1B8
102
}
330
1B8
100
AcDbScale
 70
     0
300
3/8" = 1'-0"
140
0.375
141
12.0
290
     0
  0
SCALE
  5
1D3
102
{ACAD_REACTORS
330
1B8
102
}
330
1B8
100
AcDbScale
 70
     0
300
1/2" = 1'-0"
140
0.5
141
12.0
290
     0
  0
SCALE
  5
1D4
102
{ACAD_REACTORS
330
1B8
102
}
330
1B8
100
AcDbScale
 70
     0
300
3/4" = 1'-0"
140
0.75
141
12.0
290
     0
  0
SCALE
  5
1D5
102
{ACAD_REACTORS
330
1B8
102
}
330
1B8
100
AcDbScale
 70
     0
300
1" = 1'-0"
140
1.0
141
12.0
290
     0
  0
SCALE
  5
1D6
102
{ACAD_REACTORS
330
1B8
102
}
330
1B8
100
AcDbScale
 70
     0
300
1-1/2" = 1'-0"
140
1.5
141
12.0
290
     0
  0
SCALE
  5
1D7
102
{ACAD_REACTORS
330
1B8
102
}
330
1B8
100
AcDbScale
 70
     0
300
3" = 1'-0"
140
3.0
141
12.0
290
     0
  0
SCALE
  5
1D8
102
{ACAD_REACTORS
330
1B8
102
}
330
1B8
100
AcDbScale
 70
     0
300
6" = 1'-0"
140
6.0
141
12.0
290
     0
  0
SCALE
  5
1D9
102
{ACAD_REACTORS
330
1B8
102
}
330
1B8
100
AcDbScale
 70
     0
300
1'-0" = 1'-0"
140
12.0
141
12.0
290
     0
  0
TABLESTYLE
  5
247
102
{ACAD_REACTORS
330
246
102
}
102
{ACAD_XDICTIONARY
360
30F
102
}
330
246
100
AcDbTableStyle
  3
Standard
 70
     0
 71
     0
 40
0.06
 41
0.06
280
     0
281
     0
  7
Standard
140
0.18
170
     2
 62
     0
 63
   257
283
     0
 90
        4
 91
        0
  1

274
    -2
284
     1
 64
     0
275
    -2
285
     1
 65
     0
276
    -2
286
     1
 66
     0
277
    -2
287
     1
 67
     0
278
    -2
288
     1
 68
     0
279
    -2
289
     1
 69
     0
  7
Standard
140
0.25
170
     5
 62
     0
 63
   257
283
     0
 90
        4
 91
        0
  1

274
    -2
284
     1
 64
     0
275
    -2
285
     1
 65
     0
276
    -2
286
     1
 66
     0
277
    -2
287
     1
 67
     0
278
    -2
288
     1
 68
     0
279
    -2
289
     1
 69
     0
  7
Standard
140
0.18
170
     5
 62
     0
 63
   257
283
     0
 90
        4
 91
        0
  1

274
    -2
284
     1
 64
     0
275
    -2
285
     1
 65
     0
276
    -2
286
     1
 66
     0
277
    -2
287
     1
 67
     0
278
    -2
288
     1
 68
     0
279
    -2
289
     1
 69
     0
  0
VISUALSTYLE
  5
1E3
102
{ACAD_REACTORS
330
1DE
102
}
330
1DE
100
AcDbVisualStyle
  2
2dWireframe
 70
     4
177
     3
291
     0
 70
    58
 90
        0
176
     1
 90
        2
176
     1
 90
        0
176
     1
 90
        0
176
     1
 40
-0.6
176
     1
 40
-30.0
176
     1
 62
     7
176
     1
 90
        1
176
     1
 90
        4
176
     1
 62
     7
176
     1
 62
   257
176
     1
 90
        1
176
     1
 90
        1
176
     1
 40
1.0
176
     1
 90
        0
176
     1
 62
   257
176
     1
 40
1.0
176
     1
 90
        1
176
     1
 90
        6
176
     1
 90
        2
176
     1
 62
     7
176
     1
 90
        5
176
     1
 90
        0
176
     1
 90
        0
176
     1
290
     0
176
     1
 90
        1
176
     1
 40
0.0
176
     1
 90
        0
176
     1
290
     1
176
     1
290
     1
176
     1
290
     0
176
     1
290
     0
176
     1
290
     0
176
     1
290
     0
176
     1
290
     0
176
     1
290
     0
176
     1
290
     0
176
     1
 90
       50
176
     1
 40
0.0
176
     1
 40
1.0
176
     1
 90
        0
176
     1
 62
    18
420
        0
176
     1
 90
       50
176
     1
 90
        3
176
     1
 62
     5
420
      255
176
     1
290
     0
176
     1
 90
       50
176
     1
 90
       50
176
     1
 90
       50
176
     1
290
     0
176
     1
 90
       50
176
     1
 62
   256
176
     0
 40
1.0
176
     0
 90
        2
176
     1
  1
strokes_ogs.tif
176
     1
290
     0
176
     1
 40
1.0
176
     1
 40
1.0
176
     1
  0
VISUALSTYLE
  5
1E5
102
{ACAD_REACTORS
330
1DE
102
}
330
1DE
100
AcDbVisualStyle
  2
3D Hidden
 70
     6
177
     3
291
     0
 70
    58
 90
        1
176
     1
 90
        2
176
     1
 90
        2
176
     1
 90
        0
176
     1
 40
-0.6
176
     1
 40
-30.0
176
     1
 62
     7
176
     1
 90
        2
176
     1
 90
        2
176
     1
 62
     7
176
     1
 62
   257
176
     1
 90
        2
176
     1
 90
        1
176
     1
 40
40.0
176
     1
 90
        0
176
     1
 62
   257
176
     1
 40
1.0
176
     1
 90
        1
176
     1
 90
        6
176
     1
 90
        2
176
     1
 62
     7
176
     1
 90
        3
176
     1
 90
        0
176
     1
 90
        0
176
     1
290
     0
176
     1
 90
        1
176
     1
 40
0.0
176
     1
 90
        0
176
     1
290
     0
176
     1
290
     1
176
     1
290
     1
176
     1
290
     0
176
     1
290
     0
176
     1
290
     0
176
     1
290
     0
176
     1
290
     0
176
     1
290
     0
176
     1
 90
       50
176
     1
 40
0.0
176
     1
 40
1.0
176
     1
 90
        0
176
     1
 62
    18
420
        0
176
     1
 90
       50
176
     1
 90
        3
176
     1
 62
     5
420
      255
176
     1
290
     0
176
     1
 90
       50
176
     1
 90
       50
176
     1
 90
       50
176
     1
290
     0
176
     1
 90
       50
176
     1
 62
   256
176
     0
 40
1.0
176
     0
 90
        2
176
     1
  1
strokes_ogs.tif
176
     1
290
     0
176
     1
 40
1.0
176
     1
 40
1.0
176
     1
  0
VISUALSTYLE
  5
1E4
102
{ACAD_REACTORS
330
1DE
102
}
330
1DE
100
AcDbVisualStyle
  2
3dWireframe
 70
     5
177
     3
291
     0
 70
    58
 90
        0
176
     1
 90
        2
176
     1
 90
        0
176
     1
 90
        0
176
     1
 40
-0.6
176
     1
 40
-30.0
176
     1
 62
     7
176
     1
 90
        1
176
     1
 90
        4
176
     1
 62
     7
176
     1
 62
   257
176
     1
 90
        1
176
     1
 90
        1
176
     1
 40
1.0
176
     1
 90
        0
176
     1
 62
   257
176
     1
 40
1.0
176
     1
 90
        1
176
     1
 90
        6
176
     1
 90
        2
176
     1
 62
     7
176
     1
 90
        5
176
     1
 90
        0
176
     1
 90
        0
176
     1
290
     0
176
     1
 90
        1
176
     1
 40
0.0
176
     1
 90
        0
176
     1
290
     0
176
     1
290
     1
176
     1
290
     1
176
     1
290
     0
176
     1
290
     0
176
     1
290
     0
176
     1
290
     0
176
     1
290
     0
176
     1
290
     0
176
     1
 90
       50
176
     1
 40
0.0
176
     1
 40
1.0
176
     1
 90
        0
176
     1
 62
    18
420
        0
176
     1
 90
       50
176
     1
 90
        3
176
     1
 62
     5
420
      255
176
     1
290
     0
176
     1
 90
       50
176
     1
 90
       50
176
     1
 90
       50
176
     1
290
     0
176
     1
 90
       50
176
     1
 62
   256
176
     0
 40
1.0
176
     0
 90
        2
176
     1
  1
strokes_ogs.tif
176
     1
290
     0
176
     1
 40
1.0
176
     1
 40
1.0
176
     1
  0
VISUALSTYLE
  5
1E6
102
{ACAD_REACTORS
330
1DE
102
}
330
1DE
100
AcDbVisualStyle
  2
Basic
 70
     7
177
     3
291
     1
 70
    58
 90
        1
176
     1
 90
        0
176
     1
 90
        1
176
     1
 90
        0
176
     1
 40
-0.6
176
     1
 40
-30.0
176
     1
 62
     7
176
     1
 90
        0
176
     1
 90
        4
176
     1
 62
     7
176
     1
 62
   257
176
     1
 90
        1
176
     1
 90
        1
176
     1
 40
1.0
176
     1
 90
        8
176
     1
 62
     7
176
     1
 40
1.0
176
     1
 90
        1
176
     1
 90
        6
176
     1
 90
        2
176
     1
 62
     7
176
     1
 90
        5
176
     1
 90
        0
176
     1
 90
        0
176
     1
290
     0
176
     1
 90
        1
176
     1
 40
0.0
176
     1
 90
        0
176
     1
290
     0
176
     1
290
     1
176
     1
290
     1
176
     1
290
     0
176
     1
290
     0
176
     1
290
     0
176
     1
290
     0
176
     1
290
     0
176
     1
290
     0
176
     1
 90
       50
176
     1
 40
0.0
176
     1
 40
1.0
176
     1
 90
        0
176
     1
 62
    18
420
        0
176
     1
 90
       50
176
     1
 90
        3
176
     1
 62
     5
420
      255
176
     1
290
     0
176
     1
 90
       50
176
     1
 90
       50
176
     1
 90
       50
176
     1
290
     0
176
     1
 90
       50
176
     1
 62
   256
176
     0
 40
1.0
176
     0
 90
        2
176
     1
  1
strokes_ogs.tif
176
     1
290
     0
176
     1
 40
1.0
176
     1
 40
1.0
176
     1
  0
VISUALSTYLE
  5
1EA
102
{ACAD_REACTORS
330
1DE
102
}
330
1DE
100
AcDbVisualStyle
  2
Brighten
 70
    12
177
     3
291
     1
 70
    58
 90
        2
176
     1
 90
        2
176
     1
 90
        0
176
     1
 90
        0
176
     1
 40
-0.6
176
     1
 40
-30.0
176
     1
 62
     7
176
     1
 90
        1
176
     1
 90
        4
176
     1
 62
     7
176
     1
 62
   257
176
     1
 90
        1
176
     1
 90
        1
176
     1
 40
1.0
176
     1
 90
        8
176
     1
 62
     7
176
     1
 40
1.0
176
     1
 90
        1
176
     1
 90
        6
176
     1
 90
        2
176
     1
 62
     7
176
     1
 90
        5
176
     1
 90
        0
176
     1
 90
        0
176
     1
290
     0
176
     1
 90
        1
176
     1
 40
50.0
176
     1
 90
        0
176
     1
290
     0
176
     1
290
     1
176
     1
290
     1
176
     1
290
     0
176
     1
290
     0
176
     1
290
     0
176
     1
290
     0
176
     1
290
     0
176
     1
290
     0
176
     1
 90
       50
176
     1
 40
0.0
176
     1
 40
1.0
176
     1
 90
        0
176
     1
 62
    18
420
        0
176
     1
 90
       50
176
     1
 90
        3
176
     1
 62
     5
420
      255
176
     1
290
     0
176
     1
 90
       50
176
     1
 90
       50
176
     1
 90
       50
176
     1
290
     0
176
     1
 90
       50
176
     1
 62
   256
176
     0
 40
1.0
176
     0
 90
        2
176
     1
  1
strokes_ogs.tif
176
     1
290
     0
176
     1
 40
1.0
176
     1
 40
1.0
176
     1
  0
VISUALSTYLE
  5
1EE
102
{ACAD_REACTORS
330
1DE
102
}
330
1DE
100
AcDbVisualStyle
  2
ColorChange
 70
    16
177
     3
291
     1
 70
    58
 90
        2
176
     1
 90
        2
176
     1
 90
        3
176
     1
 90
        0
176
     1
 40
-0.6
176
     1
 40
-30.0
176
     1
 62
     8
176
     1
 90
        1
176
     1
 90
        4
176
     1
 62
     7
176
     1
 62
   257
176
     1
 90
        1
176
     1
 90
        1
176
     1
 40
1.0
176
     1
 90
        8
176
     1
 62
     8
176
     1
 40
1.0
176
     1
 90
        1
176
     1
 90
        6
176
     1
 90
        2
176
     1
 62
     7
176
     1
 90
        5
176
     1
 90
        0
176
     1
 90
        0
176
     1
290
     0
176
     1
 90
        1
176
     1
 40
0.0
176
     1
 90
        0
176
     1
290
     0
176
     1
290
     1
176
     1
290
     1
176
     1
290
     0
176
     1
290
     0
176
     1
290
     0
176
     1
290
     0
176
     1
290
     0
176
     1
290
     0
176
     1
 90
       50
176
     1
 40
0.0
176
     1
 40
1.0
176
     1
 90
        0
176
     1
 62
    18
420
        0
176
     1
 90
       50
176
     1
 90
        3
176
     1
 62
     5
420
      255
176
     1
290
     0
176
     1
 90
       50
176
     1
 90
       50
176
     1
 90
       50
176
     1
290
     0
176
     1
 90
       50
176
     1
 62
   256
176
     0
 40
1.0
176
     0
 90
        2
176
     1
  1
strokes_ogs.tif
176
     1
290
     0
176
     1
 40
1.0
176
     1
 40
1.0
176
     1
  0
VISUALSTYLE
  5
1E8
102
{ACAD_REACTORS
330
1DE
102
}
330
1DE
100
AcDbVisualStyle
  2
Conceptual
 70
     9
177
     3
291
     0
 70
    58
 90
        3
176
     1
 90
        2
176
     1
 90
        0
176
     1
 90
        0
176
     1
 40
-0.6
176
     1
 40
-30.0
176
     1
 62
     7
176
     1
 90
        2
176
     1
 90
        2
176
     1
 62
     7
176
     1
 62
   257
176
     1
 90
        1
176
     1
 90
        1
176
     1
 40
40.0
176
     1
 90
        8
176
     1
 62
     7
176
     1
 40
1.0
176
     1
 90
        1
176
     1
 90
        6
176
     1
 90
        2
176
     1
 62
     7
176
     1
 90
        3
176
     1
 90
        0
176
     1
 90
        0
176
     1
290
     0
176
     1
 90
        1
176
     1
 40
0.0
176
     1
 90
        0
176
     1
290
     0
176
     1
290
     1
176
     1
290
     1
176
     1
290
     0
176
     1
290
     0
176
     1
290
     0
176
     1
290
     0
176
     1
290
     0
176
     1
290
     0
176
     1
 90
       50
176
     1
 40
0.0
176
     1
 40
1.0
176
     1
 90
        0
176
     1
 62
    18
420
        0
176
     1
 90
       50
176
     1
 90
        3
176
     1
 62
     5
420
      255
176
     1
290
     0
176
     1
 90
       50
176
     1
 90
       50
176
     1
 90
       50
176
     1
290
     0
176
     1
 90
       50
176
     1
 62
   256
176
     0
 40
1.0
176
     0
 90
        2
176
     1
  1
strokes_ogs.tif
176
     1
290
     0
176
     1
 40
1.0
176
     1
 40
1.0
176
     1
  0
VISUALSTYLE
  5
1E9
102
{ACAD_REACTORS
330
1DE
102
}
330
1DE
100
AcDbVisualStyle
  2
Dim
 70
    11
177
     3
291
     1
 70
    58
 90
        2
176
     1
 90
        2
176
     1
 90
        0
176
     1
 90
        0
176
     1
 40
-0.6
176
     1
 40
-30.0
176
     1
 62
     7
176
     1
 90
        1
176
     1
 90
        4
176
     1
 62
     7
176
     1
 62
   257
176
     1
 90
        1
176
     1
 90
        1
176
     1
 40
1.0
176
     1
 90
        8
176
     1
 62
     7
176
     1
 40
1.0
176
     1
 90
        1
176
     1
 90
        6
176
     1
 90
        2
176
     1
 62
     7
176
     1
 90
        5
176
     1
 90
        0
176
     1
 90
        0
176
     1
290
     0
176
     1
 90
        1
176
     1
 40
-50.0
176
     1
 90
        0
176
     1
290
     0
176
     1
290
     1
176
     1
290
     1
176
     1
290
     0
176
     1
290
     0
176
     1
290
     0
176
     1
290
     0
176
     1
290
     0
176
     1
290
     0
176
     1
 90
       50
176
     1
 40
0.0
176
     1
 40
1.0
176
     1
 90
        0
176
     1
 62
    18
420
        0
176
     1
 90
       50
176
     1
 90
        3
176
     1
 62
     5
420
      255
176
     1
290
     0
176
     1
 90
       50
176
     1
 90
       50
176
     1
 90
       50
176
     1
290
     0
176
     1
 90
       50
176
     1
 62
   256
176
     0
 40
1.0
176
     0
 90
        2
176
     1
  1
strokes_ogs.tif
176
     1
290
     0
176
     1
 40
1.0
176
     1
 40
1.0
176
     1
  0
VISUALSTYLE
  5
240
102
{ACAD_REACTORS
330
1DE
102
}
330
1DE
100
AcDbVisualStyle
  2
EdgeColorOff
 70
    22
177
     3
291
     1
 70
    58
 90
        2
176
     0
 90
        2
176
     0
 90
        0
176
     0
 90
        0
176
     0
 40
0.6
176
     0
 40
30.0
176
     0
 62
     7
420
 16777215
176
     0
 90
        1
176
     0
 90
        4
176
     0
 62
     7
176
     0
 62
   257
176
     0
 90
        1
176
     0
 90
        1
176
     0
 40
1.0
176
     0
 90
        8
176
     2
 62
     7
176
     0
 40
1.0
176
     0
 90
        1
176
     0
 90
        6
176
     0
 90
        2
176
     0
 62
     7
176
     0
 90
        5
176
     0
 90
        0
176
     0
 90
        0
176
     0
290
     0
176
     0
 90
        1
176
     0
 40
0.0
176
     0
 90
        0
176
     0
290
     0
176
     0
290
     1
176
     0
290
     1
176
     0
290
     0
176
     0
290
     0
176
     0
290
     0
176
     0
290
     0
176
     0
290
     0
176
     0
290
     0
176
     0
 90
       50
176
     0
 40
0.0
176
     0
 40
1.0
176
     0
 90
        0
176
     0
 62
    18
420
        0
176
     0
 90
       50
176
     0
 90
        3
176
     0
 62
     5
420
      255
176
     0
290
     0
176
     0
 90
       50
176
     0
 90
       50
176
     0
 90
       50
176
     0
290
     0
176
     0
 90
       50
176
     0
 62
   256
176
     0
 40
1.0
176
     0
 90
        2
176
     0
  1
strokes_ogs.tif
176
     0
290
     0
176
     0
 40
1.0
176
     0
 40
1.0
176
     0
  0
VISUALSTYLE
  5
1ED
102
{ACAD_REACTORS
330
1DE
102
}
330
1DE
100
AcDbVisualStyle
  2
Facepattern
 70
    15
177
     3
291
     1
 70
    58
 90
        2
176
     1
 90
        2
176
     1
 90
        0
176
     1
 90
        0
176
     1
 40
-0.6
176
     1
 40
-30.0
176
     1
 62
     7
176
     1
 90
        1
176
     1
 90
        4
176
     1
 62
     7
176
     1
 62
   257
176
     1
 90
        1
176
     1
 90
        1
176
     1
 40
1.0
176
     1
 90
        8
176
     1
 62
     7
176
     1
 40
1.0
176
     1
 90
        1
176
     1
 90
        6
176
     1
 90
        2
176
     1
 62
     7
176
     1
 90
        5
176
     1
 90
        0
176
     1
 90
        0
176
     1
290
     0
176
     1
 90
        1
176
     1
 40
0.0
176
     1
 90
        0
176
     1
290
     0
176
     1
290
     1
176
     1
290
     1
176
     1
290
     0
176
     1
290
     0
176
     1
290
     0
176
     1
290
     0
176
     1
290
     0
176
     1
290
     0
176
     1
 90
       50
176
     1
 40
0.0
176
     1
 40
1.0
176
     1
 90
        0
176
     1
 62
    18
420
        0
176
     1
 90
       50
176
     1
 90
        3
176
     1
 62
     5
420
      255
176
     1
290
     0
176
     1
 90
       50
176
     1
 90
       50
176
     1
 90
       50
176
     1
290
     0
176
     1
 90
       50
176
     1
 62
   256
176
     0
 40
1.0
176
     0
 90
        2
176
     1
  1
strokes_ogs.tif
176
     1
290
     0
176
     1
 40
1.0
176
     1
 40
1.0
176
     1
  0
VISUALSTYLE
  5
1DF
102
{ACAD_REACTORS
330
1DE
102
}
330
1DE
100
AcDbVisualStyle
  2
Flat
 70
     0
177
     3
291
     1
 70
    58
 90
        2
176
     1
 90
        1
176
     1
 90
        1
176
     1
 90
        2
176
     1
 40
-0.6
176
     1
 40
30.0
176
     1
 62
     7
176
     1
 90
        0
176
     1
 90
        4
176
     1
 62
     7
176
     1
 62
   257
176
     1
 90
        1
176
     1
 90
        1
176
     1
 40
1.0
176
     1
 90
        8
176
     1
 62
     7
176
     1
 40
1.0
176
     1
 90
        1
176
     1
 90
        6
176
     1
 90
        2
176
     1
 62
     7
176
     1
 90
        5
176
     1
 90
        0
176
     1
 90
        0
176
     1
290
     0
176
     1
 90
       13
176
     1
 40
0.0
176
     1
 90
        0
176
     1
290
     0
176
     1
290
     1
176
     1
290
     1
176
     1
290
     0
176
     1
290
     0
176
     1
290
     0
176
     1
290
     0
176
     1
290
     0
176
     1
290
     0
176
     1
 90
       50
176
     1
 40
0.0
176
     1
 40
1.0
176
     1
 90
        0
176
     1
 62
    18
420
        0
176
     1
 90
       50
176
     1
 90
        3
176
     1
 62
     5
420
      255
176
     1
290
     0
176
     1
 90
       50
176
     1
 90
       50
176
     1
 90
       50
176
     1
290
     0
176
     1
 90
       50
176
     1
 62
   256
176
     0
 40
1.0
176
     0
 90
        2
176
     1
  1
strokes_ogs.tif
176
     1
290
     0
176
     1
 40
1.0
176
     1
 40
1.0
176
     1
  0
VISUALSTYLE
  5
1E0
102
{ACAD_REACTORS
330
1DE
102
}
330
1DE
100
AcDbVisualStyle
  2
FlatWithEdges
 70
     1
177
     3
291
     1
 70
    58
 90
        2
176
     1
 90
        1
176
     1
 90
        1
176
     1
 90
        2
176
     1
 40
-0.6
176
     1
 40
30.0
176
     1
 62
     7
176
     1
 90
        1
176
     1
 90
        4
176
     1
 62
     7
176
     1
 62
   257
176
     1
 90
        1
176
     1
 90
        1
176
     1
 40
1.0
176
     1
 90
        0
176
     1
 62
   257
176
     1
 40
1.0
176
     1
 90
        1
176
     1
 90
        6
176
     1
 90
        2
176
     1
 62
     7
176
     1
 90
        5
176
     1
 90
        0
176
     1
 90
        0
176
     1
290
     0
176
     1
 90
       13
176
     1
 40
0.0
176
     1
 90
        0
176
     1
290
     0
176
     1
290
     1
176
     1
290
     1
176
     1
290
     0
176
     1
290
     0
176
     1
290
     0
176
     1
290
     0
176
     1
290
     0
176
     1
290
     0
176
     1
 90
       50
176
     1
 40
0.0
176
     1
 40
1.0
176
     1
 90
        0
176
     1
 62
    18
420
        0
176
     1
 90
       50
176
     1
 90
        3
176
     1
 62
     5
420
      255
176
     1
290
     0
176
     1
 90
       50
176
     1
 90
       50
176
     1
 90
       50
176
     1
290
     0
176
     1
 90
       50
176
     1
 62
   256
176
     0
 40
1.0
176
     0
 90
        2
176
     1
  1
strokes_ogs.tif
176
     1
290
     0
176
     1
 40
1.0
176
     1
 40
1.0
176
     1
  0
VISUALSTYLE
  5
1E1
102
{ACAD_REACTORS
330
1DE
102
}
330
1DE
100
AcDbVisualStyle
  2
Gouraud
 70
     2
177
     3
291
     1
 70
    58
 90
        2
176
     1
 90
        2
176
     1
 90
        1
176
     1
 90
        2
176
     1
 40
-0.6
176
     1
 40
30.0
176
     1
 62
     7
176
     1
 90
        0
176
     1
 90
        4
176
     1
 62
     7
176
     1
 62
   257
176
     1
 90
        1
176
     1
 90
        1
176
     1
 40
1.0
176
     1
 90
        0
176
     1
 62
     7
176
     1
 40
1.0
176
     1
 90
        1
176
     1
 90
        6
176
     1
 90
        2
176
     1
 62
     7
176
     1
 90
        5
176
     1
 90
        0
176
     1
 90
        0
176
     1
290
     0
176
     1
 90
       13
176
     1
 40
0.0
176
     1
 90
        0
176
     1
290
     0
176
     1
290
     1
176
     1
290
     1
176
     1
290
     0
176
     1
290
     0
176
     1
290
     0
176
     1
290
     0
176
     1
290
     0
176
     1
290
     0
176
     1
 90
       50
176
     1
 40
0.0
176
     1
 40
1.0
176
     1
 90
        0
176
     1
 62
    18
420
        0
176
     1
 90
       50
176
     1
 90
        3
176
     1
 62
     5
420
      255
176
     1
290
     0
176
     1
 90
       50
176
     1
 90
       50
176
     1
 90
       50
176
     1
290
     0
176
     1
 90
       50
176
     1
 62
   256
176
     0
 40
1.0
176
     0
 90
        2
176
     1
  1
strokes_ogs.tif
176
     1
290
     0
176
     1
 40
1.0
176
     1
 40
1.0
176
     1
  0
VISUALSTYLE
  5
1E2
102
{ACAD_REACTORS
330
1DE
102
}
330
1DE
100
AcDbVisualStyle
  2
GouraudWithEdges
 70
     3
177
     3
291
     1
 70
    58
 90
        2
176
     1
 90
        2
176
     1
 90
        1
176
     1
 90
        2
176
     1
 40
-0.6
176
     1
 40
30.0
176
     1
 62
     7
176
     1
 90
        1
176
     1
 90
        4
176
     1
 62
     7
176
     1
 62
   257
176
     1
 90
        1
176
     1
 90
        1
176
     1
 40
1.0
176
     1
 90
        0
176
     1
 62
   257
176
     1
 40
1.0
176
     1
 90
        1
176
     1
 90
        6
176
     1
 90
        2
176
     1
 62
     7
176
     1
 90
        5
176
     1
 90
        0
176
     1
 90
        0
176
     1
290
     0
176
     1
 90
       13
176
     1
 40
0.0
176
     1
 90
        0
176
     1
290
     0
176
     1
290
     1
176
     1
290
     1
176
     1
290
     0
176
     1
290
     0
176
     1
290
     0
176
     1
290
     0
176
     1
290
     0
176
     1
290
     0
176
     1
 90
       50
176
     1
 40
0.0
176
     1
 40
1.0
176
     1
 90
        0
176
     1
 62
    18
420
        0
176
     1
 90
       50
176
     1
 90
        3
176
     1
 62
     5
420
      255
176
     1
290
     0
176
     1
 90
       50
176
     1
 90
       50
176
     1
 90
       50
176
     1
290
     0
176
     1
 90
       50
176
     1
 62
   256
176
     0
 40
1.0
176
     0
 90
        2
176
     1
  1
strokes_ogs.tif
176
     1
290
     0
176
     1
 40
1.0
176
     1
 40
1.0
176
     1
  0
VISUALSTYLE
  5
23D
102
{ACAD_REACTORS
330
1DE
102
}
330
1DE
100
AcDbVisualStyle
  2
Hidden
 70
     6
177
     3
291
     0
 70
    58
 90
        1
176
     1
 90
        2
176
     1
 90
        2
176
     1
 90
        0
176
     1
 40
0.6
176
     1
 40
30.0
176
     1
 62
     7
420
 16777215
176
     1
 90
        2
176
     1
 90
        2
176
     1
 62
     7
176
     1
 62
   257
176
     1
 90
        2
176
     1
 90
        1
176
     1
 40
40.0
176
     1
 90
        0
176
     1
 62
   257
176
     1
 40
1.0
176
     1
 90
        1
176
     1
 90
        6
176
     1
 90
        2
176
     1
 62
     7
176
     1
 90
        3
176
     1
 90
        0
176
     1
 90
        0
176
     1
290
     0
176
     1
 90
        1
176
     1
 40
0.0
176
     1
 90
        0
176
     1
290
     0
176
     1
290
     1
176
     1
290
     1
176
     1
290
     0
176
     1
290
     0
176
     1
290
     0
176
     1
290
     0
176
     1
290
     0
176
     1
290
     0
176
     1
 90
       50
176
     1
 40
0.0
176
     1
 40
1.0
176
     1
 90
        0
176
     1
 62
    18
420
        0
176
     1
 90
       50
176
     1
 90
        3
176
     1
 62
     5
420
      255
176
     1
290
     0
176
     1
 90
       50
176
     1
 90
       50
176
     1
 90
       50
176
     1
290
     0
176
     1
 90
       50
176
     1
 62
   256
176
     0
 40
1.0
176
     0
 90
        2
176
     1
  1
strokes_ogs.tif
176
     1
290
     0
176
     1
 40
1.0
176
     1
 40
1.0
176
     1
  0
VISUALSTYLE
  5
23E
102
{ACAD_REACTORS
330
1DE
102
}
330
1DE
100
AcDbVisualStyle
  2
JitterOff
 70
    20
177
     3
291
     1
 70
    58
 90
        2
176
     0
 90
        2
176
     0
 90
        0
176
     0
 90
        0
176
     0
 40
0.6
176
     0
 40
30.0
176
     0
 62
     7
420
 16777215
176
     0
 90
        1
176
     0
 90
        4
176
     0
 62
     7
176
     0
 62
   257
176
     0
 90
        1
176
     0
 90
        1
176
     0
 40
1.0
176
     0
 90
       10
176
     2
 62
     7
176
     0
 40
1.0
176
     0
 90
        1
176
     0
 90
        6
176
     0
 90
        2
176
     0
 62
     7
176
     0
 90
        5
176
     0
 90
        0
176
     0
 90
        0
176
     0
290
     0
176
     0
 90
        1
176
     0
 40
0.0
176
     0
 90
        0
176
     0
290
     0
176
     0
290
     1
176
     0
290
     1
176
     0
290
     0
176
     0
290
     0
176
     0
290
     0
176
     0
290
     0
176
     0
290
     0
176
     0
290
     0
176
     0
 90
       50
176
     0
 40
0.0
176
     0
 40
1.0
176
     0
 90
        0
176
     0
 62
    18
420
        0
176
     0
 90
       50
176
     0
 90
        3
176
     0
 62
     5
420
      255
176
     0
290
     0
176
     0
 90
       50
176
     0
 90
       50
176
     0
 90
       50
176
     0
290
     0
176
     0
 90
       50
176
     0
 62
   256
176
     0
 40
1.0
176
     0
 90
        2
176
     0
  1
strokes_ogs.tif
176
     0
290
     0
176
     0
 40
1.0
176
     0
 40
1.0
176
     0
  0
VISUALSTYLE
  5
1EC
102
{ACAD_REACTORS
330
1DE
102
}
330
1DE
100
AcDbVisualStyle
  2
Linepattern
 70
    14
177
     3
291
     1
 70
    58
 90
        2
176
     1
 90
        2
176
     1
 90
        0
176
     1
 90
        0
176
     1
 40
-0.6
176
     1
 40
-30.0
176
     1
 62
     7
176
     1
 90
        1
176
     1
 90
        4
176
     1
 62
     7
176
     1
 62
   257
176
     1
 90
        7
176
     1
 90
        7
176
     1
 40
1.0
176
     1
 90
        8
176
     1
 62
     7
176
     1
 40
1.0
176
     1
 90
        1
176
     1
 90
        6
176
     1
 90
        2
176
     1
 62
     7
176
     1
 90
        5
176
     1
 90
        0
176
     1
 90
        0
176
     1
290
     0
176
     1
 90
        1
176
     1
 40
0.0
176
     1
 90
        0
176
     1
290
     0
176
     1
290
     1
176
     1
290
     1
176
     1
290
     0
176
     1
290
     0
176
     1
290
     0
176
     1
290
     0
176
     1
290
     0
176
     1
290
     0
176
     1
 90
       50
176
     1
 40
0.0
176
     1
 40
1.0
176
     1
 90
        0
176
     1
 62
    18
420
        0
176
     1
 90
       50
176
     1
 90
        3
176
     1
 62
     5
420
      255
176
     1
290
     0
176
     1
 90
       50
176
     1
 90
       50
176
     1
 90
       50
176
     1
290
     0
176
     1
 90
       50
176
     1
 62
   256
176
     0
 40
1.0
176
     0
 90
        2
176
     1
  1
strokes_ogs.tif
176
     1
290
     0
176
     1
 40
1.0
176
     1
 40
1.0
176
     1
  0
VISUALSTYLE
  5
23F
102
{ACAD_REACTORS
330
1DE
102
}
330
1DE
100
AcDbVisualStyle
  2
OverhangOff
 70
    21
177
     3
291
     1
 70
    58
 90
        2
176
     0
 90
        2
176
     0
 90
        0
176
     0
 90
        0
176
     0
 40
0.6
176
     0
 40
30.0
176
     0
 62
     7
420
 16777215
176
     0
 90
        1
176
     0
 90
        4
176
     0
 62
     7
176
     0
 62
   257
176
     0
 90
        1
176
     0
 90
        1
176
     0
 40
1.0
176
     0
 90
        9
176
     2
 62
     7
176
     0
 40
1.0
176
     0
 90
        1
176
     0
 90
        6
176
     0
 90
        2
176
     0
 62
     7
176
     0
 90
        5
176
     0
 90
        0
176
     0
 90
        0
176
     0
290
     0
176
     0
 90
        1
176
     0
 40
0.0
176
     0
 90
        0
176
     0
290
     0
176
     0
290
     1
176
     0
290
     1
176
     0
290
     0
176
     0
290
     0
176
     0
290
     0
176
     0
290
     0
176
     0
290
     0
176
     0
290
     0
176
     0
 90
       50
176
     0
 40
0.0
176
     0
 40
1.0
176
     0
 90
        0
176
     0
 62
    18
420
        0
176
     0
 90
       50
176
     0
 90
        3
176
     0
 62
     5
420
      255
176
     0
290
     0
176
     0
 90
       50
176
     0
 90
       50
176
     0
 90
       50
176
     0
290
     0
176
     0
 90
       50
176
     0
 62
   256
176
     0
 40
1.0
176
     0
 90
        2
176
     0
  1
strokes_ogs.tif
176
     0
290
     0
176
     0
 40
1.0
176
     0
 40
1.0
176
     0
  0
VISUALSTYLE
  5
1E7
102
{ACAD_REACTORS
330
1DE
102
}
330
1DE
100
AcDbVisualStyle
  2
Realistic
 70
     8
177
     3
291
     0
 70
    58
 90
        2
176
     1
 90
        2
176
     1
 90
        0
176
     1
 90
        0
176
     1
 40
-0.6
176
     1
 40
-30.0
176
     1
 62
     7
176
     1
 90
        1
176
     1
 90
        0
176
     1
 62
     7
176
     1
 62
   257
176
     1
 90
        1
176
     1
 90
        1
176
     1
 40
1.0
176
     1
 90
        8
176
     1
 62
     8
176
     1
 40
1.0
176
     1
 90
        1
176
     1
 90
        6
176
     1
 90
        2
176
     1
 62
     7
176
     1
 90
        5
176
     1
 90
        0
176
     1
 90
        0
176
     1
290
     0
176
     1
 90
       13
176
     1
 40
0.0
176
     1
 90
        0
176
     1
290
     0
176
     1
290
     1
176
     1
290
     1
176
     1
290
     0
176
     1
290
     0
176
     1
290
     0
176
     1
290
     0
176
     1
290
     0
176
     1
290
     0
176
     1
 90
       50
176
     1
 40
0.0
176
     1
 40
1.0
176
     1
 90
        0
176
     1
 62
    18
420
        0
176
     1
 90
       50
176
     1
 90
        3
176
     1
 62
     5
420
      255
176
     1
290
     0
176
     1
 90
       50
176
     1
 90
       50
176
     1
 90
       50
176
     1
290
     0
176
     1
 90
       50
176
     1
 62
   256
176
     0
 40
1.0
176
     0
 90
        2
176
     1
  1
strokes_ogs.tif
176
     1
290
     0
176
     1
 40
1.0
176
     1
 40
1.0
176
     1
  0
VISUALSTYLE
  5
245
102
{ACAD_REACTORS
330
1DE
102
}
330
1DE
100
AcDbVisualStyle
  2
Shaded
 70
    27
177
     3
291
     0
 70
    58
 90
        2
176
     1
 90
        2
176
     1
 90
        1
176
     1
 90
        2
176
     1
 40
0.6
176
     1
 40
30.0
176
     1
 62
     7
420
 16777215
176
     1
 90
        0
176
     1
 90
        4
176
     1
 62
     7
176
     1
 62
   257
176
     1
 90
        1
176
     1
 90
        1
176
     1
 40
1.0
176
     1
 90
        8
176
     1
 62
   257
176
     1
 40
1.0
176
     1
 90
        1
176
     1
 90
        6
176
     1
 90
        2
176
     1
 62
     8
420
  7895160
176
     1
 90
        3
176
     1
 90
        0
176
     1
 90
        0
176
     1
290
     0
176
     1
 90
        5
176
     1
 40
0.0
176
     1
 90
        0
176
     1
290
     0
176
     1
290
     1
176
     1
290
     1
176
     1
290
     0
176
     1
290
     0
176
     1
290
     0
176
     1
290
     0
176
     1
290
     0
176
     1
290
     0
176
     1
 90
       50
176
     1
 40
0.0
176
     1
 40
1.0
176
     1
 90
        0
176
     1
 62
    18
420
        0
176
     1
 90
       50
176
     1
 90
        3
176
     1
 62
     5
420
      255
176
     1
290
     0
176
     1
 90
       50
176
     1
 90
       50
176
     1
 90
       50
176
     1
290
     0
176
     1
 90
       50
176
     1
 62
   256
176
     0
 40
1.0
176
     0
 90
        2
176
     1
  1
strokes_ogs.tif
176
     1
290
     0
176
     1
 40
1.0
176
     1
 40
1.0
176
     1
  0
VISUALSTYLE
  5
244
102
{ACAD_REACTORS
330
1DE
102
}
330
1DE
100
AcDbVisualStyle
  2
Shaded with edges
 70
    26
177
     3
291
     0
 70
    58
 90
        2
176
     1
 90
        2
176
     1
 90
        1
176
     1
 90
        2
176
     1
 40
0.6
176
     1
 40
30.0
176
     1
 62
     7
420
 16777215
176
     1
 90
        1
176
     1
 90
       10
176
     1
 62
     7
176
     1
 62
   257
176
     1
 90
        2
176
     1
 90
        1
176
     1
 40
1.0
176
     1
 90
        8
176
     1
 62
   257
176
     1
 40
1.0
176
     1
 90
        1
176
     1
 90
        6
176
     1
 90
        2
176
     1
 62
     7
176
     1
 90
        3
176
     1
 90
        0
176
     1
 90
        0
176
     1
290
     0
176
     1
 90
        5
176
     1
 40
0.0
176
     1
 90
        0
176
     1
290
     0
176
     1
290
     1
176
     1
290
     1
176
     1
290
     0
176
     1
290
     0
176
     1
290
     0
176
     1
290
     0
176
     1
290
     0
176
     1
290
     0
176
     1
 90
       50
176
     1
 40
0.0
176
     1
 40
1.0
176
     1
 90
        0
176
     1
 62
    18
420
        0
176
     1
 90
       50
176
     1
 90
        3
176
     1
 62
     5
420
      255
176
     1
290
     0
176
     1
 90
       50
176
     1
 90
       50
176
     1
 90
       50
176
     1
290
     0
176
     1
 90
       50
176
     1
 62
   256
176
     0
 40
1.0
176
     0
 90
        2
176
     1
  1
strokes_ogs.tif
176
     1
290
     0
176
     1
 40
1.0
176
     1
 40
1.0
176
     1
  0
VISUALSTYLE
  5
241
102
{ACAD_REACTORS
330
1DE
102
}
330
1DE
100
AcDbVisualStyle
  2
Shades of Gray
 70
    23
177
     3
291
     0
 70
    58
 90
        2
176
     1
 90
        2
176
     1
 90
        3
176
     1
 90
        0
176
     1
 40
0.6
176
     1
 40
30.0
176
     1
 62
     7
420
 16777215
176
     1
 90
        2
176
     1
 90
        2
176
     1
 62
     7
176
     1
 62
     7
176
     1
 90
        1
176
     1
 90
        1
176
     1
 40
40.0
176
     1
 90
        8
176
     1
 62
     7
176
     1
 40
1.0
176
     1
 90
        1
176
     1
 90
        6
176
     1
 90
        2
176
     1
 62
     7
176
     1
 90
        3
176
     1
 90
        0
176
     1
 90
        0
176
     1
290
     0
176
     1
 90
        1
176
     1
 40
0.0
176
     1
 90
        0
176
     1
290
     0
176
     1
290
     1
176
     1
290
     1
176
     1
290
     0
176
     1
290
     0
176
     1
290
     0
176
     1
290
     0
176
     1
290
     0
176
     1
290
     0
176
     1
 90
       50
176
     1
 40
0.0
176
     1
 40
1.0
176
     1
 90
        0
176
     1
 62
    18
420
        0
176
     1
 90
       50
176
     1
 90
        3
176
     1
 62
     5
420
      255
176
     1
290
     0
176
     1
 90
       50
176
     1
 90
       50
176
     1
 90
       50
176
     1
290
     0
176
     1
 90
       50
176
     1
 62
   256
176
     0
 40
1.0
176
     0
 90
        2
176
     1
  1
strokes_ogs.tif
176
     1
290
     0
176
     1
 40
1.0
176
     1
 40
1.0
176
     1
  0
VISUALSTYLE
  5
242
102
{ACAD_REACTORS
330
1DE
102
}
330
1DE
100
AcDbVisualStyle
  2
Sketchy
 70
    24
177
     3
291
     0
 70
    58
 90
        1
176
     1
 90
        2
176
     1
 90
        2
176
     1
 90
        0
176
     1
 40
0.6
176
     1
 40
30.0
176
     1
 62
     7
420
 16777215
176
     1
 90
        2
176
     1
 90
        2
176
     1
 62
     7
176
     1
 62
     7
176
     1
 90
        1
176
     1
 90
        1
176
     1
 40
40.0
176
     1
 90
       11
176
     1
 62
     7
176
     1
 40
1.0
176
     1
 90
        1
176
     1
 90
        6
176
     1
 90
        2
176
     1
 62
     7
176
     1
 90
        6
176
     1
 90
        0
176
     1
 90
        0
176
     1
290
     0
176
     1
 90
        1
176
     1
 40
0.0
176
     1
 90
        0
176
     1
290
     0
176
     1
290
     1
176
     1
290
     1
176
     1
290
     0
176
     1
290
     0
176
     1
290
     0
176
     1
290
     0
176
     1
290
     0
176
     1
290
     0
176
     1
 90
       50
176
     1
 40
0.0
176
     1
 40
1.0
176
     1
 90
        0
176
     1
 62
    18
420
        0
176
     1
 90
       50
176
     1
 90
        3
176
     1
 62
     5
420
      255
176
     1
290
     0
176
     1
 90
       50
176
     1
 90
       50
176
     1
 90
       50
176
     1
290
     0
176
     1
 90
       50
176
     1
 62
   256
176
     0
 40
1.0
176
     0
 90
        2
176
     1
  1
strokes_ogs.tif
176
     1
290
     0
176
     1
 40
1.0
176
     1
 40
1.0
176
     1
  0
VISUALSTYLE
  5
1EB
102
{ACAD_REACTORS
330
1DE
102
}
330
1DE
100
AcDbVisualStyle
  2
Thicken
 70
    13
177
     3
291
     1
 70
    58
 90
        2
176
     1
 90
        2
176
     1
 90
        0
176
     1
 90
        0
176
     1
 40
-0.6
176
     1
 40
-30.0
176
     1
 62
     7
176
     1
 90
        1
176
     1
 90
        4
176
     1
 62
     7
176
     1
 62
   257
176
     1
 90
        1
176
     1
 90
        1
176
     1
 40
1.0
176
     1
 90
       12
176
     1
 62
     7
176
     1
 40
1.0
176
     1
 90
        1
176
     1
 90
        6
176
     1
 90
        2
176
     1
 62
     7
176
     1
 90
        5
176
     1
 90
        0
176
     1
 90
        0
176
     1
290
     0
176
     1
 90
        1
176
     1
 40
0.0
176
     1
 90
        0
176
     1
290
     0
176
     1
290
     1
176
     1
290
     1
176
     1
290
     0
176
     1
290
     0
176
     1
290
     0
176
     1
290
     0
176
     1
290
     0
176
     1
290
     0
176
     1
 90
       50
176
     1
 40
0.0
176
     1
 40
1.0
176
     1
 90
        0
176
     1
 62
    18
420
        0
176
     1
 90
       50
176
     1
 90
        3
176
     1
 62
     5
420
      255
176
     1
290
     0
176
     1
 90
       50
176
     1
 90
       50
176
     1
 90
       50
176
     1
290
     0
176
     1
 90
       50
176
     1
 62
   256
176
     0
 40
1.0
176
     0
 90
        2
176
     1
  1
strokes_ogs.tif
176
     1
290
     0
176
     1
 40
1.0
176
     1
 40
1.0
176
     1
  0
VISUALSTYLE
  5
23C
102
{ACAD_REACTORS
330
1DE
102
}
330
1DE
100
AcDbVisualStyle
  2
Wireframe
 70
     5
177
     3
291
     0
 70
    58
 90
        0
176
     1
 90
        2
176
     1
 90
        0
176
     1
 90
        0
176
     1
 40
0.6
176
     1
 40
30.0
176
     1
 62
     7
420
 16777215
176
     1
 90
        1
176
     1
 90
        4
176
     1
 62
     7
176
     1
 62
   257
176
     1
 90
        1
176
     1
 90
        1
176
     1
 40
1.0
176
     1
 90
        0
176
     1
 62
   257
176
     1
 40
1.0
176
     1
 90
        1
176
     1
 90
        6
176
     1
 90
        2
176
     1
 62
     7
176
     1
 90
        3
176
     1
 90
        0
176
     1
 90
        0
176
     1
290
     0
176
     1
 90
        1
176
     1
 40
0.0
176
     1
 90
        0
176
     1
290
     0
176
     1
290
     1
176
     1
290
     1
176
     1
290
     0
176
     1
290
     0
176
     1
290
     0
176
     1
290
     0
176
     1
290
     0
176
     1
290
     0
176
     1
 90
       50
176
     1
 40
0.0
176
     1
 40
1.0
176
     1
 90
        0
176
     1
 62
    18
420
        0
176
     1
 90
       50
176
     1
 90
        3
176
     1
 62
     5
420
      255
176
     1
290
     0
176
     1
 90
       50
176
     1
 90
       50
176
     1
 90
       50
176
     1
290
     0
176
     1
 90
       50
176
     1
 62
   256
176
     0
 40
1.0
176
     0
 90
        2
176
     1
  1
strokes_ogs.tif
176
     1
290
     0
176
     1
 40
1.0
176
     1
 40
1.0
176
     1
  0
VISUALSTYLE
  5
243
102
{ACAD_REACTORS
330
1DE
102
}
330
1DE
100
AcDbVisualStyle
  2
X-Ray
 70
    25
177
     3
291
     0
 70
    58
 90
        2
176
     1
 90
        2
176
     1
 90
        1
176
     1
 90
        1
176
     1
 40
0.5
176
     1
 40
30.0
176
     1
 62
     7
420
 16777215
176
     1
 90
        1
176
     1
 90
        0
176
     1
 62
     7
176
     1
 62
   257
176
     1
 90
        1
176
     1
 90
        1
176
     1
 40
1.0
176
     1
 90
        8
176
     1
 62
     7
176
     1
 40
1.0
176
     1
 90
        1
176
     1
 90
        6
176
     1
 90
        2
176
     1
 62
     7
176
     1
 90
        3
176
     1
 90
        0
176
     1
 90
        0
176
     1
290
     0
176
     1
 90
       13
176
     1
 40
0.0
176
     1
 90
        0
176
     1
290
     0
176
     1
290
     1
176
     1
290
     1
176
     1
290
     0
176
     1
290
     0
176
     1
290
     0
176
     1
290
     0
176
     1
290
     0
176
     1
290
     0
176
     1
 90
       50
176
     1
 40
0.0
176
     1
 40
1.0
176
     1
 90
        0
176
     1
 62
    18
420
        0
176
     1
 90
       50
176
     1
 90
        3
176
     1
 62
     5
420
      255
176
     1
290
     0
176
     1
 90
       50
176
     1
 90
       50
176
     1
 90
       50
176
     1
290
     0
176
     1
 90
       50
176
     1
 62
   256
176
     0
 40
1.0
176
     0
 90
        2
176
     1
  1
strokes_ogs.tif
176
     1
290
     0
176
     1
 40
1.0
176
     1
 40
1.0
176
     1
  0
DICTIONARYVAR
  5
288
102
{ACAD_REACTORS
330
1FB
102
}
330
1FB
100
DictionaryVariables
280
     0
  1
1:1
  0
DICTIONARYVAR
  5
28A
102
{ACAD_REACTORS
330
1FB
102
}
330
1FB
100
DictionaryVariables
280
     0
  1
Standard
  0
DICTIONARYVAR
  5
289
102
{ACAD_REACTORS
330
1FB
102
}
330
1FB
100
DictionaryVariables
280
     0
  1
Standard
  0
DICTIONARYVAR
  5
1FF
102
{ACAD_REACTORS
330
1FB
102
}
330
1FB
100
DictionaryVariables
280
     0
  1
2
  0
DICTIONARYVAR
  5
200
102
{ACAD_REACTORS
330
1FB
102
}
330
1FB
100
DictionaryVariables
280
     0
  1
1
  0
DICTIONARYVAR
  5
1FE
102
{ACAD_REACTORS
330
1FB
102
}
330
1FB
100
DictionaryVariables
280
     0
  1
0
  0
DICTIONARY
  5
30F
330
247
100
AcDbDictionary
280
     1
281
     1
  3
ACAD_ROUNDTRIP_2008_TABLESTYLE_CELLSTYLEMAP
360
310
  0
CELLSTYLEMAP
  5
310
102
{ACAD_REACTORS
330
30F
102
}
330
30F
100
AcDbCellStyleMap
 90
        3
300
CELLSTYLE
  1
TABLEFORMAT_BEGIN
 90
        5
170
     1
 91
        0
 92
    32768
 62
   257
 93
        1
300
CONTENTFORMAT
  1
CONTENTFORMAT_BEGIN
 90
        0
 91
        0
 92
        4
 93
        0
300

 40
0.0
140
1.0
 94
        5
 62
     0
340
11
144
0.25
309
CONTENTFORMAT_END
171
     1
301
MARGIN
  1
CELLMARGIN_BEGIN
 40
0.06
 40
0.06
 40
0.06
 40
0.06
 40
0.06
 40
0.06
309
CELLMARGIN_END
 94
        6
 95
        1
302
GRIDFORMAT
  1
GRIDFORMAT_BEGIN
 90
        0
 91
        1
 62
     0
 92
       -2
340
14
 93
        0
 40
0.045
309
GRIDFORMAT_END
 95
        2
302
GRIDFORMAT
  1
GRIDFORMAT_BEGIN
 90
        0
 91
        1
 62
     0
 92
       -2
340
14
 93
        0
 40
0.045
309
GRIDFORMAT_END
 95
        4
302
GRIDFORMAT
  1
GRIDFORMAT_BEGIN
 90
        0
 91
        1
 62
     0
 92
       -2
340
14
 93
        0
 40
0.045
309
GRIDFORMAT_END
 95
        8
302
GRIDFORMAT
  1
GRIDFORMAT_BEGIN
 90
        0
 91
        1
 62
     0
 92
       -2
340
14
 93
        0
 40
0.045
309
GRIDFORMAT_END
 95
       16
302
GRIDFORMAT
  1
GRIDFORMAT_BEGIN
 90
        0
 91
        1
 62
     0
 92
       -2
340
14
 93
        0
 40
0.045
309
GRIDFORMAT_END
 95
       32
302
GRIDFORMAT
  1
GRIDFORMAT_BEGIN
 90
        0
 91
        1
 62
     0
 92
       -2
340
14
 93
        0
 40
0.045
309
GRIDFORMAT_END
309
TABLEFORMAT_END
  1
CELLSTYLE_BEGIN
 90
        1
 91
        1
300
_TITLE
309
CELLSTYLE_END
300
CELLSTYLE
  1
TABLEFORMAT_BEGIN
 90
        5
170
     1
 91
        0
 92
        0
 62
   257
 93
        1
300
CONTENTFORMAT
  1
CONTENTFORMAT_BEGIN
 90
        0
 91
        0
 92
        4
 93
        0
300

 40
0.0
140
1.0
 94
        5
 62
     0
340
11
144
0.18
309
CONTENTFORMAT_END
171
     1
301
MARGIN
  1
CELLMARGIN_BEGIN
 40
0.06
 40
0.06
 40
0.06
 40
0.06
 40
0.06
 40
0.06
309
CELLMARGIN_END
 94
        6
 95
        1
302
GRIDFORMAT
  1
GRIDFORMAT_BEGIN
 90
        0
 91
        1
 62
     0
 92
       -2
340
14
 93
        0
 40
0.045
309
GRIDFORMAT_END
 95
        2
302
GRIDFORMAT
  1
GRIDFORMAT_BEGIN
 90
        0
 91
        1
 62
     0
 92
       -2
340
14
 93
        0
 40
0.045
309
GRIDFORMAT_END
 95
        4
302
GRIDFORMAT
  1
GRIDFORMAT_BEGIN
 90
        0
 91
        1
 62
     0
 92
       -2
340
14
 93
        0
 40
0.045
309
GRIDFORMAT_END
 95
        8
302
GRIDFORMAT
  1
GRIDFORMAT_BEGIN
 90
        0
 91
        1
 62
     0
 92
       -2
340
14
 93
        0
 40
0.045
309
GRIDFORMAT_END
 95
       16
302
GRIDFORMAT
  1
GRIDFORMAT_BEGIN
 90
        0
 91
        1
 62
     0
 92
       -2
340
14
 93
        0
 40
0.045
309
GRIDFORMAT_END
 95
       32
302
GRIDFORMAT
  1
GRIDFORMAT_BEGIN
 90
        0
 91
        1
 62
     0
 92
       -2
340
14
 93
        0
 40
0.045
309
GRIDFORMAT_END
309
TABLEFORMAT_END
  1
CELLSTYLE_BEGIN
 90
        2
 91
        1
300
_HEADER
309
CELLSTYLE_END
300
CELLSTYLE
  1
TABLEFORMAT_BEGIN
 90
        5
170
     1
 91
        0
 92
        0
 62
   257
 93
        1
300
CONTENTFORMAT
  1
CONTENTFORMAT_BEGIN
 90
        0
 91
        0
 92
        4
 93
        0
300

 40
0.0
140
1.0
 94
        2
 62
     0
340
11
144
0.18
309
CONTENTFORMAT_END
171
     1
301
MARGIN
  1
CELLMARGIN_BEGIN
 40
0.06
 40
0.06
 40
0.06
 40
0.06
 40
0.06
 40
0.06
309
CELLMARGIN_END
 94
        6
 95
        1
302
GRIDFORMAT
  1
GRIDFORMAT_BEGIN
 90
        0
 91
        1
 62
     0
 92
       -2
340
14
 93
        0
 40
0.045
309
GRIDFORMAT_END
 95
        2
302
GRIDFORMAT
  1
GRIDFORMAT_BEGIN
 90
        0
 91
        1
 62
     0
 92
       -2
340
14
 93
        0
 40
0.045
309
GRIDFORMAT_END
 95
        4
302
GRIDFORMAT
  1
GRIDFORMAT_BEGIN
 90
        0
 91
        1
 62
     0
 92
       -2
340
14
 93
        0
 40
0.045
309
GRIDFORMAT_END
 95
        8
302
GRIDFORMAT
  1
GRIDFORMAT_BEGIN
 90
        0
 91
        1
 62
     0
 92
       -2
340
14
 93
        0
 40
0.045
309
GRIDFORMAT_END
 95
       16
302
GRIDFORMAT
  1
GRIDFORMAT_BEGIN
 90
        0
 91
        1
 62
     0
 92
       -2
340
14
 93
        0
 40
0.045
309
GRIDFORMAT_END
 95
       32
302
GRIDFORMAT
  1
GRIDFORMAT_BEGIN
 90
        0
 91
        1
 62
     0
 92
       -2
340
14
 93
        0
 40
0.045
309
GRIDFORMAT_END
309
TABLEFORMAT_END
  1
CELLSTYLE_BEGIN
 90
        3
 91
        2
300
_DATA
309
CELLSTYLE_END
  0
ENDSEC
  0
EOF
