  0
SECTION
  2
HEADER
  9
$ACADVER
  1
AC1027
  9
$ACADMAINTVER
 70
   105
  9
$DWGCODEPAGE
  3
ANSI_1252
  9
$REQUIREDVERSIONS
160
                 0
  9
$LASTSAVEDBY
  1
christoph.stuessi
  9
$INSBASE
 10
0.0
 20
0.0
 30
0.0
  9
$EXTMIN
 10
-73.2693166333541
 20
-15.62823959961186
 30
0.0
  9
$EXTMAX
 10
94.82513012315081
 20
115.379466755028
 30
0.0
  9
$LIMMIN
 10
-54.271886146
 20
-2.793646027
  9
$LIMMAX
 10
91.243654334
 20
89.90884798
  9
$ORTHOMODE
 70
     0
  9
$REGENMODE
 70
     1
  9
$FILLMODE
 70
     1
  9
$QTEXTMODE
 70
     0
  9
$MIRRTEXT
 70
     1
  9
$LTSCALE
 40
1.0
  9
$ATTMODE
 70
     1
  9
$TEXTSIZE
 40
0.2
  9
$TRACEWID
 40
0.05
  9
$TEXTSTYLE
  7
Standard
  9
$CLAYER
  8
INFTOTAL
  9
$CELTYPE
  6
ByLayer
  9
$CECOLOR
 62
   256
  9
$CELTSCALE
 40
1.0
  9
$DISPSILH
 70
     0
  9
$DIMSCALE
 40
1.0
  9
$DIMASZ
 40
0.18
  9
$DIMEXO
 40
0.0625
  9
$DIMDLI
 40
0.38
  9
$DIMRND
 40
0.0
  9
$DIMDLE
 40
0.0
  9
$DIMEXE
 40
0.18
  9
$DIMTP
 40
0.0
  9
$DIMTM
 40
0.0
  9
$DIMTXT
 40
0.18
  9
$DIMCEN
 40
0.09
  9
$DIMTSZ
 40
0.0
  9
$DIMTOL
 70
     0
  9
$DIMLIM
 70
     0
  9
$DIMTIH
 70
     1
  9
$DIMTOH
 70
     1
  9
$DIMSE1
 70
     0
  9
$DIMSE2
 70
     0
  9
$DIMTAD
 70
     0
  9
$DIMZIN
 70
     0
  9
$DIMBLK
  1

  9
$DIMASO
 70
     1
  9
$DIMSHO
 70
     1
  9
$DIMPOST
  1

  9
$DIMAPOST
  1

  9
$DIMALT
 70
     0
  9
$DIMALTD
 70
     2
  9
$DIMALTF
 40
25.4
  9
$DIMLFAC
 40
1.0
  9
$DIMTOFL
 70
     0
  9
$DIMTVP
 40
0.0
  9
$DIMTIX
 70
     0
  9
$DIMSOXD
 70
     0
  9
$DIMSAH
 70
     0
  9
$DIMBLK1
  1

  9
$DIMBLK2
  1

  9
$DIMSTYLE
  2
Standard
  9
$DIMCLRD
 70
     0
  9
$DIMCLRE
 70
     0
  9
$DIMCLRT
 70
     0
  9
$DIMTFAC
 40
1.0
  9
$DIMGAP
 40
0.09
  9
$DIMJUST
 70
     0
  9
$DIMSD1
 70
     0
  9
$DIMSD2
 70
     0
  9
$DIMTOLJ
 70
     1
  9
$DIMTZIN
 70
     0
  9
$DIMALTZ
 70
     0
  9
$DIMALTTZ
 70
     0
  9
$DIMUPT
 70
     0
  9
$DIMDEC
 70
     4
  9
$DIMTDEC
 70
     4
  9
$DIMALTU
 70
     2
  9
$DIMALTTD
 70
     2
  9
$DIMTXSTY
  7
Standard
  9
$DIMAUNIT
 70
     0
  9
$DIMADEC
 70
     0
  9
$DIMALTRND
 40
0.0
  9
$DIMAZIN
 70
     0
  9
$DIMDSEP
 70
    46
  9
$DIMATFIT
 70
     3
  9
$DIMFRAC
 70
     0
  9
$DIMLDRBLK
  1

  9
$DIMLUNIT
 70
     2
  9
$DIMLWD
 70
    -2
  9
$DIMLWE
 70
    -2
  9
$DIMTMOVE
 70
     2
  9
$DIMFXL
 40
1.0
  9
$DIMFXLON
 70
     0
  9
$DIMJOGANG
 40
0.7853981633974483
  9
$DIMTFILL
 70
     0
  9
$DIMTFILLCLR
 70
     0
  9
$DIMARCSYM
 70
     0
  9
$DIMLTYPE
  6

  9
$DIMLTEX1
  6

  9
$DIMLTEX2
  6

  9
$DIMTXTDIRECTION
 70
     0
  9
$LUNITS
 70
     2
  9
$LUPREC
 70
     4
  9
$SKETCHINC
 40
0.1
  9
$FILLETRAD
 40
0.5
  9
$AUNITS
 70
     2
  9
$AUPREC
 70
     0
  9
$MENU
  1
.
  9
$ELEVATION
 40
0.0
  9
$PELEVATION
 40
0.0
  9
$THICKNESS
 40
0.0
  9
$LIMCHECK
 70
     0
  9
$CHAMFERA
 40
0.5
  9
$CHAMFERB
 40
0.5
  9
$CHAMFERC
 40
1.0
  9
$CHAMFERD
 40
0.0
  9
$SKPOLY
 70
     0
  9
$TDCREATE
 40
2458327.549319676
  9
$TDUCREATE
 40
2458327.465986343
  9
$TDUPDATE
 40
2458353.36014625
  9
$TDUUPDATE
 40
2458353.276812917
  9
$TDINDWG
 40
0.005136331
  9
$TDUSRTIMER
 40
0.007296088
  9
$USRTIMER
 70
     1
  9
$ANGBASE
 50
0.0
  9
$ANGDIR
 70
     0
  9
$PDMODE
 70
     0
  9
$PDSIZE
 40
0.0
  9
$PLINEWID
 40
0.0
  9
$SPLFRAME
 70
     0
  9
$SPLINETYPE
 70
     6
  9
$SPLINESEGS
 70
     8
  9
$HANDSEED
  5
423
  9
$SURFTAB1
 70
     6
  9
$SURFTAB2
 70
     6
  9
$SURFTYPE
 70
     6
  9
$SURFU
 70
     6
  9
$SURFV
 70
     6
  9
$UCSBASE
  2

  9
$UCSNAME
  2

  9
$UCSORG
 10
0.0
 20
0.0
 30
0.0
  9
$UCSXDIR
 10
1.0
 20
0.0
 30
0.0
  9
$UCSYDIR
 10
0.0
 20
1.0
 30
0.0
  9
$UCSORTHOREF
  2

  9
$UCSORTHOVIEW
 70
     0
  9
$UCSORGTOP
 10
0.0
 20
0.0
 30
0.0
  9
$UCSORGBOTTOM
 10
0.0
 20
0.0
 30
0.0
  9
$UCSORGLEFT
 10
0.0
 20
0.0
 30
0.0
  9
$UCSORGRIGHT
 10
0.0
 20
0.0
 30
0.0
  9
$UCSORGFRONT
 10
0.0
 20
0.0
 30
0.0
  9
$UCSORGBACK
 10
0.0
 20
0.0
 30
0.0
  9
$PUCSBASE
  2

  9
$PUCSNAME
  2

  9
$PUCSORG
 10
0.0
 20
0.0
 30
0.0
  9
$PUCSXDIR
 10
1.0
 20
0.0
 30
0.0
  9
$PUCSYDIR
 10
0.0
 20
1.0
 30
0.0
  9
$PUCSORTHOREF
  2

  9
$PUCSORTHOVIEW
 70
     0
  9
$PUCSORGTOP
 10
0.0
 20
0.0
 30
0.0
  9
$PUCSORGBOTTOM
 10
0.0
 20
0.0
 30
0.0
  9
$PUCSORGLEFT
 10
0.0
 20
0.0
 30
0.0
  9
$PUCSORGRIGHT
 10
0.0
 20
0.0
 30
0.0
  9
$PUCSORGFRONT
 10
0.0
 20
0.0
 30
0.0
  9
$PUCSORGBACK
 10
0.0
 20
0.0
 30
0.0
  9
$USERI1
 70
     0
  9
$USERI2
 70
     0
  9
$USERI3
 70
     0
  9
$USERI4
 70
     0
  9
$USERI5
 70
     0
  9
$USERR1
 40
0.0
  9
$USERR2
 40
0.0
  9
$USERR3
 40
0.0
  9
$USERR4
 40
0.0
  9
$USERR5
 40
0.0
  9
$WORLDVIEW
 70
     1
  9
$SHADEDGE
 70
     3
  9
$SHADEDIF
 70
    70
  9
$TILEMODE
 70
     1
  9
$MAXACTVP
 70
    64
  9
$PINSBASE
 10
0.0
 20
0.0
 30
0.0
  9
$PLIMCHECK
 70
     0
  9
$PEXTMIN
 10
1.000000000000000E+20
 20
1.000000000000000E+20
 30
1.000000000000000E+20
  9
$PEXTMAX
 10
-1.000000000000000E+20
 20
-1.000000000000000E+20
 30
-1.000000000000000E+20
  9
$PLIMMIN
 10
0.0
 20
0.0
  9
$PLIMMAX
 10
0.0
 20
0.0
  9
$UNITMODE
 70
     0
  9
$VISRETAIN
 70
     1
  9
$PLINEGEN
 70
     0
  9
$PSLTSCALE
 70
     1
  9
$TREEDEPTH
 70
  3020
  9
$CMLSTYLE
  2
Standard
  9
$CMLJUST
 70
     0
  9
$CMLSCALE
 40
1.0
  9
$PROXYGRAPHICS
 70
     1
  9
$MEASUREMENT
 70
     0
  9
$CELWEIGHT
370
    -1
  9
$ENDCAPS
280
     0
  9
$JOINSTYLE
280
     0
  9
$LWDISPLAY
290
     0
  9
$INSUNITS
 70
     0
  9
$HYPERLINKBASE
  1

  9
$STYLESHEET
  1

  9
$XEDIT
290
     1
  9
$CEPSNTYPE
380
     0
  9
$PSTYLEMODE
290
     1
  9
$FINGERPRINTGUID
  2
{15456486-79BF-4F53-82E5-4ADE9977EE20}
  9
$VERSIONGUID
  2
{FAEB1C32-E019-11D5-929B-00C0DF256EC4}
  9
$EXTNAMES
290
     1
  9
$PSVPSCALE
 40
0.0
  9
$OLESTARTUP
290
     0
  9
$SORTENTS
280
   127
  9
$INDEXCTL
280
     0
  9
$HIDETEXT
280
     1
  9
$XCLIPFRAME
280
     2
  9
$HALOGAP
280
     0
  9
$OBSCOLOR
 70
   257
  9
$OBSLTYPE
280
     0
  9
$INTERSECTIONDISPLAY
280
     0
  9
$INTERSECTIONCOLOR
 70
   257
  9
$DIMASSOC
280
     2
  9
$PROJECTNAME
  1

  9
$CAMERADISPLAY
290
     0
  9
$LENSLENGTH
 40
50.0
  9
$CAMERAHEIGHT
 40
0.0
  9
$STEPSPERSEC
 40
2.0
  9
$STEPSIZE
 40
6.0
  9
$3DDWFPREC
 40
2.0
  9
$PSOLWIDTH
 40
0.25
  9
$PSOLHEIGHT
 40
4.0
  9
$LOFTANG1
 40
1.570796326794897
  9
$LOFTANG2
 40
1.570796326794897
  9
$LOFTMAG1
 40
0.0
  9
$LOFTMAG2
 40
0.0
  9
$LOFTPARAM
 70
     7
  9
$LOFTNORMALS
280
     1
  9
$LATITUDE
 40
37.795
  9
$LONGITUDE
 40
-122.394
  9
$NORTHDIRECTION
 40
0.0
  9
$TIMEZONE
 70
 -8000
  9
$LIGHTGLYPHDISPLAY
280
     1
  9
$TILEMODELIGHTSYNCH
280
     1
  9
$SOLIDHIST
280
     0
  9
$SHOWHIST
280
     1
  9
$DWFFRAME
280
     2
  9
$DGNFRAME
280
     2
  9
$REALWORLDSCALE
290
     1
  9
$INTERFERECOLOR
 62
   256
  9
$CSHADOW
280
     0
  9
$SHADOWPLANELOCATION
 40
0.0
  0
ENDSEC
  0
SECTION
  2
CLASSES
  0
CLASS
  1
ACDBDICTIONARYWDFLT
  2
AcDbDictionaryWithDefault
  3
ObjectDBX Classes
 90
        0
 91
        5
280
     0
281
     0
  0
CLASS
  1
SCALE
  2
AcDbScale
  3
ObjectDBX Classes
 90
     1153
 91
        5
280
     0
281
     0
  0
CLASS
  1
VISUALSTYLE
  2
AcDbVisualStyle
  3
ObjectDBX Classes
 90
     4095
 91
        5
280
     0
281
     0
  0
CLASS
  1
MATERIAL
  2
AcDbMaterial
  3
ObjectDBX Classes
 90
     1153
 91
        5
280
     0
281
     0
  0
CLASS
  1
DICTIONARYVAR
  2
AcDbDictionaryVar
  3
ObjectDBX Classes
 90
        0
 91
        5
280
     0
281
     0
  0
CLASS
  1
ACDBPLACEHOLDER
  2
AcDbPlaceHolder
  3
ObjectDBX Classes
 90
        0
 91
        1
280
     0
281
     0
  0
CLASS
  1
LAYOUT
  2
AcDbLayout
  3
ObjectDBX Classes
 90
        0
 91
        1
280
     0
281
     0
  0
CLASS
  1
TABLESTYLE
  2
AcDbTableStyle
  3
ObjectDBX Classes
 90
     4095
 91
        5
280
     0
281
     0
  0
CLASS
  1
MLEADERSTYLE
  2
AcDbMLeaderStyle
  3
ACDB_MLEADERSTYLE_CLASS
 90
     4095
 91
        5
280
     0
281
     0
  0
CLASS
  1
SUN
  2
AcDbSun
  3
SCENEOE
 90
     1153
 91
        4
280
     0
281
     0
  0
CLASS
  1
CELLSTYLEMAP
  2
AcDbCellStyleMap
  3
ObjectDBX Classes
 90
     1152
 91
        4
280
     0
281
     0
  0
ENDSEC
  0
SECTION
  2
TABLES
  0
TABLE
  2
VPORT
  5
8
330
0
100
AcDbSymbolTable
 70
     1
  0
VPORT
  5
2F8
330
8
100
AcDbSymbolTableRecord
100
AcDbViewportTableRecord
  2
*Active
 70
     0
 10
0.0
 20
0.0
 11
1.0
 21
1.0
 12
31.22703449066841
 22
42.23256619146087
 13
0.0
 23
0.0
 14
0.5
 24
0.5
 15
0.5
 25
0.5
 16
0.0
 26
0.0
 36
1.0
 17
0.0
 27
0.0
 37
0.0
 40
165.9270398499025
 41
2.249637155297532
 42
50.0
 43
0.0
 44
0.0
 50
0.0
 51
0.0
 71
    16
 72
   100
 73
     1
 74
     3
 75
     0
 76
     0
 77
     0
 78
     0
281
     0
 65
     1
110
0.0
120
0.0
130
0.0
111
1.0
121
0.0
131
0.0
112
0.0
122
1.0
132
0.0
 79
     0
146
0.0
348
328
 60
     3
 61
     5
292
     1
282
     1
141
0.0
142
0.0
 63
   256
361
3D7
  0
ENDTAB
  0
TABLE
  2
LTYPE
  5
5
330
0
100
AcDbSymbolTable
 70
     8
  0
LTYPE
  5
14
330
5
100
AcDbSymbolTableRecord
100
AcDbLinetypeTableRecord
  2
ByBlock
 70
     0
  3

 72
    65
 73
     0
 40
0.0
  0
LTYPE
  5
15
330
5
100
AcDbSymbolTableRecord
100
AcDbLinetypeTableRecord
  2
ByLayer
 70
     0
  3

 72
    65
 73
     0
 40
0.0
  0
LTYPE
  5
16
330
5
100
AcDbSymbolTableRecord
100
AcDbLinetypeTableRecord
  2
Continuous
 70
     0
  3
Solid line
 72
    65
 73
     0
 40
0.0
  0
LTYPE
  5
20
330
5
100
AcDbSymbolTableRecord
100
AcDbLinetypeTableRecord
  2
PUNKT
 70
     0
  3
..............
 72
    65
 73
     2
 40
1.5
 49
0.7
 74
     0
 49
-0.8
 74
     0
  0
LTYPE
  5
21
330
5
100
AcDbSymbolTableRecord
100
AcDbLinetypeTableRecord
  2
GESTRICHELT
 70
     0
  3
-- -- -- -- --
 72
    65
 73
     7
 40
2.8
 49
0.9
 74
     0
 49
0.0
 74
     0
 49
0.9
 74
     0
 49
0.0
 74
     0
 49
0.2
 74
     0
 49
0.0
 74
     0
 49
-0.8
 74
     0
  0
LTYPE
  5
22
330
5
100
AcDbSymbolTableRecord
100
AcDbLinetypeTableRecord
  2
STRICHPUNKT
 70
     0
  3
--.--.--.--.--
 72
    65
 73
     4
 40
8.8
 49
5.5
 74
     0
 49
-1.3
 74
     0
 49
0.7
 74
     0
 49
-1.3
 74
     0
  0
LTYPE
  5
25
330
5
100
AcDbSymbolTableRecord
100
AcDbLinetypeTableRecord
  2
PHANTOM
 70
     0
  3
--..--..--..--
 72
    65
 73
     6
 40
14.2
 49
7.0
 74
     0
 49
-1.8
 74
     0
 49
0.9
 74
     0
 49
-1.8
 74
     0
 49
0.9
 74
     0
 49
-1.8
 74
     0
  0
LTYPE
  5
36E
330
5
100
AcDbSymbolTableRecord
100
AcDbLinetypeTableRecord
  2
DASH
 70
     0
  3
DASH _ _ _ _ _
 72
    65
 73
     2
 40
0.75
 49
0.4
 74
     0
 49
-0.35
 74
     0
  0
LTYPE
  5
36F
330
5
100
AcDbSymbolTableRecord
100
AcDbLinetypeTableRecord
  2
LONGDASH_DASH
 70
     0
  3
LONGDASH_DASH __ . __ . __
 72
    65
 73
     4
 40
0.85
 49
0.4
 74
     0
 49
-0.2
 74
     0
 49
0.05
 74
     0
 49
-0.2
 74
     0
  0
LTYPE
  5
370
330
5
100
AcDbSymbolTableRecord
100
AcDbLinetypeTableRecord
  2
LONGDASH_DASH_DASH
 70
     0
  3
LONGDASH_DASH_DASH __ . . __ . . __
 72
    65
 73
     6
 40
1.1
 49
0.4
 74
     0
 49
-0.2
 74
     0
 49
0.05
 74
     0
 49
-0.2
 74
     0
 49
0.05
 74
     0
 49
-0.2
 74
     0
  0
ENDTAB
  0
TABLE
  2
LAYER
  5
2
102
{ACAD_XDICTIONARY
360
38D
102
}
330
0
100
AcDbSymbolTable
 70
    15
  0
LAYER
  5
339
330
2
100
AcDbSymbolTableRecord
100
AcDbLayerTableRecord
  2
200
 70
     0
 62
     2
  6
Continuous
370
    50
390
F
347
337
348
0
  0
LAYER
  5
371
330
2
100
AcDbSymbolTableRecord
100
AcDbLayerTableRecord
  2
0
 70
     0
 62
    -1
  6
Continuous
370
    -3
390
F
347
337
348
0
  0
LAYER
  5
372
330
2
100
AcDbSymbolTableRecord
100
AcDbLayerTableRecord
  2
1
 70
     0
 62
     4
  6
Continuous
370
    50
390
F
347
337
348
0
  0
LAYER
  5
373
330
2
100
AcDbSymbolTableRecord
100
AcDbLayerTableRecord
  2
2
 70
     0
 62
     7
  6
Continuous
370
    25
390
F
347
337
348
0
  0
LAYER
  5
374
330
2
100
AcDbSymbolTableRecord
100
AcDbLayerTableRecord
  2
3
 70
     0
 62
     1
  6
DASH
370
    35
390
F
347
337
348
0
  0
LAYER
  5
375
330
2
100
AcDbSymbolTableRecord
100
AcDbLayerTableRecord
  2
4
 70
     0
 62
     2
  6
LONGDASH_DASH
370
    25
390
F
347
337
348
0
  0
LAYER
  5
376
330
2
100
AcDbSymbolTableRecord
100
AcDbLayerTableRecord
  2
6
 70
     0
 62
     5
  6
Continuous
370
    -3
390
F
347
337
348
0
  0
LAYER
  5
377
330
2
100
AcDbSymbolTableRecord
100
AcDbLayerTableRecord
  2
CUT
 70
     0
 62
     1
  6
Continuous
370
    25
390
F
347
337
348
0
  0
LAYER
  5
378
330
2
100
AcDbSymbolTableRecord
100
AcDbLayerTableRecord
  2
NOCUT
 70
     0
 62
    -7
  6
Continuous
370
    25
390
F
347
337
348
0
  0
LAYER
  5
379
330
2
100
AcDbSymbolTableRecord
100
AcDbLayerTableRecord
  2
SK1
 70
     0
 62
     4
  6
Continuous
370
    50
390
F
347
337
348
0
  0
LAYER
  5
37A
330
2
100
AcDbSymbolTableRecord
100
AcDbLayerTableRecord
  2
SK2
 70
     0
 62
     7
  6
Continuous
370
    25
390
F
347
337
348
0
  0
LAYER
  5
37B
330
2
100
AcDbSymbolTableRecord
100
AcDbLayerTableRecord
  2
SK3
 70
     0
 62
     1
  6
DASH
370
    35
390
F
347
337
348
0
  0
LAYER
  5
37C
330
2
100
AcDbSymbolTableRecord
100
AcDbLayerTableRecord
  2
SK4
 70
     0
 62
     2
  6
LONGDASH_DASH
370
    25
390
F
347
337
348
0
  0
LAYER
  5
37D
330
2
100
AcDbSymbolTableRecord
100
AcDbLayerTableRecord
  2
SK6
 70
     0
 62
     5
  6
Continuous
370
    -3
390
F
347
337
348
0
  0
LAYER
  5
37E
330
2
100
AcDbSymbolTableRecord
100
AcDbLayerTableRecord
  2
INFTOTAL
 70
     0
 62
    -9
  6
Continuous
370
    18
390
F
347
337
348
0
  0
ENDTAB
  0
TABLE
  2
STYLE
  5
3
330
0
100
AcDbSymbolTable
 70
     2
  0
STYLE
  5
11
330
3
100
AcDbSymbolTableRecord
100
AcDbTextStyleTableRecord
  2
Standard
 70
     0
 40
0.0
 41
1.0
 50
0.0
 71
     0
 42
0.2
  3
txt
  4

  0
STYLE
  5
338
330
3
100
AcDbSymbolTableRecord
100
AcDbTextStyleTableRecord
  2
BMG_Text
 70
     0
 40
3.5
 41
1.0
 50
0.0
 71
     0
 42
0.2
  3
monos.ttf
  4

1001
ACAD
1000
Monospac821 BT
1071
       49
  0
ENDTAB
  0
TABLE
  2
VIEW
  5
6
330
0
100
AcDbSymbolTable
 70
     0
  0
ENDTAB
  0
TABLE
  2
UCS
  5
7
330
0
100
AcDbSymbolTable
 70
     0
  0
ENDTAB
  0
TABLE
  2
APPID
  5
9
330
0
100
AcDbSymbolTable
 70
     1
  0
APPID
  5
12
330
9
100
AcDbSymbolTableRecord
100
AcDbRegAppTableRecord
  2
ACAD
 70
     0
  0
ENDTAB
  0
TABLE
  2
DIMSTYLE
  5
A
330
0
100
AcDbSymbolTable
 70
     1
100
AcDbDimStyleTable
  0
DIMSTYLE
105
28
330
A
100
AcDbSymbolTableRecord
100
AcDbDimStyleTableRecord
  2
Standard
 70
     0
178
     0
340
11
  0
ENDTAB
  0
TABLE
  2
BLOCK_RECORD
  5
1
330
0
100
AcDbSymbolTable
 70
     0
  0
BLOCK_RECORD
  5
1D
330
1
100
AcDbSymbolTableRecord
100
AcDbBlockTableRecord
  2
*Model_Space
340
1E
 70
     0
280
     1
281
     0
  0
BLOCK_RECORD
  5
1B
330
1
100
AcDbSymbolTableRecord
100
AcDbBlockTableRecord
  2
*Paper_Space
340
1C
 70
     0
280
     1
281
     0
  0
ENDTAB
  0
ENDSEC
  0
SECTION
  2
BLOCKS
  0
BLOCK
  5
321
330
1D
100
AcDbEntity
  8
0
100
AcDbBlockBegin
  2
*Model_Space
 70
     0
 10
0.0
 20
0.0
 30
0.0
  3
*Model_Space
  1

  0
ENDBLK
  5
322
330
1D
100
AcDbEntity
  8
0
100
AcDbBlockEnd
  0
BLOCK
  5
31F
330
1B
100
AcDbEntity
 67
     1
  8
0
100
AcDbBlockBegin
  2
*Paper_Space
 70
     0
 10
0.0
 20
0.0
 30
0.0
  3
*Paper_Space
  1

  0
ENDBLK
  5
320
330
1B
100
AcDbEntity
 67
     1
  8
0
100
AcDbBlockEnd
  0
ENDSEC
  0
SECTION
  2
ENTITIES
  0
LINE
  5
29
330
1D
100
AcDbEntity
  8
SK1
100
AcDbLine
 10
-10.272528397
 20
68.85
 30
0.0
 11
-9.926076526
 21
68.85
 31
0.0
  0
LINE
  5
2A
330
1D
100
AcDbEntity
  8
SK1
100
AcDbLine
 10
-9.926076526
 20
78.85
 30
0.0
 11
-10.272528397
 21
78.85
 31
0.0
  0
LINE
  5
2B
330
1D
100
AcDbEntity
  8
SK1
100
AcDbLine
 10
-10.272528397
 20
42.85
 30
0.0
 11
-9.926076526
 21
42.85
 31
0.0
  0
LINE
  5
2C
330
1D
100
AcDbEntity
  8
SK1
100
AcDbLine
 10
-9.926076526
 20
52.85
 30
0.0
 11
-10.272528397
 21
52.85
 31
0.0
  0
LINE
  5
2D
330
1D
100
AcDbEntity
  8
SK1
100
AcDbLine
 10
-10.272528397
 20
55.85
 30
0.0
 11
-9.926076526
 21
55.85
 31
0.0
  0
LINE
  5
2E
330
1D
100
AcDbEntity
  8
SK1
100
AcDbLine
 10
-9.926076526
 20
65.85
 30
0.0
 11
-10.272528397
 21
65.85
 31
0.0
  0
LINE
  5
2F
330
1D
100
AcDbEntity
  8
1
  6
Continuous
370
    50
100
AcDbLine
 10
0.4
 20
5.0
 30
0.0
 11
15.0
 21
5.0
 31
0.0
  0
LINE
  5
30
330
1D
100
AcDbEntity
  8
1
  6
Continuous
370
    50
100
AcDbLine
 10
43.3
 20
5.0
 30
0.0
 11
45.3
 21
7.0
 31
0.0
  0
LINE
  5
31
330
1D
100
AcDbEntity
  8
SK1
100
AcDbLine
 10
-10.436029766
 20
69.678
 30
0.0
 11
-9.924315193
 21
69.713692038
 31
0.0
  0
LINE
  5
32
330
1D
100
AcDbEntity
  8
SK1
100
AcDbLine
 10
-9.924315193
 20
69.713692038
 30
0.0
 11
-9.421356199
 21
69.820157453
 31
0.0
  0
LINE
  5
33
330
1D
100
AcDbEntity
  8
SK1
100
AcDbLine
 10
-9.421356199
 20
69.820157453
 30
0.0
 11
-8.935758551
 21
69.99557459
 31
0.0
  0
LINE
  5
34
330
1D
100
AcDbEntity
  8
SK1
100
AcDbLine
 10
-8.935758551
 20
69.99557459
 30
0.0
 11
-8.475830959
 21
70.236942015
 31
0.0
  0
LINE
  5
35
330
1D
100
AcDbEntity
  8
SK1
100
AcDbLine
 10
-8.475830959
 20
70.236942015
 30
0.0
 11
-8.049442912
 21
70.540129864
 31
0.0
  0
LINE
  5
36
330
1D
100
AcDbEntity
  8
SK1
100
AcDbLine
 10
-8.049442912
 20
70.540129864
 30
0.0
 11
-7.663890028
 21
70.899950509
 31
0.0
  0
LINE
  5
37
330
1D
100
AcDbEntity
  8
SK1
100
AcDbLine
 10
-7.663890028
 20
70.899950509
 30
0.0
 11
-7.325769224
 21
71.310247318
 31
0.0
  0
LINE
  5
38
330
1D
100
AcDbEntity
  8
SK1
100
AcDbLine
 10
-7.325769224
 20
71.310247318
 30
0.0
 11
-7.040865839
 21
71.764
 31
0.0
  0
LINE
  5
39
330
1D
100
AcDbEntity
  8
SK1
100
AcDbLine
 10
-7.040865839
 20
71.764
 30
0.0
 11
-6.814054651
 21
72.25344472
 31
0.0
  0
LINE
  5
3A
330
1D
100
AcDbEntity
  8
SK1
100
AcDbLine
 10
-6.814054651
 20
72.25344472
 30
0.0
 11
-6.649216461
 21
72.770206944
 31
0.0
  0
LINE
  5
3B
330
1D
100
AcDbEntity
  8
SK1
100
AcDbLine
 10
-6.649216461
 20
72.770206944
 30
0.0
 11
-6.549171697
 21
73.305444726
 31
0.0
  0
LINE
  5
3C
330
1D
100
AcDbEntity
  8
SK1
100
AcDbLine
 10
-6.549171697
 20
73.305444726
 30
0.0
 11
-6.515632152
 21
73.85
 31
0.0
  0
LINE
  5
3D
330
1D
100
AcDbEntity
  8
SK1
100
AcDbLine
 10
-6.515632152
 20
73.85
 30
0.0
 11
-6.549171697
 21
74.394555274
 31
0.0
  0
LINE
  5
3E
330
1D
100
AcDbEntity
  8
SK1
100
AcDbLine
 10
-6.549171697
 20
74.394555274
 30
0.0
 11
-6.649216461
 21
74.929793056
 31
0.0
  0
LINE
  5
3F
330
1D
100
AcDbEntity
  8
SK1
100
AcDbLine
 10
-6.649216461
 20
74.929793056
 30
0.0
 11
-6.814054651
 21
75.44655528
 31
0.0
  0
LINE
  5
40
330
1D
100
AcDbEntity
  8
SK1
100
AcDbLine
 10
-6.814054651
 20
75.44655528
 30
0.0
 11
-7.040865839
 21
75.936
 31
0.0
  0
LINE
  5
41
330
1D
100
AcDbEntity
  8
SK1
100
AcDbLine
 10
-7.040865839
 20
75.936
 30
0.0
 11
-7.325769224
 21
76.389752682
 31
0.0
  0
LINE
  5
42
330
1D
100
AcDbEntity
  8
SK1
100
AcDbLine
 10
-7.325769224
 20
76.389752682
 30
0.0
 11
-7.663890028
 21
76.800049491
 31
0.0
  0
LINE
  5
43
330
1D
100
AcDbEntity
  8
SK1
100
AcDbLine
 10
-7.663890028
 20
76.800049491
 30
0.0
 11
-8.049442912
 21
77.159870136
 31
0.0
  0
LINE
  5
44
330
1D
100
AcDbEntity
  8
SK1
100
AcDbLine
 10
-8.049442912
 20
77.159870136
 30
0.0
 11
-8.475830959
 21
77.463057985
 31
0.0
  0
LINE
  5
45
330
1D
100
AcDbEntity
  8
SK1
100
AcDbLine
 10
-8.475830959
 20
77.463057985
 30
0.0
 11
-8.935758551
 21
77.70442541
 31
0.0
  0
LINE
  5
46
330
1D
100
AcDbEntity
  8
SK1
100
AcDbLine
 10
-8.935758551
 20
77.70442541
 30
0.0
 11
-9.421356199
 21
77.879842547
 31
0.0
  0
LINE
  5
47
330
1D
100
AcDbEntity
  8
SK1
100
AcDbLine
 10
-9.421356199
 20
77.879842547
 30
0.0
 11
-9.924315193
 21
77.986307962
 31
0.0
  0
LINE
  5
48
330
1D
100
AcDbEntity
  8
SK1
100
AcDbLine
 10
-9.924315193
 20
77.986307962
 30
0.0
 11
-10.436029766
 21
78.022
 31
0.0
  0
LINE
  5
49
330
1D
100
AcDbEntity
  8
SK1
100
AcDbLine
 10
-10.436029766
 20
78.022
 30
0.0
 11
-10.947744338
 21
77.986307962
 31
0.0
  0
LINE
  5
4A
330
1D
100
AcDbEntity
  8
SK1
100
AcDbLine
 10
-10.947744338
 20
77.986307962
 30
0.0
 11
-11.450703333
 21
77.879842547
 31
0.0
  0
LINE
  5
4B
330
1D
100
AcDbEntity
  8
SK1
100
AcDbLine
 10
-11.450703333
 20
77.879842547
 30
0.0
 11
-11.936300981
 21
77.70442541
 31
0.0
  0
LINE
  5
4C
330
1D
100
AcDbEntity
  8
SK1
100
AcDbLine
 10
-11.936300981
 20
77.70442541
 30
0.0
 11
-12.396228573
 21
77.463057985
 31
0.0
  0
LINE
  5
4D
330
1D
100
AcDbEntity
  8
SK1
100
AcDbLine
 10
-12.396228573
 20
77.463057985
 30
0.0
 11
-12.822616619
 21
77.159870136
 31
0.0
  0
LINE
  5
4E
330
1D
100
AcDbEntity
  8
SK1
100
AcDbLine
 10
-12.822616619
 20
77.159870136
 30
0.0
 11
-13.208169504
 21
76.800049491
 31
0.0
  0
LINE
  5
4F
330
1D
100
AcDbEntity
  8
SK1
100
AcDbLine
 10
-13.208169504
 20
76.800049491
 30
0.0
 11
-13.546290308
 21
76.389752682
 31
0.0
  0
LINE
  5
50
330
1D
100
AcDbEntity
  8
SK1
100
AcDbLine
 10
-13.546290308
 20
76.389752682
 30
0.0
 11
-13.831193692
 21
75.936
 31
0.0
  0
LINE
  5
51
330
1D
100
AcDbEntity
  8
SK1
100
AcDbLine
 10
-13.831193692
 20
75.936
 30
0.0
 11
-14.058004881
 21
75.44655528
 31
0.0
  0
LINE
  5
52
330
1D
100
AcDbEntity
  8
SK1
100
AcDbLine
 10
-14.058004881
 20
75.44655528
 30
0.0
 11
-14.22284307
 21
74.929793056
 31
0.0
  0
LINE
  5
53
330
1D
100
AcDbEntity
  8
SK1
100
AcDbLine
 10
-14.22284307
 20
74.929793056
 30
0.0
 11
-14.322887835
 21
74.394555274
 31
0.0
  0
LINE
  5
54
330
1D
100
AcDbEntity
  8
SK1
100
AcDbLine
 10
-14.322887835
 20
74.394555274
 30
0.0
 11
-14.35642738
 21
73.85
 31
0.0
  0
LINE
  5
55
330
1D
100
AcDbEntity
  8
SK1
100
AcDbLine
 10
-14.35642738
 20
73.85
 30
0.0
 11
-14.322887835
 21
73.305444726
 31
0.0
  0
LINE
  5
56
330
1D
100
AcDbEntity
  8
SK1
100
AcDbLine
 10
-14.322887835
 20
73.305444726
 30
0.0
 11
-14.22284307
 21
72.770206944
 31
0.0
  0
LINE
  5
57
330
1D
100
AcDbEntity
  8
SK1
100
AcDbLine
 10
-14.22284307
 20
72.770206944
 30
0.0
 11
-14.058004881
 21
72.25344472
 31
0.0
  0
LINE
  5
58
330
1D
100
AcDbEntity
  8
SK1
100
AcDbLine
 10
-14.058004881
 20
72.25344472
 30
0.0
 11
-13.831193692
 21
71.764
 31
0.0
  0
LINE
  5
59
330
1D
100
AcDbEntity
  8
SK1
100
AcDbLine
 10
-13.831193692
 20
71.764
 30
0.0
 11
-13.546290308
 21
71.310247318
 31
0.0
  0
LINE
  5
5A
330
1D
100
AcDbEntity
  8
SK1
100
AcDbLine
 10
-13.546290308
 20
71.310247318
 30
0.0
 11
-13.208169504
 21
70.899950509
 31
0.0
  0
LINE
  5
5B
330
1D
100
AcDbEntity
  8
SK1
100
AcDbLine
 10
-13.208169504
 20
70.899950509
 30
0.0
 11
-12.822616619
 21
70.540129864
 31
0.0
  0
LINE
  5
5C
330
1D
100
AcDbEntity
  8
SK1
100
AcDbLine
 10
-12.822616619
 20
70.540129864
 30
0.0
 11
-12.396228573
 21
70.236942015
 31
0.0
  0
LINE
  5
5D
330
1D
100
AcDbEntity
  8
SK1
100
AcDbLine
 10
-12.396228573
 20
70.236942015
 30
0.0
 11
-11.936300981
 21
69.99557459
 31
0.0
  0
LINE
  5
5E
330
1D
100
AcDbEntity
  8
SK1
100
AcDbLine
 10
-11.936300981
 20
69.99557459
 30
0.0
 11
-11.450703333
 21
69.820157453
 31
0.0
  0
LINE
  5
5F
330
1D
100
AcDbEntity
  8
SK1
100
AcDbLine
 10
-11.450703333
 20
69.820157453
 30
0.0
 11
-10.947744338
 21
69.713692038
 31
0.0
  0
LINE
  5
60
330
1D
100
AcDbEntity
  8
SK1
100
AcDbLine
 10
-10.947744338
 20
69.713692038
 30
0.0
 11
-10.436029766
 21
69.678
 31
0.0
  0
LINE
  5
61
330
1D
100
AcDbEntity
  8
SK1
100
AcDbLine
 10
-10.272528397
 20
68.85
 30
0.0
 11
-9.706191252
 21
68.88645563
 31
0.0
  0
LINE
  5
62
330
1D
100
AcDbEntity
  8
SK1
100
AcDbLine
 10
-9.706191252
 20
68.88645563
 30
0.0
 11
-9.148112578
 21
68.995290913
 31
0.0
  0
LINE
  5
63
330
1D
100
AcDbEntity
  8
SK1
100
AcDbLine
 10
-9.148112578
 20
68.995290913
 30
0.0
 11
-8.606430418
 21
69.174918787
 31
0.0
  0
LINE
  5
64
330
1D
100
AcDbEntity
  8
SK1
100
AcDbLine
 10
-8.606430418
 20
69.174918787
 30
0.0
 11
-8.089043719
 21
69.422719872
 31
0.0
  0
LINE
  5
65
330
1D
100
AcDbEntity
  8
SK1
100
AcDbLine
 10
-8.089043719
 20
69.422719872
 30
0.0
 11
-7.603497143
 21
69.735080671
 31
0.0
  0
LINE
  5
66
330
1D
100
AcDbEntity
  8
SK1
100
AcDbLine
 10
-7.603497143
 20
69.735080671
 30
0.0
 11
-7.156871053
 21
70.107446259
 31
0.0
  0
LINE
  5
67
330
1D
100
AcDbEntity
  8
SK1
100
AcDbLine
 10
-7.156871053
 20
70.107446259
 30
0.0
 11
-6.755678263
 21
70.534386709
 31
0.0
  0
LINE
  5
68
330
1D
100
AcDbEntity
  8
SK1
100
AcDbLine
 10
-6.755678263
 20
70.534386709
 30
0.0
 11
-6.405769068
 21
71.009676266
 31
0.0
  0
LINE
  5
69
330
1D
100
AcDbEntity
  8
SK1
100
AcDbLine
 10
-6.405769068
 20
71.009676266
 30
0.0
 11
-6.11224593
 21
71.52638414
 31
0.0
  0
LINE
  5
6A
330
1D
100
AcDbEntity
  8
SK1
100
AcDbLine
 10
-6.11224593
 20
71.52638414
 30
0.0
 11
-5.879389079
 21
72.076975565
 31
0.0
  0
LINE
  5
6B
330
1D
100
AcDbEntity
  8
SK1
100
AcDbLine
 10
-5.879389079
 20
72.076975565
 30
0.0
 11
-5.710594091
 21
72.653421679
 31
0.0
  0
LINE
  5
6C
330
1D
100
AcDbEntity
  8
SK1
100
AcDbLine
 10
-5.710594091
 20
72.653421679
 30
0.0
 11
-5.608322379
 21
73.247316599
 31
0.0
  0
LINE
  5
6D
330
1D
100
AcDbEntity
  8
SK1
100
AcDbLine
 10
-5.608322379
 20
73.247316599
 30
0.0
 11
-5.574065293
 21
73.85
 31
0.0
  0
LINE
  5
6E
330
1D
100
AcDbEntity
  8
SK1
100
AcDbLine
 10
-5.574065293
 20
73.85
 30
0.0
 11
-5.608322379
 21
74.452683401
 31
0.0
  0
LINE
  5
6F
330
1D
100
AcDbEntity
  8
SK1
100
AcDbLine
 10
-5.608322379
 20
74.452683401
 30
0.0
 11
-5.710594091
 21
75.046578321
 31
0.0
  0
LINE
  5
70
330
1D
100
AcDbEntity
  8
SK1
100
AcDbLine
 10
-5.710594091
 20
75.046578321
 30
0.0
 11
-5.879389079
 21
75.623024435
 31
0.0
  0
LINE
  5
71
330
1D
100
AcDbEntity
  8
SK1
100
AcDbLine
 10
-5.879389079
 20
75.623024435
 30
0.0
 11
-6.11224593
 21
76.17361586
 31
0.0
  0
LINE
  5
72
330
1D
100
AcDbEntity
  8
SK1
100
AcDbLine
 10
-6.11224593
 20
76.17361586
 30
0.0
 11
-6.405769068
 21
76.690323734
 31
0.0
  0
LINE
  5
73
330
1D
100
AcDbEntity
  8
SK1
100
AcDbLine
 10
-6.405769068
 20
76.690323734
 30
0.0
 11
-6.755678263
 21
77.165613291
 31
0.0
  0
LINE
  5
74
330
1D
100
AcDbEntity
  8
SK1
100
AcDbLine
 10
-6.755678263
 20
77.165613291
 30
0.0
 11
-7.156871053
 21
77.592553741
 31
0.0
  0
LINE
  5
75
330
1D
100
AcDbEntity
  8
SK1
100
AcDbLine
 10
-7.156871053
 20
77.592553741
 30
0.0
 11
-7.603497143
 21
77.964919329
 31
0.0
  0
LINE
  5
76
330
1D
100
AcDbEntity
  8
SK1
100
AcDbLine
 10
-7.603497143
 20
77.964919329
 30
0.0
 11
-8.089043719
 21
78.277280128
 31
0.0
  0
LINE
  5
77
330
1D
100
AcDbEntity
  8
SK1
100
AcDbLine
 10
-8.089043719
 20
78.277280128
 30
0.0
 11
-8.606430418
 21
78.525081213
 31
0.0
  0
LINE
  5
78
330
1D
100
AcDbEntity
  8
SK1
100
AcDbLine
 10
-8.606430418
 20
78.525081213
 30
0.0
 11
-9.148112578
 21
78.704709087
 31
0.0
  0
LINE
  5
79
330
1D
100
AcDbEntity
  8
SK1
100
AcDbLine
 10
-9.148112578
 20
78.704709087
 30
0.0
 11
-9.706191252
 21
78.81354437
 31
0.0
  0
LINE
  5
7A
330
1D
100
AcDbEntity
  8
SK1
100
AcDbLine
 10
-9.706191252
 20
78.81354437
 30
0.0
 11
-10.272528397
 21
78.85
 31
0.0
  0
LINE
  5
7B
330
1D
100
AcDbEntity
  8
SK1
100
AcDbLine
 10
-10.272528397
 20
78.85
 30
0.0
 11
-10.838865541
 21
78.81354437
 31
0.0
  0
LINE
  5
7C
330
1D
100
AcDbEntity
  8
SK1
100
AcDbLine
 10
-10.838865541
 20
78.81354437
 30
0.0
 11
-11.396944215
 21
78.704709087
 31
0.0
  0
LINE
  5
7D
330
1D
100
AcDbEntity
  8
SK1
100
AcDbLine
 10
-11.396944215
 20
78.704709087
 30
0.0
 11
-11.938626375
 21
78.525081213
 31
0.0
  0
LINE
  5
7E
330
1D
100
AcDbEntity
  8
SK1
100
AcDbLine
 10
-11.938626375
 20
78.525081213
 30
0.0
 11
-12.456013074
 21
78.277280128
 31
0.0
  0
LINE
  5
7F
330
1D
100
AcDbEntity
  8
SK1
100
AcDbLine
 10
-12.456013074
 20
78.277280128
 30
0.0
 11
-12.94155965
 21
77.964919329
 31
0.0
  0
LINE
  5
80
330
1D
100
AcDbEntity
  8
SK1
100
AcDbLine
 10
-12.94155965
 20
77.964919329
 30
0.0
 11
-13.38818574
 21
77.592553741
 31
0.0
  0
LINE
  5
81
330
1D
100
AcDbEntity
  8
SK1
100
AcDbLine
 10
-13.38818574
 20
77.592553741
 30
0.0
 11
-13.78937853
 21
77.165613291
 31
0.0
  0
LINE
  5
82
330
1D
100
AcDbEntity
  8
SK1
100
AcDbLine
 10
-13.78937853
 20
77.165613291
 30
0.0
 11
-14.139287725
 21
76.690323734
 31
0.0
  0
LINE
  5
83
330
1D
100
AcDbEntity
  8
SK1
100
AcDbLine
 10
-14.139287725
 20
76.690323734
 30
0.0
 11
-14.432810863
 21
76.17361586
 31
0.0
  0
LINE
  5
84
330
1D
100
AcDbEntity
  8
SK1
100
AcDbLine
 10
-14.432810863
 20
76.17361586
 30
0.0
 11
-14.665667714
 21
75.623024435
 31
0.0
  0
LINE
  5
85
330
1D
100
AcDbEntity
  8
SK1
100
AcDbLine
 10
-14.665667714
 20
75.623024435
 30
0.0
 11
-14.834462702
 21
75.046578321
 31
0.0
  0
LINE
  5
86
330
1D
100
AcDbEntity
  8
SK1
100
AcDbLine
 10
-14.834462702
 20
75.046578321
 30
0.0
 11
-14.936734414
 21
74.452683401
 31
0.0
  0
LINE
  5
87
330
1D
100
AcDbEntity
  8
SK1
100
AcDbLine
 10
-14.936734414
 20
74.452683401
 30
0.0
 11
-14.9709915
 21
73.85
 31
0.0
  0
LINE
  5
88
330
1D
100
AcDbEntity
  8
SK1
100
AcDbLine
 10
-14.9709915
 20
73.85
 30
0.0
 11
-14.936734414
 21
73.247316599
 31
0.0
  0
LINE
  5
89
330
1D
100
AcDbEntity
  8
SK1
100
AcDbLine
 10
-14.936734414
 20
73.247316599
 30
0.0
 11
-14.834462702
 21
72.653421679
 31
0.0
  0
LINE
  5
8A
330
1D
100
AcDbEntity
  8
SK1
100
AcDbLine
 10
-14.834462702
 20
72.653421679
 30
0.0
 11
-14.665667714
 21
72.076975565
 31
0.0
  0
LINE
  5
8B
330
1D
100
AcDbEntity
  8
SK1
100
AcDbLine
 10
-14.665667714
 20
72.076975565
 30
0.0
 11
-14.432810863
 21
71.52638414
 31
0.0
  0
LINE
  5
8C
330
1D
100
AcDbEntity
  8
SK1
100
AcDbLine
 10
-14.432810863
 20
71.52638414
 30
0.0
 11
-14.139287725
 21
71.009676266
 31
0.0
  0
LINE
  5
8D
330
1D
100
AcDbEntity
  8
SK1
100
AcDbLine
 10
-14.139287725
 20
71.009676266
 30
0.0
 11
-13.78937853
 21
70.534386709
 31
0.0
  0
LINE
  5
8E
330
1D
100
AcDbEntity
  8
SK1
100
AcDbLine
 10
-13.78937853
 20
70.534386709
 30
0.0
 11
-13.38818574
 21
70.107446259
 31
0.0
  0
LINE
  5
8F
330
1D
100
AcDbEntity
  8
SK1
100
AcDbLine
 10
-13.38818574
 20
70.107446259
 30
0.0
 11
-12.94155965
 21
69.735080671
 31
0.0
  0
LINE
  5
90
330
1D
100
AcDbEntity
  8
SK1
100
AcDbLine
 10
-12.94155965
 20
69.735080671
 30
0.0
 11
-12.456013074
 21
69.422719872
 31
0.0
  0
LINE
  5
91
330
1D
100
AcDbEntity
  8
SK1
100
AcDbLine
 10
-12.456013074
 20
69.422719872
 30
0.0
 11
-11.938626375
 21
69.174918787
 31
0.0
  0
LINE
  5
92
330
1D
100
AcDbEntity
  8
SK1
100
AcDbLine
 10
-11.938626375
 20
69.174918787
 30
0.0
 11
-11.396944215
 21
68.995290913
 31
0.0
  0
LINE
  5
93
330
1D
100
AcDbEntity
  8
SK1
100
AcDbLine
 10
-11.396944215
 20
68.995290913
 30
0.0
 11
-10.838865541
 21
68.88645563
 31
0.0
  0
LINE
  5
94
330
1D
100
AcDbEntity
  8
SK1
100
AcDbLine
 10
-10.838865541
 20
68.88645563
 30
0.0
 11
-10.272528397
 21
68.85
 31
0.0
  0
LINE
  5
95
330
1D
100
AcDbEntity
  8
SK1
100
AcDbLine
 10
-8.086798214
 20
75.293375673
 30
0.0
 11
-10.436029766
 21
76.736751346
 31
0.0
  0
LINE
  5
96
330
1D
100
AcDbEntity
  8
SK1
100
AcDbLine
 10
-12.785261318
 20
75.293375673
 30
0.0
 11
-10.436029766
 21
76.736751346
 31
0.0
  0
LINE
  5
97
330
1D
100
AcDbEntity
  8
SK1
100
AcDbLine
 10
-12.785261318
 20
72.406624327
 30
0.0
 11
-12.785261318
 21
75.293375673
 31
0.0
  0
LINE
  5
98
330
1D
100
AcDbEntity
  8
SK1
100
AcDbLine
 10
-12.785261318
 20
72.406624327
 30
0.0
 11
-10.436029766
 21
70.963248654
 31
0.0
  0
LINE
  5
99
330
1D
100
AcDbEntity
  8
SK1
100
AcDbLine
 10
-8.086798214
 20
72.406624327
 30
0.0
 11
-10.436029766
 21
70.963248654
 31
0.0
  0
LINE
  5
9A
330
1D
100
AcDbEntity
  8
SK1
100
AcDbLine
 10
-8.086798214
 20
72.406624327
 30
0.0
 11
-8.086798214
 21
75.293375673
 31
0.0
  0
LINE
  5
9B
330
1D
100
AcDbEntity
  8
SK1
100
AcDbLine
 10
-10.733140458
 20
72.406624327
 30
0.0
 11
-12.785261318
 21
72.406624327
 31
0.0
  0
LINE
  5
9C
330
1D
100
AcDbEntity
  8
SK1
100
AcDbLine
 10
-10.733140458
 20
72.406624327
 30
0.0
 11
-9.409969336
 21
71.593663592
 31
0.0
  0
LINE
  5
9D
330
1D
100
AcDbEntity
  8
SK1
100
AcDbLine
 10
-10.733140458
 20
75.293375673
 30
0.0
 11
-9.409969336
 21
76.106336408
 31
0.0
  0
LINE
  5
9E
330
1D
100
AcDbEntity
  8
SK1
100
AcDbLine
 10
-10.733140458
 20
75.293375673
 30
0.0
 11
-12.785261318
 21
75.293375673
 31
0.0
  0
LINE
  5
9F
330
1D
100
AcDbEntity
  8
SK1
100
AcDbLine
 10
-10.733140458
 20
72.406624327
 30
0.0
 11
-10.733140458
 21
75.293375673
 31
0.0
  0
LINE
  5
A0
330
1D
100
AcDbEntity
  8
SK1
100
AcDbLine
 10
-13.831193692
 20
49.936
 30
0.0
 11
-14.058004881
 21
49.44655528
 31
0.0
  0
LINE
  5
A1
330
1D
100
AcDbEntity
  8
SK1
100
AcDbLine
 10
-14.058004881
 20
49.44655528
 30
0.0
 11
-14.22284307
 21
48.929793056
 31
0.0
  0
LINE
  5
A2
330
1D
100
AcDbEntity
  8
SK1
100
AcDbLine
 10
-14.22284307
 20
48.929793056
 30
0.0
 11
-14.322887835
 21
48.394555274
 31
0.0
  0
LINE
  5
A3
330
1D
100
AcDbEntity
  8
SK1
100
AcDbLine
 10
-14.322887835
 20
48.394555274
 30
0.0
 11
-14.35642738
 21
47.85
 31
0.0
  0
LINE
  5
A4
330
1D
100
AcDbEntity
  8
SK1
100
AcDbLine
 10
-14.35642738
 20
47.85
 30
0.0
 11
-14.322887835
 21
47.305444726
 31
0.0
  0
LINE
  5
A5
330
1D
100
AcDbEntity
  8
SK1
100
AcDbLine
 10
-14.322887835
 20
47.305444726
 30
0.0
 11
-14.22284307
 21
46.770206944
 31
0.0
  0
LINE
  5
A6
330
1D
100
AcDbEntity
  8
SK1
100
AcDbLine
 10
-14.22284307
 20
46.770206944
 30
0.0
 11
-14.058004881
 21
46.25344472
 31
0.0
  0
LINE
  5
A7
330
1D
100
AcDbEntity
  8
SK1
100
AcDbLine
 10
-14.058004881
 20
46.25344472
 30
0.0
 11
-13.831193692
 21
45.764
 31
0.0
  0
LINE
  5
A8
330
1D
100
AcDbEntity
  8
SK1
100
AcDbLine
 10
-13.831193692
 20
45.764
 30
0.0
 11
-13.546290308
 21
45.310247318
 31
0.0
  0
LINE
  5
A9
330
1D
100
AcDbEntity
  8
SK1
100
AcDbLine
 10
-13.546290308
 20
45.310247318
 30
0.0
 11
-13.208169504
 21
44.899950509
 31
0.0
  0
LINE
  5
AA
330
1D
100
AcDbEntity
  8
SK1
100
AcDbLine
 10
-13.208169504
 20
44.899950509
 30
0.0
 11
-12.822616619
 21
44.540129864
 31
0.0
  0
LINE
  5
AB
330
1D
100
AcDbEntity
  8
SK1
100
AcDbLine
 10
-12.822616619
 20
44.540129864
 30
0.0
 11
-12.396228573
 21
44.236942015
 31
0.0
  0
LINE
  5
AC
330
1D
100
AcDbEntity
  8
SK1
100
AcDbLine
 10
-12.396228573
 20
44.236942015
 30
0.0
 11
-11.936300981
 21
43.99557459
 31
0.0
  0
LINE
  5
AD
330
1D
100
AcDbEntity
  8
SK1
100
AcDbLine
 10
-11.936300981
 20
43.99557459
 30
0.0
 11
-11.450703333
 21
43.820157453
 31
0.0
  0
LINE
  5
AE
330
1D
100
AcDbEntity
  8
SK1
100
AcDbLine
 10
-11.450703333
 20
43.820157453
 30
0.0
 11
-10.947744338
 21
43.713692038
 31
0.0
  0
LINE
  5
AF
330
1D
100
AcDbEntity
  8
SK1
100
AcDbLine
 10
-10.947744338
 20
43.713692038
 30
0.0
 11
-10.436029766
 21
43.678
 31
0.0
  0
LINE
  5
B0
330
1D
100
AcDbEntity
  8
SK1
100
AcDbLine
 10
-10.436029766
 20
43.678
 30
0.0
 11
-9.924315193
 21
43.713692038
 31
0.0
  0
LINE
  5
B1
330
1D
100
AcDbEntity
  8
SK1
100
AcDbLine
 10
-9.924315193
 20
43.713692038
 30
0.0
 11
-9.421356199
 21
43.820157453
 31
0.0
  0
LINE
  5
B2
330
1D
100
AcDbEntity
  8
SK1
100
AcDbLine
 10
-9.421356199
 20
43.820157453
 30
0.0
 11
-8.935758551
 21
43.99557459
 31
0.0
  0
LINE
  5
B3
330
1D
100
AcDbEntity
  8
SK1
100
AcDbLine
 10
-8.935758551
 20
43.99557459
 30
0.0
 11
-8.475830959
 21
44.236942015
 31
0.0
  0
LINE
  5
B4
330
1D
100
AcDbEntity
  8
SK1
100
AcDbLine
 10
-8.475830959
 20
44.236942015
 30
0.0
 11
-8.049442912
 21
44.540129864
 31
0.0
  0
LINE
  5
B5
330
1D
100
AcDbEntity
  8
SK1
100
AcDbLine
 10
-8.049442912
 20
44.540129864
 30
0.0
 11
-7.663890028
 21
44.899950509
 31
0.0
  0
LINE
  5
B6
330
1D
100
AcDbEntity
  8
SK1
100
AcDbLine
 10
-7.663890028
 20
44.899950509
 30
0.0
 11
-7.325769224
 21
45.310247318
 31
0.0
  0
LINE
  5
B7
330
1D
100
AcDbEntity
  8
SK1
100
AcDbLine
 10
-7.325769224
 20
45.310247318
 30
0.0
 11
-7.040865839
 21
45.764
 31
0.0
  0
LINE
  5
B8
330
1D
100
AcDbEntity
  8
SK1
100
AcDbLine
 10
-7.040865839
 20
45.764
 30
0.0
 11
-6.814054651
 21
46.25344472
 31
0.0
  0
LINE
  5
B9
330
1D
100
AcDbEntity
  8
SK1
100
AcDbLine
 10
-6.814054651
 20
46.25344472
 30
0.0
 11
-6.649216461
 21
46.770206944
 31
0.0
  0
LINE
  5
BA
330
1D
100
AcDbEntity
  8
SK1
100
AcDbLine
 10
-6.649216461
 20
46.770206944
 30
0.0
 11
-6.549171697
 21
47.305444726
 31
0.0
  0
LINE
  5
BB
330
1D
100
AcDbEntity
  8
SK1
100
AcDbLine
 10
-6.549171697
 20
47.305444726
 30
0.0
 11
-6.515632152
 21
47.85
 31
0.0
  0
LINE
  5
BC
330
1D
100
AcDbEntity
  8
SK1
100
AcDbLine
 10
-6.515632152
 20
47.85
 30
0.0
 11
-6.549171697
 21
48.394555274
 31
0.0
  0
LINE
  5
BD
330
1D
100
AcDbEntity
  8
SK1
100
AcDbLine
 10
-6.549171697
 20
48.394555274
 30
0.0
 11
-6.649216461
 21
48.929793056
 31
0.0
  0
LINE
  5
BE
330
1D
100
AcDbEntity
  8
SK1
100
AcDbLine
 10
-6.649216461
 20
48.929793056
 30
0.0
 11
-6.814054651
 21
49.44655528
 31
0.0
  0
LINE
  5
BF
330
1D
100
AcDbEntity
  8
SK1
100
AcDbLine
 10
-6.814054651
 20
49.44655528
 30
0.0
 11
-7.040865839
 21
49.936
 31
0.0
  0
LINE
  5
C0
330
1D
100
AcDbEntity
  8
SK1
100
AcDbLine
 10
-7.040865839
 20
49.936
 30
0.0
 11
-7.325769224
 21
50.389752682
 31
0.0
  0
LINE
  5
C1
330
1D
100
AcDbEntity
  8
SK1
100
AcDbLine
 10
-7.325769224
 20
50.389752682
 30
0.0
 11
-7.663890028
 21
50.800049491
 31
0.0
  0
LINE
  5
C2
330
1D
100
AcDbEntity
  8
SK1
100
AcDbLine
 10
-7.663890028
 20
50.800049491
 30
0.0
 11
-8.049442912
 21
51.159870136
 31
0.0
  0
LINE
  5
C3
330
1D
100
AcDbEntity
  8
SK1
100
AcDbLine
 10
-8.049442912
 20
51.159870136
 30
0.0
 11
-8.475830959
 21
51.463057985
 31
0.0
  0
LINE
  5
C4
330
1D
100
AcDbEntity
  8
SK1
100
AcDbLine
 10
-8.475830959
 20
51.463057985
 30
0.0
 11
-8.935758551
 21
51.70442541
 31
0.0
  0
LINE
  5
C5
330
1D
100
AcDbEntity
  8
SK1
100
AcDbLine
 10
-8.935758551
 20
51.70442541
 30
0.0
 11
-9.421356199
 21
51.879842547
 31
0.0
  0
LINE
  5
C6
330
1D
100
AcDbEntity
  8
SK1
100
AcDbLine
 10
-9.421356199
 20
51.879842547
 30
0.0
 11
-9.924315193
 21
51.986307962
 31
0.0
  0
LINE
  5
C7
330
1D
100
AcDbEntity
  8
SK1
100
AcDbLine
 10
-9.924315193
 20
51.986307962
 30
0.0
 11
-10.436029766
 21
52.022
 31
0.0
  0
LINE
  5
C8
330
1D
100
AcDbEntity
  8
SK1
100
AcDbLine
 10
-10.436029766
 20
52.022
 30
0.0
 11
-10.947744338
 21
51.986307962
 31
0.0
  0
LINE
  5
C9
330
1D
100
AcDbEntity
  8
SK1
100
AcDbLine
 10
-10.947744338
 20
51.986307962
 30
0.0
 11
-11.450703333
 21
51.879842547
 31
0.0
  0
LINE
  5
CA
330
1D
100
AcDbEntity
  8
SK1
100
AcDbLine
 10
-11.450703333
 20
51.879842547
 30
0.0
 11
-11.936300981
 21
51.70442541
 31
0.0
  0
LINE
  5
CB
330
1D
100
AcDbEntity
  8
SK1
100
AcDbLine
 10
-11.936300981
 20
51.70442541
 30
0.0
 11
-12.396228573
 21
51.463057985
 31
0.0
  0
LINE
  5
CC
330
1D
100
AcDbEntity
  8
SK1
100
AcDbLine
 10
-12.396228573
 20
51.463057985
 30
0.0
 11
-12.822616619
 21
51.159870136
 31
0.0
  0
LINE
  5
CD
330
1D
100
AcDbEntity
  8
SK1
100
AcDbLine
 10
-12.822616619
 20
51.159870136
 30
0.0
 11
-13.208169504
 21
50.800049491
 31
0.0
  0
LINE
  5
CE
330
1D
100
AcDbEntity
  8
SK1
100
AcDbLine
 10
-13.208169504
 20
50.800049491
 30
0.0
 11
-13.546290308
 21
50.389752682
 31
0.0
  0
LINE
  5
CF
330
1D
100
AcDbEntity
  8
SK1
100
AcDbLine
 10
-13.546290308
 20
50.389752682
 30
0.0
 11
-13.831193692
 21
49.936
 31
0.0
  0
LINE
  5
D0
330
1D
100
AcDbEntity
  8
SK1
100
AcDbLine
 10
-14.341516803
 20
50.35
 30
0.0
 11
-14.595017869
 21
49.809833049
 31
0.0
  0
LINE
  5
D1
330
1D
100
AcDbEntity
  8
SK1
100
AcDbLine
 10
-14.595017869
 20
49.809833049
 30
0.0
 11
-14.785487305
 21
49.24108732
 31
0.0
  0
LINE
  5
D2
330
1D
100
AcDbEntity
  8
SK1
100
AcDbLine
 10
-14.785487305
 20
49.24108732
 30
0.0
 11
-14.910147637
 21
48.652056404
 31
0.0
  0
LINE
  5
D3
330
1D
100
AcDbEntity
  8
SK1
100
AcDbLine
 10
-14.910147637
 20
48.652056404
 30
0.0
 11
-14.967181038
 21
48.051329701
 31
0.0
  0
LINE
  5
D4
330
1D
100
AcDbEntity
  8
SK1
100
AcDbLine
 10
-14.967181038
 20
48.051329701
 30
0.0
 11
-14.955755832
 21
47.447667156
 31
0.0
  0
LINE
  5
D5
330
1D
100
AcDbEntity
  8
SK1
100
AcDbLine
 10
-14.955755832
 20
47.447667156
 30
0.0
 11
-14.876038625
 21
46.849871531
 31
0.0
  0
LINE
  5
D6
330
1D
100
AcDbEntity
  8
SK1
100
AcDbLine
 10
-14.876038625
 20
46.849871531
 30
0.0
 11
-14.729191872
 21
46.266660031
 31
0.0
  0
LINE
  5
D7
330
1D
100
AcDbEntity
  8
SK1
100
AcDbLine
 10
-14.729191872
 20
46.266660031
 30
0.0
 11
-14.51735693
 21
45.706537193
 31
0.0
  0
LINE
  5
D8
330
1D
100
AcDbEntity
  8
SK1
100
AcDbLine
 10
-14.51735693
 20
45.706537193
 30
0.0
 11
-14.243622829
 21
45.177670869
 31
0.0
  0
LINE
  5
D9
330
1D
100
AcDbEntity
  8
SK1
100
AcDbLine
 10
-14.243622829
 20
45.177670869
 30
0.0
 11
-13.91198123
 21
44.687773122
 31
0.0
  0
LINE
  5
DA
330
1D
100
AcDbEntity
  8
SK1
100
AcDbLine
 10
-13.91198123
 20
44.687773122
 30
0.0
 11
-13.527268213
 21
44.243987763
 31
0.0
  0
LINE
  5
DB
330
1D
100
AcDbEntity
  8
SK1
100
AcDbLine
 10
-13.527268213
 20
44.243987763
 30
0.0
 11
-13.09509376
 21
43.852786183
 31
0.0
  0
LINE
  5
DC
330
1D
100
AcDbEntity
  8
SK1
100
AcDbLine
 10
-13.09509376
 20
43.852786183
 30
0.0
 11
-12.621759948
 21
43.519872981
 31
0.0
  0
LINE
  5
DD
330
1D
100
AcDbEntity
  8
SK1
100
AcDbLine
 10
-12.621759948
 20
43.519872981
 30
0.0
 11
-12.114169051
 21
43.250102782
 31
0.0
  0
LINE
  5
DE
330
1D
100
AcDbEntity
  8
SK1
100
AcDbLine
 10
-12.114169051
 20
43.250102782
 30
0.0
 11
-11.579722886
 21
43.047409442
 31
0.0
  0
LINE
  5
DF
330
1D
100
AcDbEntity
  8
SK1
100
AcDbLine
 10
-11.579722886
 20
43.047409442
 30
0.0
 11
-11.026214881
 21
42.914748687
 31
0.0
  0
LINE
  5
E0
330
1D
100
AcDbEntity
  8
SK1
100
AcDbLine
 10
-11.026214881
 20
42.914748687
 30
0.0
 11
-10.461716431
 21
42.854055009
 31
0.0
  0
LINE
  5
E1
330
1D
100
AcDbEntity
  8
SK1
100
AcDbLine
 10
-10.461716431
 20
42.854055009
 30
0.0
 11
-9.894459192
 21
42.866213459
 31
0.0
  0
LINE
  5
E2
330
1D
100
AcDbEntity
  8
SK1
100
AcDbLine
 10
-9.894459192
 20
42.866213459
 30
0.0
 11
-9.332715054
 21
42.95104674
 31
0.0
  0
LINE
  5
E3
330
1D
100
AcDbEntity
  8
SK1
100
AcDbLine
 10
-9.332715054
 20
42.95104674
 30
0.0
 11
-8.784675511
 21
43.10731779
 31
0.0
  0
LINE
  5
E4
330
1D
100
AcDbEntity
  8
SK1
100
AcDbLine
 10
-8.784675511
 20
43.10731779
 30
0.0
 11
-8.258332214
 21
43.332747827
 31
0.0
  0
LINE
  5
E5
330
1D
100
AcDbEntity
  8
SK1
100
AcDbLine
 10
-8.258332214
 20
43.332747827
 30
0.0
 11
-7.761360432
 21
43.624049572
 31
0.0
  0
LINE
  5
E6
330
1D
100
AcDbEntity
  8
SK1
100
AcDbLine
 10
-7.761360432
 20
43.624049572
 30
0.0
 11
-7.301007134
 21
43.976975191
 31
0.0
  0
LINE
  5
E7
330
1D
100
AcDbEntity
  8
SK1
100
AcDbLine
 10
-7.301007134
 20
43.976975191
 30
0.0
 11
-6.883985307
 21
44.386378232
 31
0.0
  0
LINE
  5
E8
330
1D
100
AcDbEntity
  8
SK1
100
AcDbLine
 10
-6.883985307
 20
44.386378232
 30
0.0
 11
-6.516376069
 21
44.846288679
 31
0.0
  0
LINE
  5
E9
330
1D
100
AcDbEntity
  8
SK1
100
AcDbLine
 10
-6.516376069
 20
44.846288679
 30
0.0
 11
-6.20353999
 21
45.35
 31
0.0
  0
LINE
  5
EA
330
1D
100
AcDbEntity
  8
SK1
100
AcDbLine
 10
-6.20353999
 20
45.35
 30
0.0
 11
-5.950038924
 21
45.890166951
 31
0.0
  0
LINE
  5
EB
330
1D
100
AcDbEntity
  8
SK1
100
AcDbLine
 10
-5.950038924
 20
45.890166951
 30
0.0
 11
-5.759569488
 21
46.45891268
 31
0.0
  0
LINE
  5
EC
330
1D
100
AcDbEntity
  8
SK1
100
AcDbLine
 10
-5.759569488
 20
46.45891268
 30
0.0
 11
-5.634909156
 21
47.047943596
 31
0.0
  0
LINE
  5
ED
330
1D
100
AcDbEntity
  8
SK1
100
AcDbLine
 10
-5.634909156
 20
47.047943596
 30
0.0
 11
-5.577875755
 21
47.648670299
 31
0.0
  0
LINE
  5
EE
330
1D
100
AcDbEntity
  8
SK1
100
AcDbLine
 10
-5.577875755
 20
47.648670299
 30
0.0
 11
-5.589300961
 21
48.252332844
 31
0.0
  0
LINE
  5
EF
330
1D
100
AcDbEntity
  8
SK1
100
AcDbLine
 10
-5.589300961
 20
48.252332844
 30
0.0
 11
-5.669018168
 21
48.850128469
 31
0.0
  0
LINE
  5
F0
330
1D
100
AcDbEntity
  8
SK1
100
AcDbLine
 10
-5.669018168
 20
48.850128469
 30
0.0
 11
-5.815864921
 21
49.433339969
 31
0.0
  0
LINE
  5
F1
330
1D
100
AcDbEntity
  8
SK1
100
AcDbLine
 10
-5.815864921
 20
49.433339969
 30
0.0
 11
-6.027699863
 21
49.993462807
 31
0.0
  0
LINE
  5
F2
330
1D
100
AcDbEntity
  8
SK1
100
AcDbLine
 10
-6.027699863
 20
49.993462807
 30
0.0
 11
-6.301433964
 21
50.522329131
 31
0.0
  0
LINE
  5
F3
330
1D
100
AcDbEntity
  8
SK1
100
AcDbLine
 10
-6.301433964
 20
50.522329131
 30
0.0
 11
-6.633075563
 21
51.012226878
 31
0.0
  0
LINE
  5
F4
330
1D
100
AcDbEntity
  8
SK1
100
AcDbLine
 10
-6.633075563
 20
51.012226878
 30
0.0
 11
-7.01778858
 21
51.456012237
 31
0.0
  0
LINE
  5
F5
330
1D
100
AcDbEntity
  8
SK1
100
AcDbLine
 10
-7.01778858
 20
51.456012237
 30
0.0
 11
-7.449963033
 21
51.847213817
 31
0.0
  0
LINE
  5
F6
330
1D
100
AcDbEntity
  8
SK1
100
AcDbLine
 10
-7.449963033
 20
51.847213817
 30
0.0
 11
-7.923296845
 21
52.180127019
 31
0.0
  0
LINE
  5
F7
330
1D
100
AcDbEntity
  8
SK1
100
AcDbLine
 10
-7.923296845
 20
52.180127019
 30
0.0
 11
-8.430887742
 21
52.449897218
 31
0.0
  0
LINE
  5
F8
330
1D
100
AcDbEntity
  8
SK1
100
AcDbLine
 10
-8.430887742
 20
52.449897218
 30
0.0
 11
-8.965333907
 21
52.652590558
 31
0.0
  0
LINE
  5
F9
330
1D
100
AcDbEntity
  8
SK1
100
AcDbLine
 10
-8.965333907
 20
52.652590558
 30
0.0
 11
-9.518841912
 21
52.785251313
 31
0.0
  0
LINE
  5
FA
330
1D
100
AcDbEntity
  8
SK1
100
AcDbLine
 10
-9.518841912
 20
52.785251313
 30
0.0
 11
-10.083340363
 21
52.845944991
 31
0.0
  0
LINE
  5
FB
330
1D
100
AcDbEntity
  8
SK1
100
AcDbLine
 10
-10.083340363
 20
52.845944991
 30
0.0
 11
-10.650597601
 21
52.833786541
 31
0.0
  0
LINE
  5
FC
330
1D
100
AcDbEntity
  8
SK1
100
AcDbLine
 10
-10.650597601
 20
52.833786541
 30
0.0
 11
-11.212341739
 21
52.74895326
 31
0.0
  0
LINE
  5
FD
330
1D
100
AcDbEntity
  8
SK1
100
AcDbLine
 10
-11.212341739
 20
52.74895326
 30
0.0
 11
-11.760381282
 21
52.59268221
 31
0.0
  0
LINE
  5
FE
330
1D
100
AcDbEntity
  8
SK1
100
AcDbLine
 10
-11.760381282
 20
52.59268221
 30
0.0
 11
-12.286724579
 21
52.367252173
 31
0.0
  0
LINE
  5
FF
330
1D
100
AcDbEntity
  8
SK1
100
AcDbLine
 10
-12.286724579
 20
52.367252173
 30
0.0
 11
-12.783696361
 21
52.075950428
 31
0.0
  0
LINE
  5
100
330
1D
100
AcDbEntity
  8
SK1
100
AcDbLine
 10
-12.783696361
 20
52.075950428
 30
0.0
 11
-13.244049659
 21
51.723024809
 31
0.0
  0
LINE
  5
101
330
1D
100
AcDbEntity
  8
SK1
100
AcDbLine
 10
-13.244049659
 20
51.723024809
 30
0.0
 11
-13.661071486
 21
51.313621768
 31
0.0
  0
LINE
  5
102
330
1D
100
AcDbEntity
  8
SK1
100
AcDbLine
 10
-13.661071486
 20
51.313621768
 30
0.0
 11
-14.028680724
 21
50.853711321
 31
0.0
  0
LINE
  5
103
330
1D
100
AcDbEntity
  8
SK1
100
AcDbLine
 10
-14.028680724
 20
50.853711321
 30
0.0
 11
-14.341516803
 21
50.35
 31
0.0
  0
LINE
  5
104
330
1D
100
AcDbEntity
  8
SK1
100
AcDbLine
 10
-10.436029766
 20
44.963248654
 30
0.0
 11
-8.086798214
 21
46.406624327
 31
0.0
  0
LINE
  5
105
330
1D
100
AcDbEntity
  8
SK1
100
AcDbLine
 10
-8.086798214
 20
49.293375673
 30
0.0
 11
-8.086798214
 21
46.406624327
 31
0.0
  0
LINE
  5
106
330
1D
100
AcDbEntity
  8
SK1
100
AcDbLine
 10
-10.436029766
 20
50.736751346
 30
0.0
 11
-8.086798214
 21
49.293375673
 31
0.0
  0
LINE
  5
107
330
1D
100
AcDbEntity
  8
SK1
100
AcDbLine
 10
-10.436029766
 20
50.736751346
 30
0.0
 11
-12.785261318
 21
49.293375673
 31
0.0
  0
LINE
  5
108
330
1D
100
AcDbEntity
  8
SK1
100
AcDbLine
 10
-12.785261318
 20
46.406624327
 30
0.0
 11
-12.785261318
 21
49.293375673
 31
0.0
  0
LINE
  5
109
330
1D
100
AcDbEntity
  8
SK1
100
AcDbLine
 10
-12.785261318
 20
46.406624327
 30
0.0
 11
-10.436029766
 21
44.963248654
 31
0.0
  0
LINE
  5
10A
330
1D
100
AcDbEntity
  8
SK1
100
AcDbLine
 10
-9.409969336
 20
50.106336408
 30
0.0
 11
-10.733140458
 21
49.293375673
 31
0.0
  0
LINE
  5
10B
330
1D
100
AcDbEntity
  8
SK1
100
AcDbLine
 10
-10.733140458
 20
49.293375673
 30
0.0
 11
-12.785261318
 21
49.293375673
 31
0.0
  0
LINE
  5
10C
330
1D
100
AcDbEntity
  8
SK1
100
AcDbLine
 10
-10.733140458
 20
46.406624327
 30
0.0
 11
-12.785261318
 21
46.406624327
 31
0.0
  0
LINE
  5
10D
330
1D
100
AcDbEntity
  8
SK1
100
AcDbLine
 10
-10.733140458
 20
46.406624327
 30
0.0
 11
-9.409969336
 21
45.593663592
 31
0.0
  0
LINE
  5
10E
330
1D
100
AcDbEntity
  8
SK1
100
AcDbLine
 10
-10.733140458
 20
46.406624327
 30
0.0
 11
-10.733140458
 21
49.293375673
 31
0.0
  0
LINE
  5
10F
330
1D
100
AcDbEntity
  8
SK1
100
AcDbLine
 10
-7.040865839
 20
58.764
 30
0.0
 11
-6.814054651
 21
59.25344472
 31
0.0
  0
LINE
  5
110
330
1D
100
AcDbEntity
  8
SK1
100
AcDbLine
 10
-6.814054651
 20
59.25344472
 30
0.0
 11
-6.649216461
 21
59.770206944
 31
0.0
  0
LINE
  5
111
330
1D
100
AcDbEntity
  8
SK1
100
AcDbLine
 10
-6.649216461
 20
59.770206944
 30
0.0
 11
-6.549171697
 21
60.305444726
 31
0.0
  0
LINE
  5
112
330
1D
100
AcDbEntity
  8
SK1
100
AcDbLine
 10
-6.549171697
 20
60.305444726
 30
0.0
 11
-6.515632152
 21
60.85
 31
0.0
  0
LINE
  5
113
330
1D
100
AcDbEntity
  8
SK1
100
AcDbLine
 10
-6.515632152
 20
60.85
 30
0.0
 11
-6.549171697
 21
61.394555274
 31
0.0
  0
LINE
  5
114
330
1D
100
AcDbEntity
  8
SK1
100
AcDbLine
 10
-6.549171697
 20
61.394555274
 30
0.0
 11
-6.649216461
 21
61.929793056
 31
0.0
  0
LINE
  5
115
330
1D
100
AcDbEntity
  8
SK1
100
AcDbLine
 10
-6.649216461
 20
61.929793056
 30
0.0
 11
-6.814054651
 21
62.44655528
 31
0.0
  0
LINE
  5
116
330
1D
100
AcDbEntity
  8
SK1
100
AcDbLine
 10
-6.814054651
 20
62.44655528
 30
0.0
 11
-7.040865839
 21
62.936
 31
0.0
  0
LINE
  5
117
330
1D
100
AcDbEntity
  8
SK1
100
AcDbLine
 10
-7.040865839
 20
62.936
 30
0.0
 11
-7.325769224
 21
63.389752682
 31
0.0
  0
LINE
  5
118
330
1D
100
AcDbEntity
  8
SK1
100
AcDbLine
 10
-7.325769224
 20
63.389752682
 30
0.0
 11
-7.663890028
 21
63.800049491
 31
0.0
  0
LINE
  5
119
330
1D
100
AcDbEntity
  8
SK1
100
AcDbLine
 10
-7.663890028
 20
63.800049491
 30
0.0
 11
-8.049442912
 21
64.159870136
 31
0.0
  0
LINE
  5
11A
330
1D
100
AcDbEntity
  8
SK1
100
AcDbLine
 10
-8.049442912
 20
64.159870136
 30
0.0
 11
-8.475830959
 21
64.463057985
 31
0.0
  0
LINE
  5
11B
330
1D
100
AcDbEntity
  8
SK1
100
AcDbLine
 10
-8.475830959
 20
64.463057985
 30
0.0
 11
-8.935758551
 21
64.70442541
 31
0.0
  0
LINE
  5
11C
330
1D
100
AcDbEntity
  8
SK1
100
AcDbLine
 10
-8.935758551
 20
64.70442541
 30
0.0
 11
-9.421356199
 21
64.879842547
 31
0.0
  0
LINE
  5
11D
330
1D
100
AcDbEntity
  8
SK1
100
AcDbLine
 10
-9.421356199
 20
64.879842547
 30
0.0
 11
-9.924315193
 21
64.986307962
 31
0.0
  0
LINE
  5
11E
330
1D
100
AcDbEntity
  8
SK1
100
AcDbLine
 10
-9.924315193
 20
64.986307962
 30
0.0
 11
-10.436029766
 21
65.022
 31
0.0
  0
LINE
  5
11F
330
1D
100
AcDbEntity
  8
SK1
100
AcDbLine
 10
-10.436029766
 20
65.022
 30
0.0
 11
-10.947744338
 21
64.986307962
 31
0.0
  0
LINE
  5
120
330
1D
100
AcDbEntity
  8
SK1
100
AcDbLine
 10
-10.947744338
 20
64.986307962
 30
0.0
 11
-11.450703333
 21
64.879842547
 31
0.0
  0
LINE
  5
121
330
1D
100
AcDbEntity
  8
SK1
100
AcDbLine
 10
-11.450703333
 20
64.879842547
 30
0.0
 11
-11.936300981
 21
64.70442541
 31
0.0
  0
LINE
  5
122
330
1D
100
AcDbEntity
  8
SK1
100
AcDbLine
 10
-11.936300981
 20
64.70442541
 30
0.0
 11
-12.396228573
 21
64.463057985
 31
0.0
  0
LINE
  5
123
330
1D
100
AcDbEntity
  8
SK1
100
AcDbLine
 10
-12.396228573
 20
64.463057985
 30
0.0
 11
-12.822616619
 21
64.159870136
 31
0.0
  0
LINE
  5
124
330
1D
100
AcDbEntity
  8
SK1
100
AcDbLine
 10
-12.822616619
 20
64.159870136
 30
0.0
 11
-13.208169504
 21
63.800049491
 31
0.0
  0
LINE
  5
125
330
1D
100
AcDbEntity
  8
SK1
100
AcDbLine
 10
-13.208169504
 20
63.800049491
 30
0.0
 11
-13.546290308
 21
63.389752682
 31
0.0
  0
LINE
  5
126
330
1D
100
AcDbEntity
  8
SK1
100
AcDbLine
 10
-13.546290308
 20
63.389752682
 30
0.0
 11
-13.831193692
 21
62.936
 31
0.0
  0
LINE
  5
127
330
1D
100
AcDbEntity
  8
SK1
100
AcDbLine
 10
-13.831193692
 20
62.936
 30
0.0
 11
-14.058004881
 21
62.44655528
 31
0.0
  0
LINE
  5
128
330
1D
100
AcDbEntity
  8
SK1
100
AcDbLine
 10
-14.058004881
 20
62.44655528
 30
0.0
 11
-14.22284307
 21
61.929793056
 31
0.0
  0
LINE
  5
129
330
1D
100
AcDbEntity
  8
SK1
100
AcDbLine
 10
-14.22284307
 20
61.929793056
 30
0.0
 11
-14.322887835
 21
61.394555274
 31
0.0
  0
LINE
  5
12A
330
1D
100
AcDbEntity
  8
SK1
100
AcDbLine
 10
-14.322887835
 20
61.394555274
 30
0.0
 11
-14.35642738
 21
60.85
 31
0.0
  0
LINE
  5
12B
330
1D
100
AcDbEntity
  8
SK1
100
AcDbLine
 10
-14.35642738
 20
60.85
 30
0.0
 11
-14.322887835
 21
60.305444726
 31
0.0
  0
LINE
  5
12C
330
1D
100
AcDbEntity
  8
SK1
100
AcDbLine
 10
-14.322887835
 20
60.305444726
 30
0.0
 11
-14.22284307
 21
59.770206944
 31
0.0
  0
LINE
  5
12D
330
1D
100
AcDbEntity
  8
SK1
100
AcDbLine
 10
-14.22284307
 20
59.770206944
 30
0.0
 11
-14.058004881
 21
59.25344472
 31
0.0
  0
LINE
  5
12E
330
1D
100
AcDbEntity
  8
SK1
100
AcDbLine
 10
-14.058004881
 20
59.25344472
 30
0.0
 11
-13.831193692
 21
58.764
 31
0.0
  0
LINE
  5
12F
330
1D
100
AcDbEntity
  8
SK1
100
AcDbLine
 10
-13.831193692
 20
58.764
 30
0.0
 11
-13.546290308
 21
58.310247318
 31
0.0
  0
LINE
  5
130
330
1D
100
AcDbEntity
  8
SK1
100
AcDbLine
 10
-13.546290308
 20
58.310247318
 30
0.0
 11
-13.208169504
 21
57.899950509
 31
0.0
  0
LINE
  5
131
330
1D
100
AcDbEntity
  8
SK1
100
AcDbLine
 10
-13.208169504
 20
57.899950509
 30
0.0
 11
-12.822616619
 21
57.540129864
 31
0.0
  0
LINE
  5
132
330
1D
100
AcDbEntity
  8
SK1
100
AcDbLine
 10
-12.822616619
 20
57.540129864
 30
0.0
 11
-12.396228573
 21
57.236942015
 31
0.0
  0
LINE
  5
133
330
1D
100
AcDbEntity
  8
SK1
100
AcDbLine
 10
-12.396228573
 20
57.236942015
 30
0.0
 11
-11.936300981
 21
56.99557459
 31
0.0
  0
LINE
  5
134
330
1D
100
AcDbEntity
  8
SK1
100
AcDbLine
 10
-11.936300981
 20
56.99557459
 30
0.0
 11
-11.450703333
 21
56.820157453
 31
0.0
  0
LINE
  5
135
330
1D
100
AcDbEntity
  8
SK1
100
AcDbLine
 10
-11.450703333
 20
56.820157453
 30
0.0
 11
-10.947744338
 21
56.713692038
 31
0.0
  0
LINE
  5
136
330
1D
100
AcDbEntity
  8
SK1
100
AcDbLine
 10
-10.947744338
 20
56.713692038
 30
0.0
 11
-10.436029766
 21
56.678
 31
0.0
  0
LINE
  5
137
330
1D
100
AcDbEntity
  8
SK1
100
AcDbLine
 10
-10.436029766
 20
56.678
 30
0.0
 11
-9.924315193
 21
56.713692038
 31
0.0
  0
LINE
  5
138
330
1D
100
AcDbEntity
  8
SK1
100
AcDbLine
 10
-9.924315193
 20
56.713692038
 30
0.0
 11
-9.421356199
 21
56.820157453
 31
0.0
  0
LINE
  5
139
330
1D
100
AcDbEntity
  8
SK1
100
AcDbLine
 10
-9.421356199
 20
56.820157453
 30
0.0
 11
-8.935758551
 21
56.99557459
 31
0.0
  0
LINE
  5
13A
330
1D
100
AcDbEntity
  8
SK1
100
AcDbLine
 10
-8.935758551
 20
56.99557459
 30
0.0
 11
-8.475830959
 21
57.236942015
 31
0.0
  0
LINE
  5
13B
330
1D
100
AcDbEntity
  8
SK1
100
AcDbLine
 10
-8.475830959
 20
57.236942015
 30
0.0
 11
-8.049442912
 21
57.540129864
 31
0.0
  0
LINE
  5
13C
330
1D
100
AcDbEntity
  8
SK1
100
AcDbLine
 10
-8.049442912
 20
57.540129864
 30
0.0
 11
-7.663890028
 21
57.899950509
 31
0.0
  0
LINE
  5
13D
330
1D
100
AcDbEntity
  8
SK1
100
AcDbLine
 10
-7.663890028
 20
57.899950509
 30
0.0
 11
-7.325769224
 21
58.310247318
 31
0.0
  0
LINE
  5
13E
330
1D
100
AcDbEntity
  8
SK1
100
AcDbLine
 10
-7.325769224
 20
58.310247318
 30
0.0
 11
-7.040865839
 21
58.764
 31
0.0
  0
LINE
  5
13F
330
1D
100
AcDbEntity
  8
SK1
100
AcDbLine
 10
-6.20353999
 20
58.35
 30
0.0
 11
-5.950038924
 21
58.890166951
 31
0.0
  0
LINE
  5
140
330
1D
100
AcDbEntity
  8
SK1
100
AcDbLine
 10
-5.950038924
 20
58.890166951
 30
0.0
 11
-5.759569488
 21
59.45891268
 31
0.0
  0
LINE
  5
141
330
1D
100
AcDbEntity
  8
SK1
100
AcDbLine
 10
-5.759569488
 20
59.45891268
 30
0.0
 11
-5.634909156
 21
60.047943596
 31
0.0
  0
LINE
  5
142
330
1D
100
AcDbEntity
  8
SK1
100
AcDbLine
 10
-5.634909156
 20
60.047943596
 30
0.0
 11
-5.577875755
 21
60.648670299
 31
0.0
  0
LINE
  5
143
330
1D
100
AcDbEntity
  8
SK1
100
AcDbLine
 10
-5.577875755
 20
60.648670299
 30
0.0
 11
-5.589300961
 21
61.252332844
 31
0.0
  0
LINE
  5
144
330
1D
100
AcDbEntity
  8
SK1
100
AcDbLine
 10
-5.589300961
 20
61.252332844
 30
0.0
 11
-5.669018168
 21
61.850128469
 31
0.0
  0
LINE
  5
145
330
1D
100
AcDbEntity
  8
SK1
100
AcDbLine
 10
-5.669018168
 20
61.850128469
 30
0.0
 11
-5.815864921
 21
62.433339969
 31
0.0
  0
LINE
  5
146
330
1D
100
AcDbEntity
  8
SK1
100
AcDbLine
 10
-5.815864921
 20
62.433339969
 30
0.0
 11
-6.027699863
 21
62.993462807
 31
0.0
  0
LINE
  5
147
330
1D
100
AcDbEntity
  8
SK1
100
AcDbLine
 10
-6.027699863
 20
62.993462807
 30
0.0
 11
-6.301433964
 21
63.522329131
 31
0.0
  0
LINE
  5
148
330
1D
100
AcDbEntity
  8
SK1
100
AcDbLine
 10
-6.301433964
 20
63.522329131
 30
0.0
 11
-6.633075563
 21
64.012226878
 31
0.0
  0
LINE
  5
149
330
1D
100
AcDbEntity
  8
SK1
100
AcDbLine
 10
-6.633075563
 20
64.012226878
 30
0.0
 11
-7.01778858
 21
64.456012237
 31
0.0
  0
LINE
  5
14A
330
1D
100
AcDbEntity
  8
SK1
100
AcDbLine
 10
-7.01778858
 20
64.456012237
 30
0.0
 11
-7.449963033
 21
64.847213817
 31
0.0
  0
LINE
  5
14B
330
1D
100
AcDbEntity
  8
SK1
100
AcDbLine
 10
-7.449963033
 20
64.847213817
 30
0.0
 11
-7.923296845
 21
65.180127019
 31
0.0
  0
LINE
  5
14C
330
1D
100
AcDbEntity
  8
SK1
100
AcDbLine
 10
-7.923296845
 20
65.180127019
 30
0.0
 11
-8.430887742
 21
65.449897218
 31
0.0
  0
LINE
  5
14D
330
1D
100
AcDbEntity
  8
SK1
100
AcDbLine
 10
-8.430887742
 20
65.449897218
 30
0.0
 11
-8.965333907
 21
65.652590558
 31
0.0
  0
LINE
  5
14E
330
1D
100
AcDbEntity
  8
SK1
100
AcDbLine
 10
-8.965333907
 20
65.652590558
 30
0.0
 11
-9.518841912
 21
65.785251313
 31
0.0
  0
LINE
  5
14F
330
1D
100
AcDbEntity
  8
SK1
100
AcDbLine
 10
-9.518841912
 20
65.785251313
 30
0.0
 11
-10.083340363
 21
65.845944991
 31
0.0
  0
LINE
  5
150
330
1D
100
AcDbEntity
  8
SK1
100
AcDbLine
 10
-10.083340363
 20
65.845944991
 30
0.0
 11
-10.650597601
 21
65.833786541
 31
0.0
  0
LINE
  5
151
330
1D
100
AcDbEntity
  8
SK1
100
AcDbLine
 10
-10.650597601
 20
65.833786541
 30
0.0
 11
-11.212341739
 21
65.74895326
 31
0.0
  0
LINE
  5
152
330
1D
100
AcDbEntity
  8
SK1
100
AcDbLine
 10
-11.212341739
 20
65.74895326
 30
0.0
 11
-11.760381282
 21
65.59268221
 31
0.0
  0
LINE
  5
153
330
1D
100
AcDbEntity
  8
SK1
100
AcDbLine
 10
-11.760381282
 20
65.59268221
 30
0.0
 11
-12.286724579
 21
65.367252173
 31
0.0
  0
LINE
  5
154
330
1D
100
AcDbEntity
  8
SK1
100
AcDbLine
 10
-12.286724579
 20
65.367252173
 30
0.0
 11
-12.783696361
 21
65.075950428
 31
0.0
  0
LINE
  5
155
330
1D
100
AcDbEntity
  8
SK1
100
AcDbLine
 10
-12.783696361
 20
65.075950428
 30
0.0
 11
-13.244049659
 21
64.723024809
 31
0.0
  0
LINE
  5
156
330
1D
100
AcDbEntity
  8
SK1
100
AcDbLine
 10
-13.244049659
 20
64.723024809
 30
0.0
 11
-13.661071486
 21
64.313621768
 31
0.0
  0
LINE
  5
157
330
1D
100
AcDbEntity
  8
SK1
100
AcDbLine
 10
-13.661071486
 20
64.313621768
 30
0.0
 11
-14.028680724
 21
63.853711321
 31
0.0
  0
LINE
  5
158
330
1D
100
AcDbEntity
  8
SK1
100
AcDbLine
 10
-14.028680724
 20
63.853711321
 30
0.0
 11
-14.341516803
 21
63.35
 31
0.0
  0
LINE
  5
159
330
1D
100
AcDbEntity
  8
SK1
100
AcDbLine
 10
-14.341516803
 20
63.35
 30
0.0
 11
-14.595017869
 21
62.809833049
 31
0.0
  0
LINE
  5
15A
330
1D
100
AcDbEntity
  8
SK1
100
AcDbLine
 10
-14.595017869
 20
62.809833049
 30
0.0
 11
-14.785487305
 21
62.24108732
 31
0.0
  0
LINE
  5
15B
330
1D
100
AcDbEntity
  8
SK1
100
AcDbLine
 10
-14.785487305
 20
62.24108732
 30
0.0
 11
-14.910147637
 21
61.652056404
 31
0.0
  0
LINE
  5
15C
330
1D
100
AcDbEntity
  8
SK1
100
AcDbLine
 10
-14.910147637
 20
61.652056404
 30
0.0
 11
-14.967181038
 21
61.051329701
 31
0.0
  0
LINE
  5
15D
330
1D
100
AcDbEntity
  8
SK1
100
AcDbLine
 10
-14.967181038
 20
61.051329701
 30
0.0
 11
-14.955755832
 21
60.447667156
 31
0.0
  0
LINE
  5
15E
330
1D
100
AcDbEntity
  8
SK1
100
AcDbLine
 10
-14.955755832
 20
60.447667156
 30
0.0
 11
-14.876038625
 21
59.849871531
 31
0.0
  0
LINE
  5
15F
330
1D
100
AcDbEntity
  8
SK1
100
AcDbLine
 10
-14.876038625
 20
59.849871531
 30
0.0
 11
-14.729191872
 21
59.266660031
 31
0.0
  0
LINE
  5
160
330
1D
100
AcDbEntity
  8
SK1
100
AcDbLine
 10
-14.729191872
 20
59.266660031
 30
0.0
 11
-14.51735693
 21
58.706537193
 31
0.0
  0
LINE
  5
161
330
1D
100
AcDbEntity
  8
SK1
100
AcDbLine
 10
-14.51735693
 20
58.706537193
 30
0.0
 11
-14.243622829
 21
58.177670869
 31
0.0
  0
LINE
  5
162
330
1D
100
AcDbEntity
  8
SK1
100
AcDbLine
 10
-14.243622829
 20
58.177670869
 30
0.0
 11
-13.91198123
 21
57.687773122
 31
0.0
  0
LINE
  5
163
330
1D
100
AcDbEntity
  8
SK1
100
AcDbLine
 10
-13.91198123
 20
57.687773122
 30
0.0
 11
-13.527268213
 21
57.243987763
 31
0.0
  0
LINE
  5
164
330
1D
100
AcDbEntity
  8
SK1
100
AcDbLine
 10
-13.527268213
 20
57.243987763
 30
0.0
 11
-13.09509376
 21
56.852786183
 31
0.0
  0
LINE
  5
165
330
1D
100
AcDbEntity
  8
SK1
100
AcDbLine
 10
-13.09509376
 20
56.852786183
 30
0.0
 11
-12.621759948
 21
56.519872981
 31
0.0
  0
LINE
  5
166
330
1D
100
AcDbEntity
  8
SK1
100
AcDbLine
 10
-12.621759948
 20
56.519872981
 30
0.0
 11
-12.114169051
 21
56.250102782
 31
0.0
  0
LINE
  5
167
330
1D
100
AcDbEntity
  8
SK1
100
AcDbLine
 10
-12.114169051
 20
56.250102782
 30
0.0
 11
-11.579722886
 21
56.047409442
 31
0.0
  0
LINE
  5
168
330
1D
100
AcDbEntity
  8
SK1
100
AcDbLine
 10
-11.579722886
 20
56.047409442
 30
0.0
 11
-11.026214881
 21
55.914748687
 31
0.0
  0
LINE
  5
169
330
1D
100
AcDbEntity
  8
SK1
100
AcDbLine
 10
-11.026214881
 20
55.914748687
 30
0.0
 11
-10.461716431
 21
55.854055009
 31
0.0
  0
LINE
  5
16A
330
1D
100
AcDbEntity
  8
SK1
100
AcDbLine
 10
-10.461716431
 20
55.854055009
 30
0.0
 11
-9.894459192
 21
55.866213459
 31
0.0
  0
LINE
  5
16B
330
1D
100
AcDbEntity
  8
SK1
100
AcDbLine
 10
-9.894459192
 20
55.866213459
 30
0.0
 11
-9.332715054
 21
55.95104674
 31
0.0
  0
LINE
  5
16C
330
1D
100
AcDbEntity
  8
SK1
100
AcDbLine
 10
-9.332715054
 20
55.95104674
 30
0.0
 11
-8.784675511
 21
56.10731779
 31
0.0
  0
LINE
  5
16D
330
1D
100
AcDbEntity
  8
SK1
100
AcDbLine
 10
-8.784675511
 20
56.10731779
 30
0.0
 11
-8.258332214
 21
56.332747827
 31
0.0
  0
LINE
  5
16E
330
1D
100
AcDbEntity
  8
SK1
100
AcDbLine
 10
-8.258332214
 20
56.332747827
 30
0.0
 11
-7.761360432
 21
56.624049572
 31
0.0
  0
LINE
  5
16F
330
1D
100
AcDbEntity
  8
SK1
100
AcDbLine
 10
-7.761360432
 20
56.624049572
 30
0.0
 11
-7.301007134
 21
56.976975191
 31
0.0
  0
LINE
  5
170
330
1D
100
AcDbEntity
  8
SK1
100
AcDbLine
 10
-7.301007134
 20
56.976975191
 30
0.0
 11
-6.883985307
 21
57.386378232
 31
0.0
  0
LINE
  5
171
330
1D
100
AcDbEntity
  8
SK1
100
AcDbLine
 10
-6.883985307
 20
57.386378232
 30
0.0
 11
-6.516376069
 21
57.846288679
 31
0.0
  0
LINE
  5
172
330
1D
100
AcDbEntity
  8
SK1
100
AcDbLine
 10
-6.516376069
 20
57.846288679
 30
0.0
 11
-6.20353999
 21
58.35
 31
0.0
  0
LINE
  5
173
330
1D
100
AcDbEntity
  8
SK1
100
AcDbLine
 10
-10.436029766
 20
63.736751346
 30
0.0
 11
-12.785261318
 21
62.293375673
 31
0.0
  0
LINE
  5
174
330
1D
100
AcDbEntity
  8
SK1
100
AcDbLine
 10
-12.785261318
 20
59.406624327
 30
0.0
 11
-12.785261318
 21
62.293375673
 31
0.0
  0
LINE
  5
175
330
1D
100
AcDbEntity
  8
SK1
100
AcDbLine
 10
-10.436029766
 20
57.963248654
 30
0.0
 11
-12.785261318
 21
59.406624327
 31
0.0
  0
LINE
  5
176
330
1D
100
AcDbEntity
  8
SK1
100
AcDbLine
 10
-10.436029766
 20
57.963248654
 30
0.0
 11
-8.086798214
 21
59.406624327
 31
0.0
  0
LINE
  5
177
330
1D
100
AcDbEntity
  8
SK1
100
AcDbLine
 10
-8.086798214
 20
62.293375673
 30
0.0
 11
-8.086798214
 21
59.406624327
 31
0.0
  0
LINE
  5
178
330
1D
100
AcDbEntity
  8
SK1
100
AcDbLine
 10
-8.086798214
 20
62.293375673
 30
0.0
 11
-10.436029766
 21
63.736751346
 31
0.0
  0
LINE
  5
179
330
1D
100
AcDbEntity
  8
SK1
100
AcDbLine
 10
-10.733140458
 20
59.406624327
 30
0.0
 11
-12.785261318
 21
59.406624327
 31
0.0
  0
LINE
  5
17A
330
1D
100
AcDbEntity
  8
SK1
100
AcDbLine
 10
-9.409969336
 20
58.593663592
 30
0.0
 11
-10.733140458
 21
59.406624327
 31
0.0
  0
LINE
  5
17B
330
1D
100
AcDbEntity
  8
SK1
100
AcDbLine
 10
-9.409969336
 20
63.106336408
 30
0.0
 11
-10.733140458
 21
62.293375673
 31
0.0
  0
LINE
  5
17C
330
1D
100
AcDbEntity
  8
SK1
100
AcDbLine
 10
-10.733140458
 20
62.293375673
 30
0.0
 11
-12.785261318
 21
62.293375673
 31
0.0
  0
LINE
  5
17D
330
1D
100
AcDbEntity
  8
SK1
100
AcDbLine
 10
-10.733140458
 20
59.406624327
 30
0.0
 11
-10.733140458
 21
62.293375673
 31
0.0
  0
LINE
  5
17E
330
1D
100
AcDbEntity
  8
1
  6
Continuous
370
    50
100
AcDbLine
 10
0.4
 20
6.108020844
 30
0.0
 11
0.4
 21
5.0
 31
0.0
  0
LINE
  5
17F
330
1D
100
AcDbEntity
  8
1
  6
Continuous
370
    50
100
AcDbLine
 10
0.0
 20
6.108020844
 30
0.0
 11
0.4
 21
6.108020844
 31
0.0
  0
LINE
  5
180
330
1D
100
AcDbEntity
  8
1
  6
Continuous
370
    50
100
AcDbLine
 10
0.0
 20
7.299423301
 30
0.0
 11
0.0
 21
6.108020844
 31
0.0
  0
LINE
  5
181
330
1D
100
AcDbEntity
  8
SK1
100
AcDbLine
 10
-0.140964282
 20
7.370649851
 30
0.0
 11
-0.053900497
 21
7.346158811
 31
0.0
  0
LINE
  5
182
330
1D
100
AcDbEntity
  8
SK1
100
AcDbLine
 10
-0.053900497
 20
7.346158811
 30
0.0
 11
-0.006951231
 21
7.31666974
 31
0.0
  0
LINE
  5
183
330
1D
100
AcDbEntity
  8
1
  6
Continuous
370
    50
100
AcDbLine
 10
-0.006951231
 20
7.31666974
 30
0.0
 11
0.0
 21
7.299423301
 31
0.0
  0
LINE
  5
184
330
1D
100
AcDbEntity
  8
SK1
100
AcDbLine
 10
-3.119545323
 20
7.78540663
 30
0.0
 11
-2.399020356
 21
7.82015248
 31
0.0
  0
LINE
  5
185
330
1D
100
AcDbEntity
  8
SK1
100
AcDbLine
 10
-2.399020356
 20
7.82015248
 30
0.0
 11
-1.672855282
 21
7.79345334
 31
0.0
  0
LINE
  5
186
330
1D
100
AcDbEntity
  8
SK1
100
AcDbLine
 10
-1.672855282
 20
7.79345334
 30
0.0
 11
-1.022644807
 21
7.709709999
 31
0.0
  0
LINE
  5
187
330
1D
100
AcDbEntity
  8
SK1
100
AcDbLine
 10
-1.022644807
 20
7.709709999
 30
0.0
 11
-0.507563961
 21
7.57873931
 31
0.0
  0
LINE
  5
188
330
1D
100
AcDbEntity
  8
SK1
100
AcDbLine
 10
-0.507563961
 20
7.57873931
 30
0.0
 11
-0.185057735
 21
7.41453161
 31
0.0
  0
LINE
  5
189
330
1D
100
AcDbEntity
  8
SK1
100
AcDbLine
 10
-0.185057735
 20
7.41453161
 30
0.0
 11
-0.140964282
 21
7.370649851
 31
0.0
  0
LINE
  5
18A
330
1D
100
AcDbEntity
  8
SK1
100
AcDbLine
 10
-12.9
 20
6.950773107
 30
0.0
 11
-7.997995485
 21
7.349807345
 31
0.0
  0
LINE
  5
18B
330
1D
100
AcDbEntity
  8
SK1
100
AcDbLine
 10
-7.997995485
 20
7.349807345
 30
0.0
 11
-3.119545323
 21
7.78540663
 31
0.0
  0
LINE
  5
18C
330
1D
100
AcDbEntity
  8
SK1
100
AcDbLine
 10
-16.0
 20
7.351121012
 30
0.0
 11
-12.9
 21
6.950773107
 31
0.0
  0
LINE
  5
18D
330
1D
100
AcDbEntity
  8
SK1
100
AcDbLine
 10
-16.0
 20
10.951821212
 30
0.0
 11
-16.0
 21
7.351121012
 31
0.0
  0
LINE
  5
18E
330
1D
100
AcDbEntity
  8
SK1
100
AcDbLine
 10
-14.0
 20
11.75037994
 30
0.0
 11
-16.0
 21
10.951821212
 31
0.0
  0
LINE
  5
190
330
1D
100
AcDbEntity
  8
1
  6
Continuous
370
    50
100
AcDbLine
 10
23.888228568
 20
9.97550825
 30
0.0
 11
18.051251416
 21
10.538091604
 31
0.0
  0
LINE
  5
191
330
1D
100
AcDbEntity
  8
1
  6
Continuous
370
    50
100
AcDbLine
 10
18.051251416
 20
10.538091604
 30
0.0
 11
12.254501308
 21
11.12978429
 31
0.0
  0
LINE
  5
192
330
1D
100
AcDbEntity
  8
1
  6
Continuous
370
    50
100
AcDbLine
 10
12.254501308
 20
11.12978429
 30
0.0
 11
6.5
 21
11.75037994
 31
0.0
  0
LINE
  5
193
330
1D
100
AcDbEntity
  8
1
  6
Continuous
370
    50
100
AcDbLine
 10
25.0
 20
9.483497733
 30
0.0
 11
24.907600227
 21
9.656320559
 31
0.0
  0
LINE
  5
194
330
1D
100
AcDbEntity
  8
1
  6
Continuous
370
    50
100
AcDbLine
 10
24.907600227
 20
9.656320559
 30
0.0
 11
24.638040667
 21
9.81227004
 31
0.0
  0
LINE
  5
195
330
1D
100
AcDbEntity
  8
1
  6
Continuous
370
    50
100
AcDbLine
 10
24.638040667
 20
9.81227004
 30
0.0
 11
24.228361877
 21
9.927586939
 31
0.0
  0
LINE
  5
196
330
1D
100
AcDbEntity
  8
1
  6
Continuous
370
    50
100
AcDbLine
 10
24.228361877
 20
9.927586939
 30
0.0
 11
23.888228568
 21
9.97550825
 31
0.0
  0
LINE
  5
197
330
1D
100
AcDbEntity
  8
1
  6
Continuous
370
    50
100
AcDbLine
 10
25.0
 20
7.311030113
 30
0.0
 11
25.0
 21
9.483497733
 31
0.0
  0
LINE
  5
198
330
1D
100
AcDbEntity
  8
1
  6
Continuous
370
    50
100
AcDbLine
 10
16.5
 20
7.311030113
 30
0.0
 11
25.0
 21
7.311030113
 31
0.0
  0
LINE
  5
199
330
1D
100
AcDbEntity
  8
1
  6
Continuous
370
    50
100
AcDbLine
 10
15.0
 20
6.975994691
 30
0.0
 11
15.08789115
 21
7.08595641
 31
0.0
  0
LINE
  5
19A
330
1D
100
AcDbEntity
  8
1
  6
Continuous
370
    50
100
AcDbLine
 10
15.08789115
 20
7.08595641
 30
0.0
 11
15.342671248
 21
7.185983611
 31
0.0
  0
LINE
  5
19B
330
1D
100
AcDbEntity
  8
1
  6
Continuous
370
    50
100
AcDbLine
 10
15.342671248
 20
7.185983611
 30
0.0
 11
15.73342691
 21
7.262331053
 31
0.0
  0
LINE
  5
19C
330
1D
100
AcDbEntity
  8
1
  6
Continuous
370
    50
100
AcDbLine
 10
15.73342691
 20
7.262331053
 30
0.0
 11
16.206379616
 21
7.304290206
 31
0.0
  0
LINE
  5
19D
330
1D
100
AcDbEntity
  8
1
  6
Continuous
370
    50
100
AcDbLine
 10
16.206379616
 20
7.304290206
 30
0.0
 11
16.5
 21
7.311030113
 31
0.0
  0
LINE
  5
19E
330
1D
100
AcDbEntity
  8
1
  6
Continuous
370
    50
100
AcDbLine
 10
15.0
 20
6.72745277
 30
0.0
 11
15.0
 21
6.975994691
 31
0.0
  0
LINE
  5
19F
330
1D
100
AcDbEntity
  8
1
  6
Continuous
370
    50
100
AcDbLine
 10
15.0
 20
70.427568136
 30
0.0
 11
15.0
 21
85.177568136
 31
0.0
  0
LINE
  5
1A0
330
1D
100
AcDbEntity
  8
1
  6
Continuous
370
    50
100
AcDbLine
 10
15.0
 20
70.427568136
 30
0.0
 11
23.888228568
 21
72.809161803
 31
0.0
  0
LINE
  5
1A1
330
1D
100
AcDbEntity
  8
1
  6
Continuous
370
    50
100
AcDbLine
 10
25.0
 20
49.53
 30
0.0
 11
21.471850307
 21
49.53
 31
0.0
  0
LINE
  5
1A2
330
1D
100
AcDbEntity
  8
1
  6
Continuous
370
    50
100
AcDbLine
 10
25.0
 20
48.45
 30
0.0
 11
19.539998655
 21
48.45
 31
0.0
  0
LINE
  5
1A3
330
1D
100
AcDbEntity
  8
1
  6
Continuous
370
    50
100
AcDbLine
 10
25.0
 20
47.37
 30
0.0
 11
21.471850307
 21
47.37
 31
0.0
  0
LINE
  5
1A4
330
1D
100
AcDbEntity
  8
1
  6
Continuous
370
    50
100
AcDbLine
 10
25.0
 20
46.29
 30
0.0
 11
21.471850307
 21
46.29
 31
0.0
  0
LINE
  5
1A5
330
1D
100
AcDbEntity
  8
1
  6
Continuous
370
    50
100
AcDbLine
 10
25.0
 20
45.21
 30
0.0
 11
21.471850307
 21
45.21
 31
0.0
  0
LINE
  5
1A6
330
1D
100
AcDbEntity
  8
1
  6
Continuous
370
    50
100
AcDbLine
 10
25.0
 20
44.13
 30
0.0
 11
21.471850307
 21
44.13
 31
0.0
  0
LINE
  5
1A7
330
1D
100
AcDbEntity
  8
1
  6
Continuous
370
    50
100
AcDbLine
 10
25.0
 20
43.05
 30
0.0
 11
19.539998655
 21
43.05
 31
0.0
  0
LINE
  5
1A8
330
1D
100
AcDbEntity
  8
1
  6
Continuous
370
    50
100
AcDbLine
 10
25.0
 20
41.97
 30
0.0
 11
21.471850307
 21
41.97
 31
0.0
  0
LINE
  5
1A9
330
1D
100
AcDbEntity
  8
1
  6
Continuous
370
    50
100
AcDbLine
 10
25.0
 20
40.89
 30
0.0
 11
21.471850307
 21
40.89
 31
0.0
  0
LINE
  5
1AA
330
1D
100
AcDbEntity
  8
1
  6
Continuous
370
    50
100
AcDbLine
 10
25.0
 20
39.81
 30
0.0
 11
21.471850307
 21
39.81
 31
0.0
  0
LINE
  5
1AB
330
1D
100
AcDbEntity
  8
1
  6
Continuous
370
    50
100
AcDbLine
 10
25.0
 20
38.73
 30
0.0
 11
21.471850307
 21
38.73
 31
0.0
  0
LINE
  5
1AC
330
1D
100
AcDbEntity
  8
1
  6
Continuous
370
    50
100
AcDbLine
 10
25.0
 20
37.65
 30
0.0
 11
19.539998655
 21
37.65
 31
0.0
  0
LINE
  5
1AD
330
1D
100
AcDbEntity
  8
1
  6
Continuous
370
    50
100
AcDbLine
 10
25.0
 20
36.57
 30
0.0
 11
21.471850307
 21
36.57
 31
0.0
  0
LINE
  5
1AE
330
1D
100
AcDbEntity
  8
1
  6
Continuous
370
    50
100
AcDbLine
 10
25.0
 20
35.49
 30
0.0
 11
21.471850307
 21
35.49
 31
0.0
  0
LINE
  5
1AF
330
1D
100
AcDbEntity
  8
1
  6
Continuous
370
    50
100
AcDbLine
 10
25.0
 20
34.41
 30
0.0
 11
21.471850307
 21
34.41
 31
0.0
  0
LINE
  5
1B0
330
1D
100
AcDbEntity
  8
1
  6
Continuous
370
    50
100
AcDbLine
 10
25.0
 20
33.33
 30
0.0
 11
21.471850307
 21
33.33
 31
0.0
  0
LINE
  5
1B1
330
1D
100
AcDbEntity
  8
1
  6
Continuous
370
    50
100
AcDbLine
 10
25.0
 20
32.25
 30
0.0
 11
19.539998655
 21
32.25
 31
0.0
  0
LINE
  5
1B2
330
1D
100
AcDbEntity
  8
1
  6
Continuous
370
    50
100
AcDbLine
 10
25.0
 20
31.17
 30
0.0
 11
21.471850307
 21
31.17
 31
0.0
  0
LINE
  5
1B3
330
1D
100
AcDbEntity
  8
1
  6
Continuous
370
    50
100
AcDbLine
 10
25.0
 20
30.09
 30
0.0
 11
21.471850307
 21
30.09
 31
0.0
  0
LINE
  5
1B4
330
1D
100
AcDbEntity
  8
1
  6
Continuous
370
    50
100
AcDbLine
 10
25.0
 20
29.01
 30
0.0
 11
21.471850307
 21
29.01
 31
0.0
  0
LINE
  5
1B5
330
1D
100
AcDbEntity
  8
1
  6
Continuous
370
    50
100
AcDbLine
 10
25.0
 20
27.93
 30
0.0
 11
21.471850307
 21
27.93
 31
0.0
  0
LINE
  5
1B6
330
1D
100
AcDbEntity
  8
1
  6
Continuous
370
    50
100
AcDbLine
 10
25.0
 20
26.85
 30
0.0
 11
19.539998655
 21
26.85
 31
0.0
  0
LINE
  5
1B7
330
1D
100
AcDbEntity
  8
1
  6
Continuous
370
    50
100
AcDbLine
 10
25.0
 20
25.77
 30
0.0
 11
21.471850307
 21
25.77
 31
0.0
  0
LINE
  5
1B8
330
1D
100
AcDbEntity
  8
1
  6
Continuous
370
    50
100
AcDbLine
 10
25.0
 20
24.69
 30
0.0
 11
21.471850307
 21
24.69
 31
0.0
  0
LINE
  5
1B9
330
1D
100
AcDbEntity
  8
1
  6
Continuous
370
    50
100
AcDbLine
 10
25.0
 20
23.61
 30
0.0
 11
21.471850307
 21
23.61
 31
0.0
  0
LINE
  5
1BA
330
1D
100
AcDbEntity
  8
1
  6
Continuous
370
    50
100
AcDbLine
 10
25.0
 20
22.53
 30
0.0
 11
21.471850307
 21
22.53
 31
0.0
  0
LINE
  5
1BB
330
1D
100
AcDbEntity
  8
1
  6
Continuous
370
    50
100
AcDbLine
 10
25.0
 20
21.45
 30
0.0
 11
19.539998655
 21
21.45
 31
0.0
  0
LINE
  5
1BC
330
1D
100
AcDbEntity
  8
1
  6
Continuous
370
    50
100
AcDbLine
 10
25.0
 20
20.37
 30
0.0
 11
21.471850307
 21
20.37
 31
0.0
  0
LINE
  5
1BD
330
1D
100
AcDbEntity
  8
1
  6
Continuous
370
    50
100
AcDbLine
 10
25.0
 20
19.29
 30
0.0
 11
21.471850307
 21
19.29
 31
0.0
  0
LINE
  5
1BE
330
1D
100
AcDbEntity
  8
1
  6
Continuous
370
    50
100
AcDbLine
 10
25.0
 20
18.21
 30
0.0
 11
21.471850307
 21
18.21
 31
0.0
  0
LINE
  5
1BF
330
1D
100
AcDbEntity
  8
1
  6
Continuous
370
    50
100
AcDbLine
 10
25.0
 20
17.13
 30
0.0
 11
21.471850307
 21
17.13
 31
0.0
  0
LINE
  5
1C0
330
1D
100
AcDbEntity
  8
1
  6
Continuous
370
    50
100
AcDbLine
 10
25.0
 20
16.05
 30
0.0
 11
19.539998655
 21
16.05
 31
0.0
  0
LINE
  5
1C1
330
1D
100
AcDbEntity
  8
1
  6
Continuous
370
    50
100
AcDbLine
 10
25.0
 20
14.97
 30
0.0
 11
21.471850307
 21
14.97
 31
0.0
  0
LINE
  5
1C2
330
1D
100
AcDbEntity
  8
1
  6
Continuous
370
    50
100
AcDbLine
 10
25.0
 20
13.89
 30
0.0
 11
21.471850307
 21
13.89
 31
0.0
  0
LINE
  5
1C3
330
1D
100
AcDbEntity
  8
1
  6
Continuous
370
    50
100
AcDbLine
 10
6.5
 20
11.75037994
 30
0.0
 11
6.5
 21
82.9
 31
0.0
  0
LINE
  5
1C4
330
1D
100
AcDbEntity
  8
1
  6
Continuous
370
    50
100
AcDbLine
 10
6.5
 20
82.9
 30
0.0
 11
15.0
 21
85.177568136
 31
0.0
  0
LINE
  5
1C5
330
1D
100
AcDbEntity
  8
SK1
100
AcDbLine
 10
-16.0
 20
89.0
 30
0.0
 11
-16.0
 21
84.9
 31
0.0
  0
LINE
  5
1C7
330
1D
100
AcDbEntity
  8
1
  6
Continuous
370
    50
100
AcDbLine
 10
15.0
 20
85.177568136
 30
0.0
 11
15.0
 21
89.0
 31
0.0
  0
LINE
  5
1C9
330
1D
100
AcDbEntity
  8
SK1
100
AcDbLine
 10
-16.0
 20
84.9
 30
0.0
 11
-14.0
 21
82.9
 31
0.0
  0
LINE
  5
1CA
330
1D
100
AcDbEntity
  8
SK1
100
AcDbLine
 10
-14.0
 20
11.75037994
 30
0.0
 11
-14.0
 21
43.546472092
 31
0.0
  0
LINE
  5
1CB
330
1D
100
AcDbEntity
  8
SK1
100
AcDbLine
 10
-14.0
 20
43.546472092
 30
0.0
 11
-13.45447581
 21
43.230420811
 31
0.0
  0
LINE
  5
1CC
330
1D
100
AcDbEntity
  8
SK1
100
AcDbLine
 10
-13.45447581
 20
43.230420811
 30
0.0
 11
-12.8740235
 21
42.975154871
 31
0.0
  0
LINE
  5
1CD
330
1D
100
AcDbEntity
  8
SK1
100
AcDbLine
 10
-12.8740235
 20
42.975154871
 30
0.0
 11
-12.266280775
 21
42.784033114
 31
0.0
  0
LINE
  5
1CE
330
1D
100
AcDbEntity
  8
SK1
100
AcDbLine
 10
-12.266280775
 20
42.784033114
 30
0.0
 11
-11.639244436
 21
42.659570357
 31
0.0
  0
LINE
  5
1CF
330
1D
100
AcDbEntity
  8
SK1
100
AcDbLine
 10
-11.639244436
 20
42.659570357
 30
0.0
 11
-11.001165152
 21
42.603404307
 31
0.0
  0
LINE
  5
1D0
330
1D
100
AcDbEntity
  8
SK1
100
AcDbLine
 10
-11.001165152
 20
42.603404307
 30
0.0
 11
-10.360438897
 21
42.616274006
 31
0.0
  0
LINE
  5
1D1
330
1D
100
AcDbEntity
  8
SK1
100
AcDbLine
 10
-10.360438897
 20
42.616274006
 30
0.0
 11
-9.725496474
 21
42.698010114
 31
0.0
  0
LINE
  5
1D2
330
1D
100
AcDbEntity
  8
SK1
100
AcDbLine
 10
-9.725496474
 20
42.698010114
 30
0.0
 11
-9.104692582
 21
42.847537131
 31
0.0
  0
LINE
  5
1D3
330
1D
100
AcDbEntity
  8
SK1
100
AcDbLine
 10
-9.104692582
 20
42.847537131
 30
0.0
 11
-8.506195883
 21
43.062887549
 31
0.0
  0
LINE
  5
1D4
330
1D
100
AcDbEntity
  8
SK1
100
AcDbLine
 10
-8.506195883
 20
43.062887549
 30
0.0
 11
-7.937881515
 21
43.341227745
 31
0.0
  0
LINE
  5
1D5
330
1D
100
AcDbEntity
  8
SK1
100
AcDbLine
 10
-7.937881515
 20
43.341227745
 30
0.0
 11
-7.407227471
 21
43.678895265
 31
0.0
  0
LINE
  5
1D6
330
1D
100
AcDbEntity
  8
SK1
100
AcDbLine
 10
-7.407227471
 20
43.678895265
 30
0.0
 11
-6.921216204
 21
44.07144701
 31
0.0
  0
LINE
  5
1D7
330
1D
100
AcDbEntity
  8
SK1
100
AcDbLine
 10
-6.921216204
 20
44.07144701
 30
0.0
 11
-6.486242746
 21
44.513717708
 31
0.0
  0
LINE
  5
1D8
330
1D
100
AcDbEntity
  8
SK1
100
AcDbLine
 10
-6.486242746
 20
44.513717708
 30
0.0
 11
-6.108030564
 21
44.999887872
 31
0.0
  0
LINE
  5
1D9
330
1D
100
AcDbEntity
  8
SK1
100
AcDbLine
 10
-6.108030564
 20
44.999887872
 30
0.0
 11
-5.79155625
 21
45.523560378
 31
0.0
  0
LINE
  5
1DA
330
1D
100
AcDbEntity
  8
SK1
100
AcDbLine
 10
-5.79155625
 20
45.523560378
 30
0.0
 11
-5.540984035
 21
46.07784464
 31
0.0
  0
LINE
  5
1DB
330
1D
100
AcDbEntity
  8
SK1
100
AcDbLine
 10
-5.540984035
 20
46.07784464
 30
0.0
 11
-5.359610999
 21
46.655447276
 31
0.0
  0
LINE
  5
1DC
330
1D
100
AcDbEntity
  8
SK1
100
AcDbLine
 10
-5.359610999
 20
46.655447276
 30
0.0
 11
-5.249823685
 21
47.248768073
 31
0.0
  0
LINE
  5
1DD
330
1D
100
AcDbEntity
  8
SK1
100
AcDbLine
 10
-5.249823685
 20
47.248768073
 30
0.0
 11
-5.213066695
 21
47.85
 31
0.0
  0
LINE
  5
1DE
330
1D
100
AcDbEntity
  8
SK1
100
AcDbLine
 10
-5.213066695
 20
47.85
 30
0.0
 11
-5.249823685
 21
48.451231927
 31
0.0
  0
LINE
  5
1DF
330
1D
100
AcDbEntity
  8
SK1
100
AcDbLine
 10
-5.249823685
 20
48.451231927
 30
0.0
 11
-5.359610999
 21
49.044552724
 31
0.0
  0
LINE
  5
1E0
330
1D
100
AcDbEntity
  8
SK1
100
AcDbLine
 10
-5.359610999
 20
49.044552724
 30
0.0
 11
-5.540984035
 21
49.622155359
 31
0.0
  0
LINE
  5
1E1
330
1D
100
AcDbEntity
  8
SK1
100
AcDbLine
 10
-5.540984035
 20
49.622155359
 30
0.0
 11
-5.79155625
 21
50.176439622
 31
0.0
  0
LINE
  5
1E2
330
1D
100
AcDbEntity
  8
SK1
100
AcDbLine
 10
-5.79155625
 20
50.176439622
 30
0.0
 11
-6.108030564
 21
50.700112128
 31
0.0
  0
LINE
  5
1E3
330
1D
100
AcDbEntity
  8
SK1
100
AcDbLine
 10
-6.108030564
 20
50.700112128
 30
0.0
 11
-6.486242746
 21
51.186282292
 31
0.0
  0
LINE
  5
1E4
330
1D
100
AcDbEntity
  8
SK1
100
AcDbLine
 10
-6.486242746
 20
51.186282292
 30
0.0
 11
-6.921216204
 21
51.62855299
 31
0.0
  0
LINE
  5
1E5
330
1D
100
AcDbEntity
  8
SK1
100
AcDbLine
 10
-6.921216204
 20
51.62855299
 30
0.0
 11
-7.407227471
 21
52.021104735
 31
0.0
  0
LINE
  5
1E6
330
1D
100
AcDbEntity
  8
SK1
100
AcDbLine
 10
-7.407227471
 20
52.021104735
 30
0.0
 11
-7.937881515
 21
52.358772255
 31
0.0
  0
LINE
  5
1E7
330
1D
100
AcDbEntity
  8
SK1
100
AcDbLine
 10
-7.937881515
 20
52.358772255
 30
0.0
 11
-8.506195883
 21
52.637112451
 31
0.0
  0
LINE
  5
1E8
330
1D
100
AcDbEntity
  8
SK1
100
AcDbLine
 10
-8.506195883
 20
52.637112451
 30
0.0
 11
-9.104692582
 21
52.852462869
 31
0.0
  0
LINE
  5
1E9
330
1D
100
AcDbEntity
  8
SK1
100
AcDbLine
 10
-9.104692582
 20
52.852462869
 30
0.0
 11
-9.725496474
 21
53.001989886
 31
0.0
  0
LINE
  5
1EA
330
1D
100
AcDbEntity
  8
SK1
100
AcDbLine
 10
-9.725496474
 20
53.001989886
 30
0.0
 11
-10.360438897
 21
53.083725994
 31
0.0
  0
LINE
  5
1EB
330
1D
100
AcDbEntity
  8
SK1
100
AcDbLine
 10
-10.360438897
 20
53.083725994
 30
0.0
 11
-11.001165152
 21
53.096595693
 31
0.0
  0
LINE
  5
1EC
330
1D
100
AcDbEntity
  8
SK1
100
AcDbLine
 10
-11.001165152
 20
53.096595693
 30
0.0
 11
-11.639244436
 21
53.040429643
 31
0.0
  0
LINE
  5
1ED
330
1D
100
AcDbEntity
  8
SK1
100
AcDbLine
 10
-11.639244436
 20
53.040429643
 30
0.0
 11
-12.266280775
 21
52.915966886
 31
0.0
  0
LINE
  5
1EE
330
1D
100
AcDbEntity
  8
SK1
100
AcDbLine
 10
-12.266280775
 20
52.915966886
 30
0.0
 11
-12.8740235
 21
52.724845129
 31
0.0
  0
LINE
  5
1EF
330
1D
100
AcDbEntity
  8
SK1
100
AcDbLine
 10
-12.8740235
 20
52.724845129
 30
0.0
 11
-13.45447581
 21
52.469579189
 31
0.0
  0
LINE
  5
1F0
330
1D
100
AcDbEntity
  8
SK1
100
AcDbLine
 10
-13.45447581
 20
52.469579189
 30
0.0
 11
-14.0
 21
52.153527908
 31
0.0
  0
LINE
  5
1F1
330
1D
100
AcDbEntity
  8
SK1
100
AcDbLine
 10
-14.0
 20
52.153527908
 30
0.0
 11
-14.0
 21
56.546472092
 31
0.0
  0
LINE
  5
1F2
330
1D
100
AcDbEntity
  8
SK1
100
AcDbLine
 10
-14.0
 20
56.546472092
 30
0.0
 11
-13.45447581
 21
56.230420811
 31
0.0
  0
LINE
  5
1F3
330
1D
100
AcDbEntity
  8
SK1
100
AcDbLine
 10
-13.45447581
 20
56.230420811
 30
0.0
 11
-12.8740235
 21
55.975154871
 31
0.0
  0
LINE
  5
1F4
330
1D
100
AcDbEntity
  8
SK1
100
AcDbLine
 10
-12.8740235
 20
55.975154871
 30
0.0
 11
-12.266280775
 21
55.784033114
 31
0.0
  0
LINE
  5
1F5
330
1D
100
AcDbEntity
  8
SK1
100
AcDbLine
 10
-12.266280775
 20
55.784033114
 30
0.0
 11
-11.639244436
 21
55.659570357
 31
0.0
  0
LINE
  5
1F6
330
1D
100
AcDbEntity
  8
SK1
100
AcDbLine
 10
-11.639244436
 20
55.659570357
 30
0.0
 11
-11.001165152
 21
55.603404307
 31
0.0
  0
LINE
  5
1F7
330
1D
100
AcDbEntity
  8
SK1
100
AcDbLine
 10
-11.001165152
 20
55.603404307
 30
0.0
 11
-10.360438897
 21
55.616274006
 31
0.0
  0
LINE
  5
1F8
330
1D
100
AcDbEntity
  8
SK1
100
AcDbLine
 10
-10.360438897
 20
55.616274006
 30
0.0
 11
-9.725496474
 21
55.698010114
 31
0.0
  0
LINE
  5
1F9
330
1D
100
AcDbEntity
  8
SK1
100
AcDbLine
 10
-9.725496474
 20
55.698010114
 30
0.0
 11
-9.104692582
 21
55.847537131
 31
0.0
  0
LINE
  5
1FA
330
1D
100
AcDbEntity
  8
SK1
100
AcDbLine
 10
-9.104692582
 20
55.847537131
 30
0.0
 11
-8.506195883
 21
56.062887549
 31
0.0
  0
LINE
  5
1FB
330
1D
100
AcDbEntity
  8
SK1
100
AcDbLine
 10
-8.506195883
 20
56.062887549
 30
0.0
 11
-7.937881515
 21
56.341227745
 31
0.0
  0
LINE
  5
1FC
330
1D
100
AcDbEntity
  8
SK1
100
AcDbLine
 10
-7.937881515
 20
56.341227745
 30
0.0
 11
-7.407227471
 21
56.678895265
 31
0.0
  0
LINE
  5
1FD
330
1D
100
AcDbEntity
  8
SK1
100
AcDbLine
 10
-7.407227471
 20
56.678895265
 30
0.0
 11
-6.921216204
 21
57.07144701
 31
0.0
  0
LINE
  5
1FE
330
1D
100
AcDbEntity
  8
SK1
100
AcDbLine
 10
-6.921216204
 20
57.07144701
 30
0.0
 11
-6.486242746
 21
57.513717708
 31
0.0
  0
LINE
  5
1FF
330
1D
100
AcDbEntity
  8
SK1
100
AcDbLine
 10
-6.486242746
 20
57.513717708
 30
0.0
 11
-6.108030564
 21
57.999887872
 31
0.0
  0
LINE
  5
200
330
1D
100
AcDbEntity
  8
SK1
100
AcDbLine
 10
-6.108030564
 20
57.999887872
 30
0.0
 11
-5.79155625
 21
58.523560378
 31
0.0
  0
LINE
  5
201
330
1D
100
AcDbEntity
  8
SK1
100
AcDbLine
 10
-5.79155625
 20
58.523560378
 30
0.0
 11
-5.540984035
 21
59.07784464
 31
0.0
  0
LINE
  5
202
330
1D
100
AcDbEntity
  8
SK1
100
AcDbLine
 10
-5.540984035
 20
59.07784464
 30
0.0
 11
-5.359610999
 21
59.655447276
 31
0.0
  0
LINE
  5
203
330
1D
100
AcDbEntity
  8
SK1
100
AcDbLine
 10
-5.359610999
 20
59.655447276
 30
0.0
 11
-5.249823685
 21
60.248768073
 31
0.0
  0
LINE
  5
204
330
1D
100
AcDbEntity
  8
SK1
100
AcDbLine
 10
-5.249823685
 20
60.248768073
 30
0.0
 11
-5.213066695
 21
60.85
 31
0.0
  0
LINE
  5
205
330
1D
100
AcDbEntity
  8
SK1
100
AcDbLine
 10
-5.213066695
 20
60.85
 30
0.0
 11
-5.249823685
 21
61.451231927
 31
0.0
  0
LINE
  5
206
330
1D
100
AcDbEntity
  8
SK1
100
AcDbLine
 10
-5.249823685
 20
61.451231927
 30
0.0
 11
-5.359610999
 21
62.044552724
 31
0.0
  0
LINE
  5
207
330
1D
100
AcDbEntity
  8
SK1
100
AcDbLine
 10
-5.359610999
 20
62.044552724
 30
0.0
 11
-5.540984035
 21
62.622155359
 31
0.0
  0
LINE
  5
208
330
1D
100
AcDbEntity
  8
SK1
100
AcDbLine
 10
-5.540984035
 20
62.622155359
 30
0.0
 11
-5.79155625
 21
63.176439622
 31
0.0
  0
LINE
  5
209
330
1D
100
AcDbEntity
  8
SK1
100
AcDbLine
 10
-5.79155625
 20
63.176439622
 30
0.0
 11
-6.108030564
 21
63.700112128
 31
0.0
  0
LINE
  5
20A
330
1D
100
AcDbEntity
  8
SK1
100
AcDbLine
 10
-6.108030564
 20
63.700112128
 30
0.0
 11
-6.486242746
 21
64.186282292
 31
0.0
  0
LINE
  5
20B
330
1D
100
AcDbEntity
  8
SK1
100
AcDbLine
 10
-6.486242746
 20
64.186282292
 30
0.0
 11
-6.921216204
 21
64.62855299
 31
0.0
  0
LINE
  5
20C
330
1D
100
AcDbEntity
  8
SK1
100
AcDbLine
 10
-6.921216204
 20
64.62855299
 30
0.0
 11
-7.407227471
 21
65.021104735
 31
0.0
  0
LINE
  5
20D
330
1D
100
AcDbEntity
  8
SK1
100
AcDbLine
 10
-7.407227471
 20
65.021104735
 30
0.0
 11
-7.937881515
 21
65.358772255
 31
0.0
  0
LINE
  5
20E
330
1D
100
AcDbEntity
  8
SK1
100
AcDbLine
 10
-7.937881515
 20
65.358772255
 30
0.0
 11
-8.506195883
 21
65.637112451
 31
0.0
  0
LINE
  5
20F
330
1D
100
AcDbEntity
  8
SK1
100
AcDbLine
 10
-8.506195883
 20
65.637112451
 30
0.0
 11
-9.104692582
 21
65.85246287
 31
0.0
  0
LINE
  5
210
330
1D
100
AcDbEntity
  8
SK1
100
AcDbLine
 10
-9.104692582
 20
65.85246287
 30
0.0
 11
-9.725496474
 21
66.001989886
 31
0.0
  0
LINE
  5
211
330
1D
100
AcDbEntity
  8
SK1
100
AcDbLine
 10
-9.725496474
 20
66.001989886
 30
0.0
 11
-10.360438897
 21
66.083725994
 31
0.0
  0
LINE
  5
212
330
1D
100
AcDbEntity
  8
SK1
100
AcDbLine
 10
-10.360438897
 20
66.083725994
 30
0.0
 11
-11.001165152
 21
66.096595693
 31
0.0
  0
LINE
  5
213
330
1D
100
AcDbEntity
  8
SK1
100
AcDbLine
 10
-11.001165152
 20
66.096595693
 30
0.0
 11
-11.639244436
 21
66.040429643
 31
0.0
  0
LINE
  5
214
330
1D
100
AcDbEntity
  8
SK1
100
AcDbLine
 10
-11.639244436
 20
66.040429643
 30
0.0
 11
-12.266280775
 21
65.915966886
 31
0.0
  0
LINE
  5
215
330
1D
100
AcDbEntity
  8
SK1
100
AcDbLine
 10
-12.266280775
 20
65.915966886
 30
0.0
 11
-12.8740235
 21
65.724845129
 31
0.0
  0
LINE
  5
216
330
1D
100
AcDbEntity
  8
SK1
100
AcDbLine
 10
-12.8740235
 20
65.724845129
 30
0.0
 11
-13.45447581
 21
65.469579189
 31
0.0
  0
LINE
  5
217
330
1D
100
AcDbEntity
  8
SK1
100
AcDbLine
 10
-13.45447581
 20
65.469579189
 30
0.0
 11
-14.0
 21
65.153527908
 31
0.0
  0
LINE
  5
218
330
1D
100
AcDbEntity
  8
SK1
100
AcDbLine
 10
-14.0
 20
65.153527908
 30
0.0
 11
-14.0
 21
69.546472092
 31
0.0
  0
LINE
  5
219
330
1D
100
AcDbEntity
  8
SK1
100
AcDbLine
 10
-14.0
 20
69.546472092
 30
0.0
 11
-13.45447581
 21
69.230420811
 31
0.0
  0
LINE
  5
21A
330
1D
100
AcDbEntity
  8
SK1
100
AcDbLine
 10
-13.45447581
 20
69.230420811
 30
0.0
 11
-12.8740235
 21
68.975154871
 31
0.0
  0
LINE
  5
21B
330
1D
100
AcDbEntity
  8
SK1
100
AcDbLine
 10
-12.8740235
 20
68.975154871
 30
0.0
 11
-12.266280775
 21
68.784033114
 31
0.0
  0
LINE
  5
21C
330
1D
100
AcDbEntity
  8
SK1
100
AcDbLine
 10
-12.266280775
 20
68.784033114
 30
0.0
 11
-11.639244436
 21
68.659570357
 31
0.0
  0
LINE
  5
21D
330
1D
100
AcDbEntity
  8
SK1
100
AcDbLine
 10
-11.639244436
 20
68.659570357
 30
0.0
 11
-11.001165152
 21
68.603404307
 31
0.0
  0
LINE
  5
21E
330
1D
100
AcDbEntity
  8
SK1
100
AcDbLine
 10
-11.001165152
 20
68.603404307
 30
0.0
 11
-10.360438897
 21
68.616274006
 31
0.0
  0
LINE
  5
21F
330
1D
100
AcDbEntity
  8
SK1
100
AcDbLine
 10
-10.360438897
 20
68.616274006
 30
0.0
 11
-9.725496474
 21
68.698010114
 31
0.0
  0
LINE
  5
220
330
1D
100
AcDbEntity
  8
SK1
100
AcDbLine
 10
-9.725496474
 20
68.698010114
 30
0.0
 11
-9.104692582
 21
68.847537131
 31
0.0
  0
LINE
  5
221
330
1D
100
AcDbEntity
  8
SK1
100
AcDbLine
 10
-9.104692582
 20
68.847537131
 30
0.0
 11
-8.506195883
 21
69.062887549
 31
0.0
  0
LINE
  5
222
330
1D
100
AcDbEntity
  8
SK1
100
AcDbLine
 10
-8.506195883
 20
69.062887549
 30
0.0
 11
-7.937881515
 21
69.341227745
 31
0.0
  0
LINE
  5
223
330
1D
100
AcDbEntity
  8
SK1
100
AcDbLine
 10
-7.937881515
 20
69.341227745
 30
0.0
 11
-7.407227471
 21
69.678895265
 31
0.0
  0
LINE
  5
224
330
1D
100
AcDbEntity
  8
SK1
100
AcDbLine
 10
-7.407227471
 20
69.678895265
 30
0.0
 11
-6.921216204
 21
70.07144701
 31
0.0
  0
LINE
  5
225
330
1D
100
AcDbEntity
  8
SK1
100
AcDbLine
 10
-6.921216204
 20
70.07144701
 30
0.0
 11
-6.486242746
 21
70.513717708
 31
0.0
  0
LINE
  5
226
330
1D
100
AcDbEntity
  8
SK1
100
AcDbLine
 10
-6.486242746
 20
70.513717708
 30
0.0
 11
-6.108030564
 21
70.999887872
 31
0.0
  0
LINE
  5
227
330
1D
100
AcDbEntity
  8
SK1
100
AcDbLine
 10
-6.108030564
 20
70.999887872
 30
0.0
 11
-5.79155625
 21
71.523560378
 31
0.0
  0
LINE
  5
228
330
1D
100
AcDbEntity
  8
SK1
100
AcDbLine
 10
-5.79155625
 20
71.523560378
 30
0.0
 11
-5.540984035
 21
72.07784464
 31
0.0
  0
LINE
  5
229
330
1D
100
AcDbEntity
  8
SK1
100
AcDbLine
 10
-5.540984035
 20
72.07784464
 30
0.0
 11
-5.359610999
 21
72.655447276
 31
0.0
  0
LINE
  5
22A
330
1D
100
AcDbEntity
  8
SK1
100
AcDbLine
 10
-5.359610999
 20
72.655447276
 30
0.0
 11
-5.249823685
 21
73.248768073
 31
0.0
  0
LINE
  5
22B
330
1D
100
AcDbEntity
  8
SK1
100
AcDbLine
 10
-5.249823685
 20
73.248768073
 30
0.0
 11
-5.213066695
 21
73.85
 31
0.0
  0
LINE
  5
22C
330
1D
100
AcDbEntity
  8
SK1
100
AcDbLine
 10
-5.213066695
 20
73.85
 30
0.0
 11
-5.249823685
 21
74.451231927
 31
0.0
  0
LINE
  5
22D
330
1D
100
AcDbEntity
  8
SK1
100
AcDbLine
 10
-5.249823685
 20
74.451231927
 30
0.0
 11
-5.359610999
 21
75.044552724
 31
0.0
  0
LINE
  5
22E
330
1D
100
AcDbEntity
  8
SK1
100
AcDbLine
 10
-5.359610999
 20
75.044552724
 30
0.0
 11
-5.540984035
 21
75.622155359
 31
0.0
  0
LINE
  5
22F
330
1D
100
AcDbEntity
  8
SK1
100
AcDbLine
 10
-5.540984035
 20
75.622155359
 30
0.0
 11
-5.79155625
 21
76.176439622
 31
0.0
  0
LINE
  5
230
330
1D
100
AcDbEntity
  8
SK1
100
AcDbLine
 10
-5.79155625
 20
76.176439622
 30
0.0
 11
-6.108030564
 21
76.700112128
 31
0.0
  0
LINE
  5
231
330
1D
100
AcDbEntity
  8
SK1
100
AcDbLine
 10
-6.108030564
 20
76.700112128
 30
0.0
 11
-6.486242746
 21
77.186282292
 31
0.0
  0
LINE
  5
232
330
1D
100
AcDbEntity
  8
SK1
100
AcDbLine
 10
-6.486242746
 20
77.186282292
 30
0.0
 11
-6.921216204
 21
77.62855299
 31
0.0
  0
LINE
  5
233
330
1D
100
AcDbEntity
  8
SK1
100
AcDbLine
 10
-6.921216204
 20
77.62855299
 30
0.0
 11
-7.407227471
 21
78.021104735
 31
0.0
  0
LINE
  5
234
330
1D
100
AcDbEntity
  8
SK1
100
AcDbLine
 10
-7.407227471
 20
78.021104735
 30
0.0
 11
-7.937881515
 21
78.358772255
 31
0.0
  0
LINE
  5
235
330
1D
100
AcDbEntity
  8
SK1
100
AcDbLine
 10
-7.937881515
 20
78.358772255
 30
0.0
 11
-8.506195883
 21
78.637112451
 31
0.0
  0
LINE
  5
236
330
1D
100
AcDbEntity
  8
SK1
100
AcDbLine
 10
-8.506195883
 20
78.637112451
 30
0.0
 11
-9.104692582
 21
78.852462869
 31
0.0
  0
LINE
  5
237
330
1D
100
AcDbEntity
  8
SK1
100
AcDbLine
 10
-9.104692582
 20
78.852462869
 30
0.0
 11
-9.725496474
 21
79.001989886
 31
0.0
  0
LINE
  5
238
330
1D
100
AcDbEntity
  8
SK1
100
AcDbLine
 10
-9.725496474
 20
79.001989886
 30
0.0
 11
-10.360438897
 21
79.083725994
 31
0.0
  0
LINE
  5
239
330
1D
100
AcDbEntity
  8
SK1
100
AcDbLine
 10
-10.360438897
 20
79.083725994
 30
0.0
 11
-11.001165152
 21
79.096595693
 31
0.0
  0
LINE
  5
23A
330
1D
100
AcDbEntity
  8
SK1
100
AcDbLine
 10
-11.001165152
 20
79.096595693
 30
0.0
 11
-11.639244436
 21
79.040429643
 31
0.0
  0
LINE
  5
23B
330
1D
100
AcDbEntity
  8
SK1
100
AcDbLine
 10
-11.639244436
 20
79.040429643
 30
0.0
 11
-12.266280775
 21
78.915966886
 31
0.0
  0
LINE
  5
23C
330
1D
100
AcDbEntity
  8
SK1
100
AcDbLine
 10
-12.266280775
 20
78.915966886
 30
0.0
 11
-12.8740235
 21
78.724845129
 31
0.0
  0
LINE
  5
23D
330
1D
100
AcDbEntity
  8
SK1
100
AcDbLine
 10
-12.8740235
 20
78.724845129
 30
0.0
 11
-13.45447581
 21
78.469579189
 31
0.0
  0
LINE
  5
23E
330
1D
100
AcDbEntity
  8
SK1
100
AcDbLine
 10
-13.45447581
 20
78.469579189
 30
0.0
 11
-14.0
 21
78.153527908
 31
0.0
  0
LINE
  5
23F
330
1D
100
AcDbEntity
  8
SK1
100
AcDbLine
 10
-14.0
 20
78.153527908
 30
0.0
 11
-14.0
 21
82.9
 31
0.0
  0
LINE
  5
240
330
1D
100
AcDbEntity
  8
SK1
100
AcDbLine
 10
-10.362109725
 20
79.083849668
 30
0.0
 11
-10.413507332
 21
79.079261674
 31
0.0
  0
LINE
  5
241
330
1D
100
AcDbEntity
  8
SK1
100
AcDbLine
 10
-10.413507332
 20
79.079261674
 30
0.0
 11
-10.991614969
 21
78.987421585
 31
0.0
  0
LINE
  5
242
330
1D
100
AcDbEntity
  8
SK1
100
AcDbLine
 10
-10.991614969
 20
78.987421585
 30
0.0
 11
-11.555457778
 21
78.823463358
 31
0.0
  0
LINE
  5
243
330
1D
100
AcDbEntity
  8
SK1
100
AcDbLine
 10
-11.555457778
 20
78.823463358
 30
0.0
 11
-12.097120641
 21
78.589688607
 31
0.0
  0
LINE
  5
244
330
1D
100
AcDbEntity
  8
SK1
100
AcDbLine
 10
-12.097120641
 20
78.589688607
 30
0.0
 11
-12.6089998
 21
78.289379018
 31
0.0
  0
LINE
  5
245
330
1D
100
AcDbEntity
  8
SK1
100
AcDbLine
 10
-12.6089998
 20
78.289379018
 30
0.0
 11
-13.083909592
 21
77.926750279
 31
0.0
  0
LINE
  5
246
330
1D
100
AcDbEntity
  8
SK1
100
AcDbLine
 10
-13.083909592
 20
77.926750279
 30
0.0
 11
-13.515183325
 21
77.506892903
 31
0.0
  0
LINE
  5
247
330
1D
100
AcDbEntity
  8
SK1
100
AcDbLine
 10
-13.515183325
 20
77.506892903
 30
0.0
 11
-13.896766861
 21
77.035700766
 31
0.0
  0
LINE
  5
248
330
1D
100
AcDbEntity
  8
SK1
100
AcDbLine
 10
-13.896766861
 20
77.035700766
 30
0.0
 11
-13.932223221
 21
76.985658871
 31
0.0
  0
LINE
  5
249
330
1D
100
AcDbEntity
  8
SK1
100
AcDbLine
 10
-13.932223221
 20
70.714341129
 30
0.0
 11
-13.896766861
 21
70.664299234
 31
0.0
  0
LINE
  5
24A
330
1D
100
AcDbEntity
  8
SK1
100
AcDbLine
 10
-13.896766861
 20
70.664299234
 30
0.0
 11
-13.515183325
 21
70.193107097
 31
0.0
  0
LINE
  5
24B
330
1D
100
AcDbEntity
  8
SK1
100
AcDbLine
 10
-13.515183325
 20
70.193107097
 30
0.0
 11
-13.083909592
 21
69.773249721
 31
0.0
  0
LINE
  5
24C
330
1D
100
AcDbEntity
  8
SK1
100
AcDbLine
 10
-13.083909592
 20
69.773249721
 30
0.0
 11
-12.6089998
 21
69.410620982
 31
0.0
  0
LINE
  5
24D
330
1D
100
AcDbEntity
  8
SK1
100
AcDbLine
 10
-12.6089998
 20
69.410620982
 30
0.0
 11
-12.097120641
 21
69.110311393
 31
0.0
  0
LINE
  5
24E
330
1D
100
AcDbEntity
  8
SK1
100
AcDbLine
 10
-12.097120641
 20
69.110311393
 30
0.0
 11
-11.555457778
 21
68.876536642
 31
0.0
  0
LINE
  5
24F
330
1D
100
AcDbEntity
  8
SK1
100
AcDbLine
 10
-11.555457778
 20
68.876536642
 30
0.0
 11
-10.991614969
 21
68.712578415
 31
0.0
  0
LINE
  5
250
330
1D
100
AcDbEntity
  8
SK1
100
AcDbLine
 10
-10.991614969
 20
68.712578415
 30
0.0
 11
-10.413507332
 21
68.620738326
 31
0.0
  0
LINE
  5
251
330
1D
100
AcDbEntity
  8
SK1
100
AcDbLine
 10
-10.413507332
 20
68.620738326
 30
0.0
 11
-10.362109725
 21
68.616150332
 31
0.0
  0
LINE
  5
252
330
1D
100
AcDbEntity
  8
SK1
100
AcDbLine
 10
-14.0
 20
78.153527908
 30
0.0
 11
-14.36379574
 21
77.786838934
 31
0.0
  0
LINE
  5
253
330
1D
100
AcDbEntity
  8
SK1
100
AcDbLine
 10
-14.36379574
 20
77.786838934
 30
0.0
 11
-14.692995427
 21
77.369889919
 31
0.0
  0
LINE
  5
254
330
1D
100
AcDbEntity
  8
SK1
100
AcDbLine
 10
-14.692995427
 20
77.369889919
 30
0.0
 11
-14.983396303
 21
76.908003882
 31
0.0
  0
LINE
  5
255
330
1D
100
AcDbEntity
  8
SK1
100
AcDbLine
 10
-14.983396303
 20
76.908003882
 30
0.0
 11
-15.231290934
 21
76.407077536
 31
0.0
  0
LINE
  5
256
330
1D
100
AcDbEntity
  8
SK1
100
AcDbLine
 10
-15.231290934
 20
76.407077536
 30
0.0
 11
-15.43351455
 21
75.873506009
 31
0.0
  0
LINE
  5
257
330
1D
100
AcDbEntity
  8
SK1
100
AcDbLine
 10
-15.43351455
 20
75.873506009
 30
0.0
 11
-15.587485443
 21
75.314101192
 31
0.0
  0
LINE
  5
258
330
1D
100
AcDbEntity
  8
SK1
100
AcDbLine
 10
-15.587485443
 20
75.314101192
 30
0.0
 11
-15.691237928
 21
74.736004783
 31
0.0
  0
LINE
  5
259
330
1D
100
AcDbEntity
  8
SK1
100
AcDbLine
 10
-15.691237928
 20
74.736004783
 30
0.0
 11
-15.74344744
 21
74.146597106
 31
0.0
  0
LINE
  5
25A
330
1D
100
AcDbEntity
  8
SK1
100
AcDbLine
 10
-15.74344744
 20
74.146597106
 30
0.0
 11
-15.74344744
 21
73.553402894
 31
0.0
  0
LINE
  5
25B
330
1D
100
AcDbEntity
  8
SK1
100
AcDbLine
 10
-15.74344744
 20
73.553402894
 30
0.0
 11
-15.691237928
 21
72.963995217
 31
0.0
  0
LINE
  5
25C
330
1D
100
AcDbEntity
  8
SK1
100
AcDbLine
 10
-15.691237928
 20
72.963995217
 30
0.0
 11
-15.587485443
 21
72.385898808
 31
0.0
  0
LINE
  5
25D
330
1D
100
AcDbEntity
  8
SK1
100
AcDbLine
 10
-15.587485443
 20
72.385898808
 30
0.0
 11
-15.43351455
 21
71.826493991
 31
0.0
  0
LINE
  5
25E
330
1D
100
AcDbEntity
  8
SK1
100
AcDbLine
 10
-15.43351455
 20
71.826493991
 30
0.0
 11
-15.231290934
 21
71.292922464
 31
0.0
  0
LINE
  5
25F
330
1D
100
AcDbEntity
  8
SK1
100
AcDbLine
 10
-15.231290934
 20
71.292922464
 30
0.0
 11
-14.983396303
 21
70.791996118
 31
0.0
  0
LINE
  5
260
330
1D
100
AcDbEntity
  8
SK1
100
AcDbLine
 10
-14.983396303
 20
70.791996118
 30
0.0
 11
-14.692995427
 21
70.330110081
 31
0.0
  0
LINE
  5
261
330
1D
100
AcDbEntity
  8
SK1
100
AcDbLine
 10
-14.692995427
 20
70.330110081
 30
0.0
 11
-14.36379574
 21
69.913161066
 31
0.0
  0
LINE
  5
262
330
1D
100
AcDbEntity
  8
SK1
100
AcDbLine
 10
-14.36379574
 20
69.913161066
 30
0.0
 11
-14.0
 21
69.546472092
 31
0.0
  0
LINE
  5
263
330
1D
100
AcDbEntity
  8
SK1
100
AcDbLine
 10
-10.362109725
 20
53.083849668
 30
0.0
 11
-10.413507332
 21
53.079261674
 31
0.0
  0
LINE
  5
264
330
1D
100
AcDbEntity
  8
SK1
100
AcDbLine
 10
-10.413507332
 20
53.079261674
 30
0.0
 11
-10.991614969
 21
52.987421585
 31
0.0
  0
LINE
  5
265
330
1D
100
AcDbEntity
  8
SK1
100
AcDbLine
 10
-10.991614969
 20
52.987421585
 30
0.0
 11
-11.555457778
 21
52.823463358
 31
0.0
  0
LINE
  5
266
330
1D
100
AcDbEntity
  8
SK1
100
AcDbLine
 10
-11.555457778
 20
52.823463358
 30
0.0
 11
-12.097120641
 21
52.589688607
 31
0.0
  0
LINE
  5
267
330
1D
100
AcDbEntity
  8
SK1
100
AcDbLine
 10
-12.097120641
 20
52.589688607
 30
0.0
 11
-12.6089998
 21
52.289379018
 31
0.0
  0
LINE
  5
268
330
1D
100
AcDbEntity
  8
SK1
100
AcDbLine
 10
-12.6089998
 20
52.289379018
 30
0.0
 11
-13.083909592
 21
51.926750279
 31
0.0
  0
LINE
  5
269
330
1D
100
AcDbEntity
  8
SK1
100
AcDbLine
 10
-13.083909592
 20
51.926750279
 30
0.0
 11
-13.515183325
 21
51.506892903
 31
0.0
  0
LINE
  5
26A
330
1D
100
AcDbEntity
  8
SK1
100
AcDbLine
 10
-13.515183325
 20
51.506892903
 30
0.0
 11
-13.896766861
 21
51.035700766
 31
0.0
  0
LINE
  5
26B
330
1D
100
AcDbEntity
  8
SK1
100
AcDbLine
 10
-13.896766861
 20
51.035700766
 30
0.0
 11
-13.932223221
 21
50.985658871
 31
0.0
  0
LINE
  5
26C
330
1D
100
AcDbEntity
  8
SK1
100
AcDbLine
 10
-13.932223221
 20
44.714341129
 30
0.0
 11
-13.896766861
 21
44.664299234
 31
0.0
  0
LINE
  5
26D
330
1D
100
AcDbEntity
  8
SK1
100
AcDbLine
 10
-13.896766861
 20
44.664299234
 30
0.0
 11
-13.515183325
 21
44.193107097
 31
0.0
  0
LINE
  5
26E
330
1D
100
AcDbEntity
  8
SK1
100
AcDbLine
 10
-13.515183325
 20
44.193107097
 30
0.0
 11
-13.083909592
 21
43.773249721
 31
0.0
  0
LINE
  5
26F
330
1D
100
AcDbEntity
  8
SK1
100
AcDbLine
 10
-13.083909592
 20
43.773249721
 30
0.0
 11
-12.6089998
 21
43.410620982
 31
0.0
  0
LINE
  5
270
330
1D
100
AcDbEntity
  8
SK1
100
AcDbLine
 10
-12.6089998
 20
43.410620982
 30
0.0
 11
-12.097120641
 21
43.110311393
 31
0.0
  0
LINE
  5
271
330
1D
100
AcDbEntity
  8
SK1
100
AcDbLine
 10
-12.097120641
 20
43.110311393
 30
0.0
 11
-11.555457778
 21
42.876536642
 31
0.0
  0
LINE
  5
272
330
1D
100
AcDbEntity
  8
SK1
100
AcDbLine
 10
-11.555457778
 20
42.876536642
 30
0.0
 11
-10.991614969
 21
42.712578415
 31
0.0
  0
LINE
  5
273
330
1D
100
AcDbEntity
  8
SK1
100
AcDbLine
 10
-10.991614969
 20
42.712578415
 30
0.0
 11
-10.413507332
 21
42.620738326
 31
0.0
  0
LINE
  5
274
330
1D
100
AcDbEntity
  8
SK1
100
AcDbLine
 10
-10.413507332
 20
42.620738326
 30
0.0
 11
-10.362109725
 21
42.616150332
 31
0.0
  0
LINE
  5
275
330
1D
100
AcDbEntity
  8
SK1
100
AcDbLine
 10
-14.0
 20
52.153527908
 30
0.0
 11
-14.36379574
 21
51.786838934
 31
0.0
  0
LINE
  5
276
330
1D
100
AcDbEntity
  8
SK1
100
AcDbLine
 10
-14.36379574
 20
51.786838934
 30
0.0
 11
-14.692995427
 21
51.369889919
 31
0.0
  0
LINE
  5
277
330
1D
100
AcDbEntity
  8
SK1
100
AcDbLine
 10
-14.692995427
 20
51.369889919
 30
0.0
 11
-14.983396303
 21
50.908003882
 31
0.0
  0
LINE
  5
278
330
1D
100
AcDbEntity
  8
SK1
100
AcDbLine
 10
-14.983396303
 20
50.908003882
 30
0.0
 11
-15.231290934
 21
50.407077536
 31
0.0
  0
LINE
  5
279
330
1D
100
AcDbEntity
  8
SK1
100
AcDbLine
 10
-15.231290934
 20
50.407077536
 30
0.0
 11
-15.43351455
 21
49.873506009
 31
0.0
  0
LINE
  5
27A
330
1D
100
AcDbEntity
  8
SK1
100
AcDbLine
 10
-15.43351455
 20
49.873506009
 30
0.0
 11
-15.587485443
 21
49.314101192
 31
0.0
  0
LINE
  5
27B
330
1D
100
AcDbEntity
  8
SK1
100
AcDbLine
 10
-15.587485443
 20
49.314101192
 30
0.0
 11
-15.691237928
 21
48.736004783
 31
0.0
  0
LINE
  5
27C
330
1D
100
AcDbEntity
  8
SK1
100
AcDbLine
 10
-15.691237928
 20
48.736004783
 30
0.0
 11
-15.74344744
 21
48.146597106
 31
0.0
  0
LINE
  5
27D
330
1D
100
AcDbEntity
  8
SK1
100
AcDbLine
 10
-15.74344744
 20
48.146597106
 30
0.0
 11
-15.74344744
 21
47.553402894
 31
0.0
  0
LINE
  5
27E
330
1D
100
AcDbEntity
  8
SK1
100
AcDbLine
 10
-15.74344744
 20
47.553402894
 30
0.0
 11
-15.691237928
 21
46.963995217
 31
0.0
  0
LINE
  5
27F
330
1D
100
AcDbEntity
  8
SK1
100
AcDbLine
 10
-15.691237928
 20
46.963995217
 30
0.0
 11
-15.587485443
 21
46.385898808
 31
0.0
  0
LINE
  5
280
330
1D
100
AcDbEntity
  8
SK1
100
AcDbLine
 10
-15.587485443
 20
46.385898808
 30
0.0
 11
-15.43351455
 21
45.826493991
 31
0.0
  0
LINE
  5
281
330
1D
100
AcDbEntity
  8
SK1
100
AcDbLine
 10
-15.43351455
 20
45.826493991
 30
0.0
 11
-15.231290934
 21
45.292922464
 31
0.0
  0
LINE
  5
282
330
1D
100
AcDbEntity
  8
SK1
100
AcDbLine
 10
-15.231290934
 20
45.292922464
 30
0.0
 11
-14.983396303
 21
44.791996118
 31
0.0
  0
LINE
  5
283
330
1D
100
AcDbEntity
  8
SK1
100
AcDbLine
 10
-14.983396303
 20
44.791996118
 30
0.0
 11
-14.692995427
 21
44.330110081
 31
0.0
  0
LINE
  5
284
330
1D
100
AcDbEntity
  8
SK1
100
AcDbLine
 10
-14.692995427
 20
44.330110081
 30
0.0
 11
-14.36379574
 21
43.913161066
 31
0.0
  0
LINE
  5
285
330
1D
100
AcDbEntity
  8
SK1
100
AcDbLine
 10
-14.36379574
 20
43.913161066
 30
0.0
 11
-14.0
 21
43.546472092
 31
0.0
  0
LINE
  5
286
330
1D
100
AcDbEntity
  8
SK1
100
AcDbLine
 10
-10.362109725
 20
66.083849668
 30
0.0
 11
-10.413507332
 21
66.079261674
 31
0.0
  0
LINE
  5
287
330
1D
100
AcDbEntity
  8
SK1
100
AcDbLine
 10
-10.413507332
 20
66.079261674
 30
0.0
 11
-10.991614969
 21
65.987421585
 31
0.0
  0
LINE
  5
288
330
1D
100
AcDbEntity
  8
SK1
100
AcDbLine
 10
-10.991614969
 20
65.987421585
 30
0.0
 11
-11.555457778
 21
65.823463358
 31
0.0
  0
LINE
  5
289
330
1D
100
AcDbEntity
  8
SK1
100
AcDbLine
 10
-11.555457778
 20
65.823463358
 30
0.0
 11
-12.097120641
 21
65.589688607
 31
0.0
  0
LINE
  5
28A
330
1D
100
AcDbEntity
  8
SK1
100
AcDbLine
 10
-12.097120641
 20
65.589688607
 30
0.0
 11
-12.6089998
 21
65.289379018
 31
0.0
  0
LINE
  5
28B
330
1D
100
AcDbEntity
  8
SK1
100
AcDbLine
 10
-12.6089998
 20
65.289379018
 30
0.0
 11
-13.083909592
 21
64.926750279
 31
0.0
  0
LINE
  5
28C
330
1D
100
AcDbEntity
  8
SK1
100
AcDbLine
 10
-13.083909592
 20
64.926750279
 30
0.0
 11
-13.515183325
 21
64.506892903
 31
0.0
  0
LINE
  5
28D
330
1D
100
AcDbEntity
  8
SK1
100
AcDbLine
 10
-13.515183325
 20
64.506892903
 30
0.0
 11
-13.896766861
 21
64.035700766
 31
0.0
  0
LINE
  5
28E
330
1D
100
AcDbEntity
  8
SK1
100
AcDbLine
 10
-13.896766861
 20
64.035700766
 30
0.0
 11
-13.932223221
 21
63.985658871
 31
0.0
  0
LINE
  5
28F
330
1D
100
AcDbEntity
  8
SK1
100
AcDbLine
 10
-13.932223221
 20
57.714341129
 30
0.0
 11
-13.896766861
 21
57.664299234
 31
0.0
  0
LINE
  5
290
330
1D
100
AcDbEntity
  8
SK1
100
AcDbLine
 10
-13.896766861
 20
57.664299234
 30
0.0
 11
-13.515183325
 21
57.193107097
 31
0.0
  0
LINE
  5
291
330
1D
100
AcDbEntity
  8
SK1
100
AcDbLine
 10
-13.515183325
 20
57.193107097
 30
0.0
 11
-13.083909592
 21
56.773249721
 31
0.0
  0
LINE
  5
292
330
1D
100
AcDbEntity
  8
SK1
100
AcDbLine
 10
-13.083909592
 20
56.773249721
 30
0.0
 11
-12.6089998
 21
56.410620982
 31
0.0
  0
LINE
  5
293
330
1D
100
AcDbEntity
  8
SK1
100
AcDbLine
 10
-12.6089998
 20
56.410620982
 30
0.0
 11
-12.097120641
 21
56.110311393
 31
0.0
  0
LINE
  5
294
330
1D
100
AcDbEntity
  8
SK1
100
AcDbLine
 10
-12.097120641
 20
56.110311393
 30
0.0
 11
-11.555457778
 21
55.876536642
 31
0.0
  0
LINE
  5
295
330
1D
100
AcDbEntity
  8
SK1
100
AcDbLine
 10
-11.555457778
 20
55.876536642
 30
0.0
 11
-10.991614969
 21
55.712578415
 31
0.0
  0
LINE
  5
296
330
1D
100
AcDbEntity
  8
SK1
100
AcDbLine
 10
-10.991614969
 20
55.712578415
 30
0.0
 11
-10.413507332
 21
55.620738326
 31
0.0
  0
LINE
  5
297
330
1D
100
AcDbEntity
  8
SK1
100
AcDbLine
 10
-10.413507332
 20
55.620738326
 30
0.0
 11
-10.362109725
 21
55.616150332
 31
0.0
  0
LINE
  5
298
330
1D
100
AcDbEntity
  8
SK1
100
AcDbLine
 10
-14.0
 20
65.153527908
 30
0.0
 11
-14.36379574
 21
64.786838934
 31
0.0
  0
LINE
  5
299
330
1D
100
AcDbEntity
  8
SK1
100
AcDbLine
 10
-14.36379574
 20
64.786838934
 30
0.0
 11
-14.692995427
 21
64.369889919
 31
0.0
  0
LINE
  5
29A
330
1D
100
AcDbEntity
  8
SK1
100
AcDbLine
 10
-14.692995427
 20
64.369889919
 30
0.0
 11
-14.983396303
 21
63.908003882
 31
0.0
  0
LINE
  5
29B
330
1D
100
AcDbEntity
  8
SK1
100
AcDbLine
 10
-14.983396303
 20
63.908003882
 30
0.0
 11
-15.231290934
 21
63.407077536
 31
0.0
  0
LINE
  5
29C
330
1D
100
AcDbEntity
  8
SK1
100
AcDbLine
 10
-15.231290934
 20
63.407077536
 30
0.0
 11
-15.43351455
 21
62.873506009
 31
0.0
  0
LINE
  5
29D
330
1D
100
AcDbEntity
  8
SK1
100
AcDbLine
 10
-15.43351455
 20
62.873506009
 30
0.0
 11
-15.587485443
 21
62.314101192
 31
0.0
  0
LINE
  5
29E
330
1D
100
AcDbEntity
  8
SK1
100
AcDbLine
 10
-15.587485443
 20
62.314101192
 30
0.0
 11
-15.691237928
 21
61.736004783
 31
0.0
  0
LINE
  5
29F
330
1D
100
AcDbEntity
  8
SK1
100
AcDbLine
 10
-15.691237928
 20
61.736004783
 30
0.0
 11
-15.74344744
 21
61.146597106
 31
0.0
  0
LINE
  5
2A0
330
1D
100
AcDbEntity
  8
SK1
100
AcDbLine
 10
-15.74344744
 20
61.146597106
 30
0.0
 11
-15.74344744
 21
60.553402894
 31
0.0
  0
LINE
  5
2A1
330
1D
100
AcDbEntity
  8
SK1
100
AcDbLine
 10
-15.74344744
 20
60.553402894
 30
0.0
 11
-15.691237928
 21
59.963995217
 31
0.0
  0
LINE
  5
2A2
330
1D
100
AcDbEntity
  8
SK1
100
AcDbLine
 10
-15.691237928
 20
59.963995217
 30
0.0
 11
-15.587485443
 21
59.385898808
 31
0.0
  0
LINE
  5
2A3
330
1D
100
AcDbEntity
  8
SK1
100
AcDbLine
 10
-15.587485443
 20
59.385898808
 30
0.0
 11
-15.43351455
 21
58.826493991
 31
0.0
  0
LINE
  5
2A4
330
1D
100
AcDbEntity
  8
SK1
100
AcDbLine
 10
-15.43351455
 20
58.826493991
 30
0.0
 11
-15.231290934
 21
58.292922464
 31
0.0
  0
LINE
  5
2A5
330
1D
100
AcDbEntity
  8
SK1
100
AcDbLine
 10
-15.231290934
 20
58.292922464
 30
0.0
 11
-14.983396303
 21
57.791996118
 31
0.0
  0
LINE
  5
2A6
330
1D
100
AcDbEntity
  8
SK1
100
AcDbLine
 10
-14.983396303
 20
57.791996118
 30
0.0
 11
-14.692995427
 21
57.330110081
 31
0.0
  0
LINE
  5
2A7
330
1D
100
AcDbEntity
  8
SK1
100
AcDbLine
 10
-14.692995427
 20
57.330110081
 30
0.0
 11
-14.36379574
 21
56.913161066
 31
0.0
  0
LINE
  5
2A8
330
1D
100
AcDbEntity
  8
SK1
100
AcDbLine
 10
-14.36379574
 20
56.913161066
 30
0.0
 11
-14.0
 21
56.546472092
 31
0.0
  0
LINE
  5
2A9
330
1D
100
AcDbEntity
  8
SK1
100
AcDbLine
 10
-16.0
 20
10.951821212
 30
0.0
 11
-16.0
 21
84.9
 31
0.0
  0
LINE
  5
2AA
330
1D
100
AcDbEntity
  8
1
  6
Continuous
370
    50
100
AcDbLine
 10
25.0
 20
82.0
 30
0.0
 11
16.5
 21
82.0
 31
0.0
  0
LINE
  5
2AB
330
1D
100
AcDbEntity
  8
1
  6
Continuous
370
    50
100
AcDbLine
 10
25.0
 20
74.258050542
 30
0.0
 11
25.0
 21
82.0
 31
0.0
  0
ARC
  5
2AC
330
1D
100
AcDbEntity
  8
1
  6
Continuous
370
    50
100
AcDbCircle
 10
23.5
 20
74.258050542
 30
0.0
 40
1.5
100
AcDbArc
 50
285.0
 51
0.0
  0
ARC
  5
2AD
330
1D
100
AcDbEntity
  8
1
  6
Continuous
370
    50
100
AcDbCircle
 10
16.5
 20
83.5
 30
0.0
 40
1.5
100
AcDbArc
 50
180.0
 51
270.0
  0
LINE
  5
2AE
330
1D
100
AcDbEntity
  8
1
  6
Continuous
370
    50
100
AcDbLine
 10
25.0
 20
9.483497733
 30
0.0
 11
25.0
 21
74.258050542
 31
0.0
  0
LINE
  5
2AF
330
1D
100
AcDbEntity
  8
1
  6
Continuous
370
    50
100
AcDbLine
 10
45.3
 20
11.295707487
 30
0.0
 11
45.3
 21
7.0
 31
0.0
  0
LINE
  5
2B0
330
1D
100
AcDbEntity
  8
1
  6
Continuous
370
    50
100
AcDbLine
 10
43.3
 20
5.0
 30
0.0
 11
43.3
 21
9.857264128
 31
0.0
  0
LINE
  5
2B1
330
1D
100
AcDbEntity
  8
1
  6
Continuous
370
    50
100
AcDbLine
 10
45.3
 20
11.295707487
 30
0.0
 11
43.3
 21
9.857264128
 31
0.0
  0
LINE
  5
2B2
330
1D
100
AcDbEntity
  8
1
  6
Continuous
370
    50
100
AcDbLine
 10
43.3
 20
9.857264128
 30
0.0
 11
43.3
 21
73.0
 31
0.0
  0
LINE
  5
2B3
330
1D
100
AcDbEntity
  8
1
  6
Continuous
370
    50
100
AcDbLine
 10
43.3
 20
73.0
 30
0.0
 11
45.3
 21
72.171572875
 31
0.0
  0
LINE
  5
2B4
330
1D
100
AcDbEntity
  8
1
  6
Continuous
370
    50
100
AcDbLine
 10
45.3
 20
72.171572875
 30
0.0
 11
45.3
 21
11.295707487
 31
0.0
  0
LINE
  5
2B5
330
1D
100
AcDbEntity
  8
1
  6
Continuous
370
    50
100
AcDbLine
 10
28.1
 20
13.89
 30
0.0
 11
25.0
 21
13.89
 31
0.0
  0
LINE
  5
2B6
330
1D
100
AcDbEntity
  8
1
  6
Continuous
370
    50
100
AcDbLine
 10
28.1
 20
15.1361
 30
0.0
 11
25.0
 21
15.1361
 31
0.0
  0
LINE
  5
2B7
330
1D
100
AcDbEntity
  8
1
  6
Continuous
370
    50
100
AcDbLine
 10
30.1
 20
16.3822
 30
0.0
 11
25.0
 21
16.3822
 31
0.0
  0
LINE
  5
2B8
330
1D
100
AcDbEntity
  8
1
  6
Continuous
370
    50
100
AcDbLine
 10
28.1
 20
17.6283
 30
0.0
 11
25.0
 21
17.6283
 31
0.0
  0
LINE
  5
2B9
330
1D
100
AcDbEntity
  8
1
  6
Continuous
370
    50
100
AcDbLine
 10
28.1
 20
18.8744
 30
0.0
 11
25.0
 21
18.8744
 31
0.0
  0
LINE
  5
2BA
330
1D
100
AcDbEntity
  8
1
  6
Continuous
370
    50
100
AcDbLine
 10
28.1
 20
20.1205
 30
0.0
 11
25.0
 21
20.1205
 31
0.0
  0
LINE
  5
2BB
330
1D
100
AcDbEntity
  8
1
  6
Continuous
370
    50
100
AcDbLine
 10
28.1
 20
21.3666
 30
0.0
 11
25.0
 21
21.3666
 31
0.0
  0
LINE
  5
2BC
330
1D
100
AcDbEntity
  8
1
  6
Continuous
370
    50
100
AcDbLine
 10
30.1
 20
22.6127
 30
0.0
 11
25.0
 21
22.6127
 31
0.0
  0
LINE
  5
2BD
330
1D
100
AcDbEntity
  8
1
  6
Continuous
370
    50
100
AcDbLine
 10
28.1
 20
23.8588
 30
0.0
 11
25.0
 21
23.8588
 31
0.0
  0
LINE
  5
2BE
330
1D
100
AcDbEntity
  8
1
  6
Continuous
370
    50
100
AcDbLine
 10
28.1
 20
25.1049
 30
0.0
 11
25.0
 21
25.1049
 31
0.0
  0
LINE
  5
2BF
330
1D
100
AcDbEntity
  8
1
  6
Continuous
370
    50
100
AcDbLine
 10
28.1
 20
26.351
 30
0.0
 11
25.0
 21
26.351
 31
0.0
  0
LINE
  5
2C0
330
1D
100
AcDbEntity
  8
1
  6
Continuous
370
    50
100
AcDbLine
 10
28.1
 20
27.5971
 30
0.0
 11
25.0
 21
27.5971
 31
0.0
  0
LINE
  5
2C1
330
1D
100
AcDbEntity
  8
1
  6
Continuous
370
    50
100
AcDbLine
 10
30.1
 20
28.8432
 30
0.0
 11
25.0
 21
28.8432
 31
0.0
  0
LINE
  5
2C2
330
1D
100
AcDbEntity
  8
1
  6
Continuous
370
    50
100
AcDbLine
 10
28.1
 20
30.0893
 30
0.0
 11
25.0
 21
30.0893
 31
0.0
  0
LINE
  5
2C3
330
1D
100
AcDbEntity
  8
1
  6
Continuous
370
    50
100
AcDbLine
 10
28.1
 20
31.3354
 30
0.0
 11
25.0
 21
31.3354
 31
0.0
  0
LINE
  5
2C4
330
1D
100
AcDbEntity
  8
1
  6
Continuous
370
    50
100
AcDbLine
 10
28.1
 20
32.5815
 30
0.0
 11
25.0
 21
32.5815
 31
0.0
  0
LINE
  5
2C5
330
1D
100
AcDbEntity
  8
1
  6
Continuous
370
    50
100
AcDbLine
 10
28.1
 20
33.8276
 30
0.0
 11
25.0
 21
33.8276
 31
0.0
  0
LINE
  5
2C6
330
1D
100
AcDbEntity
  8
1
  6
Continuous
370
    50
100
AcDbLine
 10
30.1
 20
35.0737
 30
0.0
 11
25.0
 21
35.0737
 31
0.0
  0
LINE
  5
2C7
330
1D
100
AcDbEntity
  8
1
  6
Continuous
370
    50
100
AcDbLine
 10
28.1
 20
36.3198
 30
0.0
 11
25.0
 21
36.3198
 31
0.0
  0
LINE
  5
2C8
330
1D
100
AcDbEntity
  8
1
  6
Continuous
370
    50
100
AcDbLine
 10
28.1
 20
37.5659
 30
0.0
 11
25.0
 21
37.5659
 31
0.0
  0
LINE
  5
2C9
330
1D
100
AcDbEntity
  8
1
  6
Continuous
370
    50
100
AcDbLine
 10
28.1
 20
38.812
 30
0.0
 11
25.0
 21
38.812
 31
0.0
  0
LINE
  5
2CA
330
1D
100
AcDbEntity
  8
1
  6
Continuous
370
    50
100
AcDbLine
 10
28.1
 20
40.0581
 30
0.0
 11
25.0
 21
40.0581
 31
0.0
  0
LINE
  5
2CB
330
1D
100
AcDbEntity
  8
1
  6
Continuous
370
    50
100
AcDbLine
 10
30.1
 20
41.3042
 30
0.0
 11
25.0
 21
41.3042
 31
0.0
  0
LINE
  5
2CC
330
1D
100
AcDbEntity
  8
1
  6
Continuous
370
    50
100
AcDbLine
 10
28.1
 20
42.5503
 30
0.0
 11
25.0
 21
42.5503
 31
0.0
  0
LINE
  5
2CD
330
1D
100
AcDbEntity
  8
1
  6
Continuous
370
    50
100
AcDbLine
 10
28.1
 20
43.7964
 30
0.0
 11
25.0
 21
43.7964
 31
0.0
  0
LINE
  5
2CE
330
1D
100
AcDbEntity
  8
1
  6
Continuous
370
    50
100
AcDbLine
 10
28.1
 20
45.0425
 30
0.0
 11
25.0
 21
45.0425
 31
0.0
  0
LINE
  5
2CF
330
1D
100
AcDbEntity
  8
1
  6
Continuous
370
    50
100
AcDbLine
 10
28.1
 20
46.2886
 30
0.0
 11
25.0
 21
46.2886
 31
0.0
  0
LINE
  5
2D0
330
1D
100
AcDbEntity
  8
1
  6
Continuous
370
    50
100
AcDbLine
 10
30.1
 20
47.5347
 30
0.0
 11
25.0
 21
47.5347
 31
0.0
  0
LINE
  5
2D1
330
1D
100
AcDbEntity
  8
1
  6
Continuous
370
    50
100
AcDbLine
 10
28.1
 20
48.7808
 30
0.0
 11
25.0
 21
48.7808
 31
0.0
  0
LINE
  5
2D2
330
1D
100
AcDbEntity
  8
1
  6
Continuous
370
    50
100
AcDbLine
 10
28.1
 20
50.0269
 30
0.0
 11
25.0
 21
50.0269
 31
0.0
  0
LINE
  5
2D3
330
1D
100
AcDbEntity
  8
1
  6
Continuous
370
    50
100
AcDbLine
 10
28.1
 20
51.273
 30
0.0
 11
25.0
 21
51.273
 31
0.0
  0
LINE
  5
2D4
330
1D
100
AcDbEntity
  8
1
  6
Continuous
370
    50
100
AcDbLine
 10
28.1
 20
52.5191
 30
0.0
 11
25.0
 21
52.5191
 31
0.0
  0
LINE
  5
2D5
330
1D
100
AcDbEntity
  8
1
  6
Continuous
370
    50
100
AcDbLine
 10
30.1
 20
53.7652
 30
0.0
 11
25.0
 21
53.7652
 31
0.0
  0
LINE
  5
2D6
330
1D
100
AcDbEntity
  8
1
  6
Continuous
370
    50
100
AcDbLine
 10
28.1
 20
55.0113
 30
0.0
 11
25.0
 21
55.0113
 31
0.0
  0
LINE
  5
2D7
330
1D
100
AcDbEntity
  8
1
  6
Continuous
370
    50
100
AcDbLine
 10
25.1
 20
73.0
 30
0.0
 11
43.3
 21
73.0
 31
0.0
  0
LINE
  5
2D8
330
1D
100
AcDbEntity
  8
1
  6
Continuous
370
    50
100
AcDbLine
 10
25.1
 20
9.857264128
 30
0.0
 11
43.3
 21
9.857264128
 31
0.0
  0
LINE
  5
2D9
330
1D
100
AcDbEntity
  8
1
  6
Continuous
370
    50
100
AcDbLine
 10
43.3
 20
73.0
 30
0.0
 11
43.3
 21
89.0
 31
0.0
  0
LINE
  5
2DA
330
1D
100
AcDbEntity
  8
1
  6
Continuous
370
    50
100
AcDbLine
 10
43.3
 20
89.0
 30
0.0
 11
45.3
 21
87.0
 31
0.0
  0
LINE
  5
2DB
330
1D
100
AcDbEntity
  8
1
  6
Continuous
370
    50
100
AcDbLine
 10
45.3
 20
87.0
 30
0.0
 11
45.3
 21
72.171572875
 31
0.0
  0
LINE
  5
2DC
330
1D
100
AcDbEntity
  8
1
  6
Continuous
370
    50
100
AcDbLine
 10
15.0
 20
89.0
 30
0.0
 11
43.3
 21
89.0
 31
0.0
  0
LINE
  5
2DD
330
1D
100
AcDbEntity
  8
1
  6
Continuous
370
    50
100
AcDbLine
 10
15.0
 20
5.0
 30
0.0
 11
15.0
 21
6.975994691
 31
0.0
  0
LINE
  5
2DE
330
1D
100
AcDbEntity
  8
1
  6
Continuous
370
    50
100
AcDbLine
 10
15.0
 20
5.0
 30
0.0
 11
43.3
 21
5.0
 31
0.0
  0
LINE
  5
2DF
330
1D
100
AcDbEntity
  8
SK3
100
AcDbLine
 10
15.0
 20
70.427568136
 30
0.0
 11
15.0
 21
6.975994691
 31
0.0
  0
LINE
  5
2E0
330
1D
100
AcDbEntity
  8
SK3
100
AcDbLine
 10
0.0
 20
7.299423301
 30
0.0
 11
0.0
 21
89.0
 31
0.0
  0
TEXT
  5
2E1
330
1D
100
AcDbEntity
  8
SK6
  6
Continuous
370
    35
100
AcDbText
 10
1.627362896
 20
6.870860394
 30
0.0
 40
3.5
  1
317.105
  7
BMG_Text
100
AcDbText
  0
LINE
  5
2E2
330
1D
100
AcDbEntity
  8
2
  6
Continuous
370
    25
100
AcDbLine
 10
54.971768188
 20
5.0
 30
0.0
 11
43.3
 21
5.0
 31
0.0
  0
LINE
  5
2E3
330
1D
100
AcDbEntity
  8
2
  6
Continuous
370
    25
100
AcDbLine
 10
52.971768188
 20
5.0
 30
0.0
 11
52.521768188
 21
8.5
 31
0.0
  0
LINE
  5
2E4
330
1D
100
AcDbEntity
  8
2
  6
Continuous
370
    25
100
AcDbLine
 10
52.521768188
 20
8.5
 30
0.0
 11
53.421768188
 21
8.5
 31
0.0
  0
LINE
  5
2E5
330
1D
100
AcDbEntity
  8
2
  6
Continuous
370
    25
100
AcDbLine
 10
53.421768188
 20
8.5
 30
0.0
 11
52.971768188
 21
5.0
 31
0.0
  0
LINE
  5
2E6
330
1D
100
AcDbEntity
  8
2
  6
Continuous
370
    25
100
AcDbLine
 10
54.971768188
 20
89.0
 30
0.0
 11
43.3
 21
89.0
 31
0.0
  0
LINE
  5
2E7
330
1D
100
AcDbEntity
  8
2
  6
Continuous
370
    25
100
AcDbLine
 10
52.971768188
 20
89.0
 30
0.0
 11
53.421768188
 21
85.5
 31
0.0
  0
LINE
  5
2E8
330
1D
100
AcDbEntity
  8
2
  6
Continuous
370
    25
100
AcDbLine
 10
53.421768188
 20
85.5
 30
0.0
 11
52.521768188
 21
85.5
 31
0.0
  0
LINE
  5
2E9
330
1D
100
AcDbEntity
  8
2
  6
Continuous
370
    25
100
AcDbLine
 10
52.521768188
 20
85.5
 30
0.0
 11
52.971768188
 21
89.0
 31
0.0
  0
LINE
  5
2EA
330
1D
100
AcDbEntity
  8
2
  6
Continuous
370
    25
100
AcDbLine
 10
52.971768188
 20
8.5
 30
0.0
 11
52.971768188
 21
85.5
 31
0.0
  0
TEXT
  5
2EB
330
1D
100
AcDbEntity
  8
2
100
AcDbText
 10
51.471768188
 20
45.335311561
 30
0.0
 40
3.5
  1
84
 50
90.0
  7
BMG_Text
100
AcDbText
  0
LINE
  5
2EC
330
1D
100
AcDbEntity
  8
2
  6
Continuous
370
    25
100
AcDbLine
 10
-16.0
 20
-3.884797987
 30
0.0
 11
-16.0
 21
7.351121012
 31
0.0
  0
LINE
  5
2ED
330
1D
100
AcDbEntity
  8
2
  6
Continuous
370
    25
100
AcDbLine
 10
-16.0
 20
-1.884797987
 30
0.0
 11
-12.5
 21
-1.43479799
 31
0.0
  0
LINE
  5
2EE
330
1D
100
AcDbEntity
  8
2
  6
Continuous
370
    25
100
AcDbLine
 10
-12.5
 20
-1.43479799
 30
0.0
 11
-12.5
 21
-2.33479799
 31
0.0
  0
LINE
  5
2EF
330
1D
100
AcDbEntity
  8
2
  6
Continuous
370
    25
100
AcDbLine
 10
-12.5
 20
-2.33479799
 30
0.0
 11
-16.0
 21
-1.884797987
 31
0.0
  0
LINE
  5
2F0
330
1D
100
AcDbEntity
  8
2
  6
Continuous
370
    25
100
AcDbLine
 10
45.3
 20
-3.88479805
 30
0.0
 11
45.3
 21
7.0
 31
0.0
  0
LINE
  5
2F1
330
1D
100
AcDbEntity
  8
2
  6
Continuous
370
    25
100
AcDbLine
 10
45.3
 20
-1.88479805
 30
0.0
 11
41.8
 21
-2.334798046
 31
0.0
  0
LINE
  5
2F2
330
1D
100
AcDbEntity
  8
2
  6
Continuous
370
    25
100
AcDbLine
 10
41.8
 20
-2.334798046
 30
0.0
 11
41.8
 21
-1.434798046
 31
0.0
  0
LINE
  5
2F3
330
1D
100
AcDbEntity
  8
2
  6
Continuous
370
    25
100
AcDbLine
 10
41.8
 20
-1.434798046
 30
0.0
 11
45.3
 21
-1.88479805
 31
0.0
  0
LINE
  5
2F4
330
1D
100
AcDbEntity
  8
2
  6
Continuous
370
    25
100
AcDbLine
 10
-12.5
 20
-1.88479799
 30
0.0
 11
41.8
 21
-1.884798046
 31
0.0
  0
TEXT
  5
2F5
330
1D
100
AcDbEntity
  8
2
  6
Continuous
370
    25
100
AcDbText
 10
10.58050514593235
 20
-0.6221919794359867
 30
0.0
 40
3.5
  1
61.3
 50
359.9999999409999
  7
BMG_Text
100
AcDbText
  0
LINE
  5
2F6
330
1D
100
AcDbEntity
  8
SK3
100
AcDbLine
 10
-8.0
 20
39.8
 30
0.0
 11
-16.0
 21
39.8
 31
0.0
  0
LINE
  5
2F7
330
1D
100
AcDbEntity
  8
SK3
100
AcDbLine
 10
-8.0
 20
22.3
 30
0.0
 11
-16.0
 21
22.3
 31
0.0
  0
LINE
  5
3DF
330
1D
100
AcDbEntity
  8
SK1
100
AcDbLine
 10
-16.0
 20
89.0
 30
0.0
 11
0.0
 21
89.0
 31
0.0
  0
LINE
  5
3E0
330
1D
100
AcDbEntity
  8
SK1
100
AcDbLine
 10
-14.0
 20
82.9
 30
0.0
 11
0.0000000000000018
 21
82.9
 31
0.0
  0
LINE
  5
3E1
330
1D
100
AcDbEntity
  8
SK1
100
AcDbLine
 10
-14.0
 20
11.75037994
 30
0.0
 11
0.0000000000000018
 21
11.75037994
 31
0.0
  0
LINE
  5
3E8
330
1D
100
AcDbEntity
  8
1
100
AcDbLine
 10
0.0
 20
89.0
 30
0.0
 11
15.0
 21
89.0
 31
0.0
  0
LINE
  5
3E9
330
1D
100
AcDbEntity
  8
1
100
AcDbLine
 10
0.0000000000000018
 20
82.9
 30
0.0
 11
6.5
 21
82.9
 31
0.0
  0
LINE
  5
3F1
330
1D
100
AcDbEntity
  8
NOCUT
100
AcDbLine
 10
0.4
 20
5.0
 30
0.0
 11
0.4
 21
6.108020844
 31
0.0
  0
LINE
  5
3F2
330
1D
100
AcDbEntity
  8
NOCUT
100
AcDbLine
 10
0.4
 20
6.108020844
 30
0.0
 11
0.0
 21
6.108020844
 31
0.0
  0
LINE
  5
3F3
330
1D
100
AcDbEntity
  8
NOCUT
100
AcDbLine
 10
0.0
 20
6.108020844
 30
0.0
 11
-0.006951231
 21
7.31666974
 31
0.0
  0
LINE
  5
3F4
330
1D
100
AcDbEntity
  8
NOCUT
100
AcDbLine
 10
-0.006951231
 20
7.31666974
 30
0.0
 11
-0.006951230999995
 21
89.00900898325199
 31
0.0
  0
LINE
  5
3F5
330
1D
100
AcDbEntity
  8
NOCUT
100
AcDbLine
 10
-0.006951230999995
 20
89.00900898325199
 30
0.0
 11
43.3
 21
89.0
 31
0.0
  0
LINE
  5
3F6
330
1D
100
AcDbEntity
  8
NOCUT
100
AcDbLine
 10
43.3
 20
89.0
 30
0.0
 11
45.3
 21
87.0
 31
0.0
  0
LINE
  5
3F7
330
1D
100
AcDbEntity
  8
NOCUT
100
AcDbLine
 10
45.3
 20
87.0
 30
0.0
 11
45.3
 21
7.0
 31
0.0
  0
LINE
  5
3F8
330
1D
100
AcDbEntity
  8
NOCUT
100
AcDbLine
 10
45.3
 20
7.0
 30
0.0
 11
43.3
 21
5.0
 31
0.0
  0
LINE
  5
3F9
330
1D
100
AcDbEntity
  8
NOCUT
100
AcDbLine
 10
43.3
 20
5.0
 30
0.0
 11
0.4
 21
5.0
 31
0.0
  0
LWPOLYLINE
  5
3FF
330
1D
100
AcDbEntity
  8
INFTOTAL
100
AcDbPolyline
 90
        4
 70
     1
 43
0.0
 10
-73.2693166333541
 20
115.379466755028
 10
-73.2693166333541
 20
-15.62823959961186
 10
94.82513012315081
 20
-15.62823959961186
 10
94.82513012315081
 20
115.379466755028
  0
ENDSEC
  0
SECTION
  2
OBJECTS
  0
DICTIONARY
  5
C
330
0
100
AcDbDictionary
281
     1
  3
ACAD_DETAILVIEWSTYLE
350
399
  3
ACAD_GROUP
350
D
  3
ACAD_LAYOUT
350
1A
  3
ACAD_MATERIAL
350
334
  3
ACAD_MLEADERSTYLE
350
340
  3
ACAD_MLINESTYLE
350
17
  3
ACAD_PLOTSETTINGS
350
19
  3
ACAD_PLOTSTYLENAME
350
E
  3
ACAD_SCALELIST
350
2FD
  3
ACAD_SECTIONVIEWSTYLE
350
39A
  3
ACAD_TABLESTYLE
350
389
  3
ACAD_VISUALSTYLE
350
323
  3
ACDB_RECOMPOSE_DATA
350
422
  3
AcDbVariableDictionary
350
33E
  3
APPDATA
350
38C
  0
SUN
  5
3D7
330
2F8
100
AcDbSun
 90
        1
290
     0
 63
     7
421
 16777215
 40
1.0
291
     1
 91
  2455826
 92
 54000000
292
     0
 70
     2
 71
   256
280
     1
  0
DICTIONARY
  5
38D
330
2
100
AcDbDictionary
280
     1
281
     1
  3
ACAD_LAYERSTATES
360
38E
  0
DICTIONARY
  5
399
102
{ACAD_REACTORS
330
C
102
}
330
C
100
AcDbDictionary
281
     1
  0
DICTIONARY
  5
D
102
{ACAD_REACTORS
330
C
102
}
330
C
100
AcDbDictionary
281
     1
  0
DICTIONARY
  5
1A
102
{ACAD_REACTORS
330
C
102
}
330
C
100
AcDbDictionary
281
     1
  3
Layout1
350
1C
  3
Model
350
1E
  0
DICTIONARY
  5
334
102
{ACAD_REACTORS
330
C
102
}
330
C
100
AcDbDictionary
281
     1
  3
ByBlock
350
336
  3
ByLayer
350
335
  3
Global
350
337
  0
DICTIONARY
  5
340
102
{ACAD_REACTORS
330
C
102
}
330
C
100
AcDbDictionary
281
     1
  3
Standard
350
38B
  0
DICTIONARY
  5
17
102
{ACAD_REACTORS
330
C
102
}
330
C
100
AcDbDictionary
281
     1
  3
Standard
350
18
  0
DICTIONARY
  5
19
102
{ACAD_REACTORS
330
C
102
}
330
C
100
AcDbDictionary
281
     1
  0
ACDBDICTIONARYWDFLT
  5
E
102
{ACAD_REACTORS
330
C
102
}
330
C
100
AcDbDictionary
281
     1
  3
Normal
350
F
100
AcDbDictionaryWithDefault
340
F
  0
DICTIONARY
  5
2FD
102
{ACAD_REACTORS
330
C
102
}
330
C
100
AcDbDictionary
281
     1
  3
A0
350
2FE
  3
A1
350
2FF
  3
A2
350
300
  3
A3
350
301
  3
A4
350
302
  3
A5
350
303
  3
A6
350
304
  3
A7
350
305
  3
A8
350
306
  3
A9
350
307
  3
B0
350
308
  3
B1
350
309
  3
B2
350
30A
  3
B3
350
30B
  3
B4
350
30C
  3
B5
350
30D
  3
B6
350
30E
  3
B7
350
30F
  3
B8
350
310
  3
B9
350
311
  3
C0
350
312
  3
C1
350
313
  3
C2
350
314
  3
C3
350
315
  3
C4
350
316
  3
C5
350
317
  3
C6
350
318
  3
C7
350
319
  3
C8
350
31A
  3
C9
350
31B
  3
D0
350
31C
  3
D1
350
31D
  3
D2
350
31E
  0
DICTIONARY
  5
39A
102
{ACAD_REACTORS
330
C
102
}
330
C
100
AcDbDictionary
281
     1
  0
DICTIONARY
  5
389
102
{ACAD_REACTORS
330
C
102
}
330
C
100
AcDbDictionary
281
     1
  3
Standard
350
38A
  0
DICTIONARY
  5
323
102
{ACAD_REACTORS
330
C
102
}
330
C
100
AcDbDictionary
281
     1
  3
2dWireframe
350
328
  3
3D Hidden
350
32A
  3
3dWireframe
350
329
  3
Basic
350
32B
  3
Brighten
350
32F
  3
ColorChange
350
333
  3
Conceptual
350
32D
  3
Dim
350
32E
  3
EdgeColorOff
350
383
  3
Facepattern
350
332
  3
Flat
350
324
  3
FlatWithEdges
350
325
  3
Gouraud
350
326
  3
GouraudWithEdges
350
327
  3
Hidden
350
380
  3
JitterOff
350
381
  3
Linepattern
350
331
  3
OverhangOff
350
382
  3
Realistic
350
32C
  3
Shaded
350
388
  3
Shaded with edges
350
387
  3
Shades of Gray
350
384
  3
Sketchy
350
385
  3
Thicken
350
330
  3
Wireframe
350
37F
  3
X-Ray
350
386
  0
XRECORD
  5
422
102
{ACAD_REACTORS
330
C
102
}
330
C
100
AcDbXrecord
280
     1
 90
        1
330
38A
  0
DICTIONARY
  5
33E
102
{ACAD_REACTORS
330
C
102
}
330
C
100
AcDbDictionary
281
     1
  3
CANNOSCALE
350
396
  3
CMLEADERSTYLE
350
398
  3
CTABLESTYLE
350
397
  3
DIMASSOC
350
342
  3
HIDETEXT
350
343
  3
MSLTSCALE
350
341
  0
DICTIONARY
  5
38C
102
{ACAD_REACTORS
330
C
102
}
330
C
100
AcDbDictionary
281
     1
  0
DICTIONARY
  5
38E
102
{ACAD_REACTORS
330
38D
102
}
330
38D
100
AcDbDictionary
281
     1
  0
LAYOUT
  5
1C
102
{ACAD_REACTORS
330
1A
102
}
330
1A
100
AcDbPlotSettings
  1

  2
none_device
  4

  6

 40
0.0
 41
0.0
 42
0.0
 43
0.0
 44
0.0
 45
0.0
 46
0.0
 47
0.0
 48
0.0
 49
0.0
140
0.0
141
0.0
142
1.0
143
1.0
 70
   688
 72
     0
 73
     0
 74
     5
  7

 75
    16
 76
     0
 77
     2
 78
   300
147
1.0
148
0.0
149
0.0
100
AcDbLayout
  1
Layout1
 70
     1
 71
     1
 10
0.0
 20
0.0
 11
12.0
 21
9.0
 12
0.0
 22
0.0
 32
0.0
 14
1.000000000000000E+20
 24
1.000000000000000E+20
 34
1.000000000000000E+20
 15
-1.000000000000000E+20
 25
-1.000000000000000E+20
 35
-1.000000000000000E+20
146
0.0
 13
0.0
 23
0.0
 33
0.0
 16
1.0
 26
0.0
 36
0.0
 17
0.0
 27
1.0
 37
0.0
 76
     0
330
1B
  0
LAYOUT
  5
1E
102
{ACAD_REACTORS
330
1A
102
}
330
1A
100
AcDbPlotSettings
  1

  2
none_device
  4

  6

 40
0.0
 41
0.0
 42
0.0
 43
0.0
 44
0.0
 45
0.0
 46
0.0
 47
0.0
 48
0.0
 49
0.0
140
0.0
141
0.0
142
1.0
143
1.0
 70
  1712
 72
     0
 73
     0
 74
     0
  7

 75
     0
 76
     0
 77
     2
 78
   300
147
1.0
148
0.0
149
0.0
100
AcDbLayout
  1
Model
 70
     1
 71
     0
 10
0.0
 20
0.0
 11
12.0
 21
9.0
 12
0.0
 22
0.0
 32
0.0
 14
-73.2693166333541
 24
-15.62823959961186
 34
0.0
 15
94.82513012315081
 25
115.379466755028
 35
0.0
146
0.0
 13
0.0
 23
0.0
 33
0.0
 16
1.0
 26
0.0
 36
0.0
 17
0.0
 27
1.0
 37
0.0
 76
     0
330
1D
331
2F8
  0
MATERIAL
  5
336
102
{ACAD_REACTORS
330
334
102
}
330
334
100
AcDbMaterial
  1
ByBlock
 72
     1
 94
      127
  0
MATERIAL
  5
335
102
{ACAD_REACTORS
330
334
102
}
330
334
100
AcDbMaterial
  1
ByLayer
 72
     1
 94
      127
  0
MATERIAL
  5
337
102
{ACAD_REACTORS
330
334
102
}
330
334
100
AcDbMaterial
  1
Global
 72
     1
 94
      127
  0
MLEADERSTYLE
  5
38B
102
{ACAD_REACTORS
330
340
102
}
330
340
100
AcDbMLeaderStyle
179
     2
170
     2
171
     1
172
     0
 90
        2
 40
0.0
 41
0.0
173
     1
 91
-1056964608
340
14
 92
       -2
290
     1
 42
0.09
291
     1
 43
0.36
  3
Standard
341
0
 44
0.18
300

342
11
174
     1
178
     1
175
     1
176
     0
 93
-1056964608
 45
0.18
292
     0
297
     0
 46
0.18
343
0
 94
-1056964608
 47
1.0
 49
1.0
140
1.0
293
     1
141
0.0
294
     1
177
     0
142
1.0
295
     0
296
     0
143
0.125
271
     0
272
     9
273
     9
298
     0
  0
MLINESTYLE
  5
18
102
{ACAD_REACTORS
330
17
102
}
330
17
100
AcDbMlineStyle
  2
Standard
 70
     0
  3

 62
   256
 51
90.0
 52
90.0
 71
     2
 49
0.5
 62
   256
  6
BYLAYER
 49
-0.5
 62
   256
  6
BYLAYER
  0
ACDBPLACEHOLDER
  5
F
102
{ACAD_REACTORS
330
E
102
}
330
E
  0
SCALE
  5
2FE
102
{ACAD_REACTORS
330
2FD
102
}
330
2FD
100
AcDbScale
 70
     0
300
1:1
140
1.0
141
1.0
290
     1
  0
SCALE
  5
2FF
102
{ACAD_REACTORS
330
2FD
102
}
330
2FD
100
AcDbScale
 70
     0
300
1:2
140
1.0
141
2.0
290
     0
  0
SCALE
  5
300
102
{ACAD_REACTORS
330
2FD
102
}
330
2FD
100
AcDbScale
 70
     0
300
1:4
140
1.0
141
4.0
290
     0
  0
SCALE
  5
301
102
{ACAD_REACTORS
330
2FD
102
}
330
2FD
100
AcDbScale
 70
     0
300
1:5
140
1.0
141
5.0
290
     0
  0
SCALE
  5
302
102
{ACAD_REACTORS
330
2FD
102
}
330
2FD
100
AcDbScale
 70
     0
300
1:8
140
1.0
141
8.0
290
     0
  0
SCALE
  5
303
102
{ACAD_REACTORS
330
2FD
102
}
330
2FD
100
AcDbScale
 70
     0
300
1:10
140
1.0
141
10.0
290
     0
  0
SCALE
  5
304
102
{ACAD_REACTORS
330
2FD
102
}
330
2FD
100
AcDbScale
 70
     0
300
1:16
140
1.0
141
16.0
290
     0
  0
SCALE
  5
305
102
{ACAD_REACTORS
330
2FD
102
}
330
2FD
100
AcDbScale
 70
     0
300
1:20
140
1.0
141
20.0
290
     0
  0
SCALE
  5
306
102
{ACAD_REACTORS
330
2FD
102
}
330
2FD
100
AcDbScale
 70
     0
300
1:30
140
1.0
141
30.0
290
     0
  0
SCALE
  5
307
102
{ACAD_REACTORS
330
2FD
102
}
330
2FD
100
AcDbScale
 70
     0
300
1:40
140
1.0
141
40.0
290
     0
  0
SCALE
  5
308
102
{ACAD_REACTORS
330
2FD
102
}
330
2FD
100
AcDbScale
 70
     0
300
1:50
140
1.0
141
50.0
290
     0
  0
SCALE
  5
309
102
{ACAD_REACTORS
330
2FD
102
}
330
2FD
100
AcDbScale
 70
     0
300
1:100
140
1.0
141
100.0
290
     0
  0
SCALE
  5
30A
102
{ACAD_REACTORS
330
2FD
102
}
330
2FD
100
AcDbScale
 70
     0
300
2:1
140
2.0
141
1.0
290
     0
  0
SCALE
  5
30B
102
{ACAD_REACTORS
330
2FD
102
}
330
2FD
100
AcDbScale
 70
     0
300
4:1
140
4.0
141
1.0
290
     0
  0
SCALE
  5
30C
102
{ACAD_REACTORS
330
2FD
102
}
330
2FD
100
AcDbScale
 70
     0
300
8:1
140
8.0
141
1.0
290
     0
  0
SCALE
  5
30D
102
{ACAD_REACTORS
330
2FD
102
}
330
2FD
100
AcDbScale
 70
     0
300
10:1
140
10.0
141
1.0
290
     0
  0
SCALE
  5
30E
102
{ACAD_REACTORS
330
2FD
102
}
330
2FD
100
AcDbScale
 70
     0
300
100:1
140
100.0
141
1.0
290
     0
  0
SCALE
  5
30F
102
{ACAD_REACTORS
330
2FD
102
}
330
2FD
100
AcDbScale
 70
     0
300
1/128" = 1'-0"
140
0.0078125
141
12.0
290
     0
  0
SCALE
  5
310
102
{ACAD_REACTORS
330
2FD
102
}
330
2FD
100
AcDbScale
 70
     0
300
1/64" = 1'-0"
140
0.015625
141
12.0
290
     0
  0
SCALE
  5
311
102
{ACAD_REACTORS
330
2FD
102
}
330
2FD
100
AcDbScale
 70
     0
300
1/32" = 1'-0"
140
0.03125
141
12.0
290
     0
  0
SCALE
  5
312
102
{ACAD_REACTORS
330
2FD
102
}
330
2FD
100
AcDbScale
 70
     0
300
1/16" = 1'-0"
140
0.0625
141
12.0
290
     0
  0
SCALE
  5
313
102
{ACAD_REACTORS
330
2FD
102
}
330
2FD
100
AcDbScale
 70
     0
300
3/32" = 1'-0"
140
0.09375
141
12.0
290
     0
  0
SCALE
  5
314
102
{ACAD_REACTORS
330
2FD
102
}
330
2FD
100
AcDbScale
 70
     0
300
1/8" = 1'-0"
140
0.125
141
12.0
290
     0
  0
SCALE
  5
315
102
{ACAD_REACTORS
330
2FD
102
}
330
2FD
100
AcDbScale
 70
     0
300
3/16" = 1'-0"
140
0.1875
141
12.0
290
     0
  0
SCALE
  5
316
102
{ACAD_REACTORS
330
2FD
102
}
330
2FD
100
AcDbScale
 70
     0
300
1/4" = 1'-0"
140
0.25
141
12.0
290
     0
  0
SCALE
  5
317
102
{ACAD_REACTORS
330
2FD
102
}
330
2FD
100
AcDbScale
 70
     0
300
3/8" = 1'-0"
140
0.375
141
12.0
290
     0
  0
SCALE
  5
318
102
{ACAD_REACTORS
330
2FD
102
}
330
2FD
100
AcDbScale
 70
     0
300
1/2" = 1'-0"
140
0.5
141
12.0
290
     0
  0
SCALE
  5
319
102
{ACAD_REACTORS
330
2FD
102
}
330
2FD
100
AcDbScale
 70
     0
300
3/4" = 1'-0"
140
0.75
141
12.0
290
     0
  0
SCALE
  5
31A
102
{ACAD_REACTORS
330
2FD
102
}
330
2FD
100
AcDbScale
 70
     0
300
1" = 1'-0"
140
1.0
141
12.0
290
     0
  0
SCALE
  5
31B
102
{ACAD_REACTORS
330
2FD
102
}
330
2FD
100
AcDbScale
 70
     0
300
1-1/2" = 1'-0"
140
1.5
141
12.0
290
     0
  0
SCALE
  5
31C
102
{ACAD_REACTORS
330
2FD
102
}
330
2FD
100
AcDbScale
 70
     0
300
3" = 1'-0"
140
3.0
141
12.0
290
     0
  0
SCALE
  5
31D
102
{ACAD_REACTORS
330
2FD
102
}
330
2FD
100
AcDbScale
 70
     0
300
6" = 1'-0"
140
6.0
141
12.0
290
     0
  0
SCALE
  5
31E
102
{ACAD_REACTORS
330
2FD
102
}
330
2FD
100
AcDbScale
 70
     0
300
1'-0" = 1'-0"
140
12.0
141
12.0
290
     0
  0
TABLESTYLE
  5
38A
102
{ACAD_REACTORS
330
389
102
}
102
{ACAD_XDICTIONARY
360
420
102
}
330
389
100
AcDbTableStyle
  3
Standard
 70
     0
 71
     0
 40
0.06
 41
0.06
280
     0
281
     0
  7
Standard
140
0.18
170
     2
 62
     0
 63
   257
283
     0
 90
        4
 91
        0
  1

274
    -2
284
     1
 64
     0
275
    -2
285
     1
 65
     0
276
    -2
286
     1
 66
     0
277
    -2
287
     1
 67
     0
278
    -2
288
     1
 68
     0
279
    -2
289
     1
 69
     0
  7
Standard
140
0.25
170
     5
 62
     0
 63
   257
283
     0
 90
        4
 91
        0
  1

274
    -2
284
     1
 64
     0
275
    -2
285
     1
 65
     0
276
    -2
286
     1
 66
     0
277
    -2
287
     1
 67
     0
278
    -2
288
     1
 68
     0
279
    -2
289
     1
 69
     0
  7
Standard
140
0.18
170
     5
 62
     0
 63
   257
283
     0
 90
        4
 91
        0
  1

274
    -2
284
     1
 64
     0
275
    -2
285
     1
 65
     0
276
    -2
286
     1
 66
     0
277
    -2
287
     1
 67
     0
278
    -2
288
     1
 68
     0
279
    -2
289
     1
 69
     0
  0
VISUALSTYLE
  5
328
102
{ACAD_REACTORS
330
323
102
}
330
323
100
AcDbVisualStyle
  2
2dWireframe
 70
     4
177
     3
291
     0
 70
    58
 90
        0
176
     1
 90
        2
176
     1
 90
        0
176
     1
 90
        0
176
     1
 40
-0.6
176
     1
 40
-30.0
176
     1
 62
     7
176
     1
 90
        1
176
     1
 90
        4
176
     1
 62
     7
176
     1
 62
   257
176
     1
 90
        1
176
     1
 90
        1
176
     1
 40
1.0
176
     1
 90
        0
176
     1
 62
   257
176
     1
 40
1.0
176
     1
 90
        1
176
     1
 90
        6
176
     1
 90
        2
176
     1
 62
     7
176
     1
 90
        5
176
     1
 90
        0
176
     1
 90
        0
176
     1
290
     0
176
     1
 90
        1
176
     1
 40
0.0
176
     1
 90
        0
176
     1
290
     1
176
     1
290
     1
176
     1
290
     0
176
     1
290
     0
176
     1
290
     0
176
     1
290
     0
176
     1
290
     0
176
     1
290
     0
176
     1
290
     0
176
     1
 90
       50
176
     1
 40
0.0
176
     1
 40
1.0
176
     1
 90
        0
176
     1
 62
    18
420
        0
176
     1
 90
       50
176
     1
 90
        3
176
     1
 62
     5
420
      255
176
     1
290
     0
176
     1
 90
       50
176
     1
 90
       50
176
     1
 90
       50
176
     1
290
     0
176
     1
 90
       50
176
     1
 62
   256
176
     0
 40
1.0
176
     0
 90
        2
176
     1
  1
strokes_ogs.tif
176
     1
290
     0
176
     1
 40
1.0
176
     1
 40
1.0
176
     1
  0
VISUALSTYLE
  5
32A
102
{ACAD_REACTORS
330
323
102
}
330
323
100
AcDbVisualStyle
  2
3D Hidden
 70
     6
177
     3
291
     0
 70
    58
 90
        1
176
     1
 90
        2
176
     1
 90
        2
176
     1
 90
        0
176
     1
 40
-0.6
176
     1
 40
-30.0
176
     1
 62
     7
176
     1
 90
        2
176
     1
 90
        2
176
     1
 62
     7
176
     1
 62
   257
176
     1
 90
        2
176
     1
 90
        1
176
     1
 40
40.0
176
     1
 90
        0
176
     1
 62
   257
176
     1
 40
1.0
176
     1
 90
        1
176
     1
 90
        6
176
     1
 90
        2
176
     1
 62
     7
176
     1
 90
        3
176
     1
 90
        0
176
     1
 90
        0
176
     1
290
     0
176
     1
 90
        1
176
     1
 40
0.0
176
     1
 90
        0
176
     1
290
     0
176
     1
290
     1
176
     1
290
     1
176
     1
290
     0
176
     1
290
     0
176
     1
290
     0
176
     1
290
     0
176
     1
290
     0
176
     1
290
     0
176
     1
 90
       50
176
     1
 40
0.0
176
     1
 40
1.0
176
     1
 90
        0
176
     1
 62
    18
420
        0
176
     1
 90
       50
176
     1
 90
        3
176
     1
 62
     5
420
      255
176
     1
290
     0
176
     1
 90
       50
176
     1
 90
       50
176
     1
 90
       50
176
     1
290
     0
176
     1
 90
       50
176
     1
 62
   256
176
     0
 40
1.0
176
     0
 90
        2
176
     1
  1
strokes_ogs.tif
176
     1
290
     0
176
     1
 40
1.0
176
     1
 40
1.0
176
     1
  0
VISUALSTYLE
  5
329
102
{ACAD_REACTORS
330
323
102
}
330
323
100
AcDbVisualStyle
  2
3dWireframe
 70
     5
177
     3
291
     0
 70
    58
 90
        0
176
     1
 90
        2
176
     1
 90
        0
176
     1
 90
        0
176
     1
 40
-0.6
176
     1
 40
-30.0
176
     1
 62
     7
176
     1
 90
        1
176
     1
 90
        4
176
     1
 62
     7
176
     1
 62
   257
176
     1
 90
        1
176
     1
 90
        1
176
     1
 40
1.0
176
     1
 90
        0
176
     1
 62
   257
176
     1
 40
1.0
176
     1
 90
        1
176
     1
 90
        6
176
     1
 90
        2
176
     1
 62
     7
176
     1
 90
        5
176
     1
 90
        0
176
     1
 90
        0
176
     1
290
     0
176
     1
 90
        1
176
     1
 40
0.0
176
     1
 90
        0
176
     1
290
     0
176
     1
290
     1
176
     1
290
     1
176
     1
290
     0
176
     1
290
     0
176
     1
290
     0
176
     1
290
     0
176
     1
290
     0
176
     1
290
     0
176
     1
 90
       50
176
     1
 40
0.0
176
     1
 40
1.0
176
     1
 90
        0
176
     1
 62
    18
420
        0
176
     1
 90
       50
176
     1
 90
        3
176
     1
 62
     5
420
      255
176
     1
290
     0
176
     1
 90
       50
176
     1
 90
       50
176
     1
 90
       50
176
     1
290
     0
176
     1
 90
       50
176
     1
 62
   256
176
     0
 40
1.0
176
     0
 90
        2
176
     1
  1
strokes_ogs.tif
176
     1
290
     0
176
     1
 40
1.0
176
     1
 40
1.0
176
     1
  0
VISUALSTYLE
  5
32B
102
{ACAD_REACTORS
330
323
102
}
330
323
100
AcDbVisualStyle
  2
Basic
 70
     7
177
     3
291
     1
 70
    58
 90
        1
176
     1
 90
        0
176
     1
 90
        1
176
     1
 90
        0
176
     1
 40
-0.6
176
     1
 40
-30.0
176
     1
 62
     7
176
     1
 90
        0
176
     1
 90
        4
176
     1
 62
     7
176
     1
 62
   257
176
     1
 90
        1
176
     1
 90
        1
176
     1
 40
1.0
176
     1
 90
        8
176
     1
 62
     7
176
     1
 40
1.0
176
     1
 90
        1
176
     1
 90
        6
176
     1
 90
        2
176
     1
 62
     7
176
     1
 90
        5
176
     1
 90
        0
176
     1
 90
        0
176
     1
290
     0
176
     1
 90
        1
176
     1
 40
0.0
176
     1
 90
        0
176
     1
290
     0
176
     1
290
     1
176
     1
290
     1
176
     1
290
     0
176
     1
290
     0
176
     1
290
     0
176
     1
290
     0
176
     1
290
     0
176
     1
290
     0
176
     1
 90
       50
176
     1
 40
0.0
176
     1
 40
1.0
176
     1
 90
        0
176
     1
 62
    18
420
        0
176
     1
 90
       50
176
     1
 90
        3
176
     1
 62
     5
420
      255
176
     1
290
     0
176
     1
 90
       50
176
     1
 90
       50
176
     1
 90
       50
176
     1
290
     0
176
     1
 90
       50
176
     1
 62
   256
176
     0
 40
1.0
176
     0
 90
        2
176
     1
  1
strokes_ogs.tif
176
     1
290
     0
176
     1
 40
1.0
176
     1
 40
1.0
176
     1
  0
VISUALSTYLE
  5
32F
102
{ACAD_REACTORS
330
323
102
}
330
323
100
AcDbVisualStyle
  2
Brighten
 70
    12
177
     3
291
     1
 70
    58
 90
        2
176
     1
 90
        2
176
     1
 90
        0
176
     1
 90
        0
176
     1
 40
-0.6
176
     1
 40
-30.0
176
     1
 62
     7
176
     1
 90
        1
176
     1
 90
        4
176
     1
 62
     7
176
     1
 62
   257
176
     1
 90
        1
176
     1
 90
        1
176
     1
 40
1.0
176
     1
 90
        8
176
     1
 62
     7
176
     1
 40
1.0
176
     1
 90
        1
176
     1
 90
        6
176
     1
 90
        2
176
     1
 62
     7
176
     1
 90
        5
176
     1
 90
        0
176
     1
 90
        0
176
     1
290
     0
176
     1
 90
        1
176
     1
 40
50.0
176
     1
 90
        0
176
     1
290
     0
176
     1
290
     1
176
     1
290
     1
176
     1
290
     0
176
     1
290
     0
176
     1
290
     0
176
     1
290
     0
176
     1
290
     0
176
     1
290
     0
176
     1
 90
       50
176
     1
 40
0.0
176
     1
 40
1.0
176
     1
 90
        0
176
     1
 62
    18
420
        0
176
     1
 90
       50
176
     1
 90
        3
176
     1
 62
     5
420
      255
176
     1
290
     0
176
     1
 90
       50
176
     1
 90
       50
176
     1
 90
       50
176
     1
290
     0
176
     1
 90
       50
176
     1
 62
   256
176
     0
 40
1.0
176
     0
 90
        2
176
     1
  1
strokes_ogs.tif
176
     1
290
     0
176
     1
 40
1.0
176
     1
 40
1.0
176
     1
  0
VISUALSTYLE
  5
333
102
{ACAD_REACTORS
330
323
102
}
330
323
100
AcDbVisualStyle
  2
ColorChange
 70
    16
177
     3
291
     1
 70
    58
 90
        2
176
     1
 90
        2
176
     1
 90
        3
176
     1
 90
        0
176
     1
 40
-0.6
176
     1
 40
-30.0
176
     1
 62
     8
176
     1
 90
        1
176
     1
 90
        4
176
     1
 62
     7
176
     1
 62
   257
176
     1
 90
        1
176
     1
 90
        1
176
     1
 40
1.0
176
     1
 90
        8
176
     1
 62
     8
176
     1
 40
1.0
176
     1
 90
        1
176
     1
 90
        6
176
     1
 90
        2
176
     1
 62
     7
176
     1
 90
        5
176
     1
 90
        0
176
     1
 90
        0
176
     1
290
     0
176
     1
 90
        1
176
     1
 40
0.0
176
     1
 90
        0
176
     1
290
     0
176
     1
290
     1
176
     1
290
     1
176
     1
290
     0
176
     1
290
     0
176
     1
290
     0
176
     1
290
     0
176
     1
290
     0
176
     1
290
     0
176
     1
 90
       50
176
     1
 40
0.0
176
     1
 40
1.0
176
     1
 90
        0
176
     1
 62
    18
420
        0
176
     1
 90
       50
176
     1
 90
        3
176
     1
 62
     5
420
      255
176
     1
290
     0
176
     1
 90
       50
176
     1
 90
       50
176
     1
 90
       50
176
     1
290
     0
176
     1
 90
       50
176
     1
 62
   256
176
     0
 40
1.0
176
     0
 90
        2
176
     1
  1
strokes_ogs.tif
176
     1
290
     0
176
     1
 40
1.0
176
     1
 40
1.0
176
     1
  0
VISUALSTYLE
  5
32D
102
{ACAD_REACTORS
330
323
102
}
330
323
100
AcDbVisualStyle
  2
Conceptual
 70
     9
177
     3
291
     0
 70
    58
 90
        3
176
     1
 90
        2
176
     1
 90
        0
176
     1
 90
        0
176
     1
 40
-0.6
176
     1
 40
-30.0
176
     1
 62
     7
176
     1
 90
        2
176
     1
 90
        2
176
     1
 62
     7
176
     1
 62
   257
176
     1
 90
        1
176
     1
 90
        1
176
     1
 40
40.0
176
     1
 90
        8
176
     1
 62
     7
176
     1
 40
1.0
176
     1
 90
        1
176
     1
 90
        6
176
     1
 90
        2
176
     1
 62
     7
176
     1
 90
        3
176
     1
 90
        0
176
     1
 90
        0
176
     1
290
     0
176
     1
 90
        1
176
     1
 40
0.0
176
     1
 90
        0
176
     1
290
     0
176
     1
290
     1
176
     1
290
     1
176
     1
290
     0
176
     1
290
     0
176
     1
290
     0
176
     1
290
     0
176
     1
290
     0
176
     1
290
     0
176
     1
 90
       50
176
     1
 40
0.0
176
     1
 40
1.0
176
     1
 90
        0
176
     1
 62
    18
420
        0
176
     1
 90
       50
176
     1
 90
        3
176
     1
 62
     5
420
      255
176
     1
290
     0
176
     1
 90
       50
176
     1
 90
       50
176
     1
 90
       50
176
     1
290
     0
176
     1
 90
       50
176
     1
 62
   256
176
     0
 40
1.0
176
     0
 90
        2
176
     1
  1
strokes_ogs.tif
176
     1
290
     0
176
     1
 40
1.0
176
     1
 40
1.0
176
     1
  0
VISUALSTYLE
  5
32E
102
{ACAD_REACTORS
330
323
102
}
330
323
100
AcDbVisualStyle
  2
Dim
 70
    11
177
     3
291
     1
 70
    58
 90
        2
176
     1
 90
        2
176
     1
 90
        0
176
     1
 90
        0
176
     1
 40
-0.6
176
     1
 40
-30.0
176
     1
 62
     7
176
     1
 90
        1
176
     1
 90
        4
176
     1
 62
     7
176
     1
 62
   257
176
     1
 90
        1
176
     1
 90
        1
176
     1
 40
1.0
176
     1
 90
        8
176
     1
 62
     7
176
     1
 40
1.0
176
     1
 90
        1
176
     1
 90
        6
176
     1
 90
        2
176
     1
 62
     7
176
     1
 90
        5
176
     1
 90
        0
176
     1
 90
        0
176
     1
290
     0
176
     1
 90
        1
176
     1
 40
-50.0
176
     1
 90
        0
176
     1
290
     0
176
     1
290
     1
176
     1
290
     1
176
     1
290
     0
176
     1
290
     0
176
     1
290
     0
176
     1
290
     0
176
     1
290
     0
176
     1
290
     0
176
     1
 90
       50
176
     1
 40
0.0
176
     1
 40
1.0
176
     1
 90
        0
176
     1
 62
    18
420
        0
176
     1
 90
       50
176
     1
 90
        3
176
     1
 62
     5
420
      255
176
     1
290
     0
176
     1
 90
       50
176
     1
 90
       50
176
     1
 90
       50
176
     1
290
     0
176
     1
 90
       50
176
     1
 62
   256
176
     0
 40
1.0
176
     0
 90
        2
176
     1
  1
strokes_ogs.tif
176
     1
290
     0
176
     1
 40
1.0
176
     1
 40
1.0
176
     1
  0
VISUALSTYLE
  5
383
102
{ACAD_REACTORS
330
323
102
}
330
323
100
AcDbVisualStyle
  2
EdgeColorOff
 70
    22
177
     3
291
     1
 70
    58
 90
        2
176
     0
 90
        2
176
     0
 90
        0
176
     0
 90
        0
176
     0
 40
0.6
176
     0
 40
30.0
176
     0
 62
     7
420
 16777215
176
     0
 90
        1
176
     0
 90
        4
176
     0
 62
     7
176
     0
 62
   257
176
     0
 90
        1
176
     0
 90
        1
176
     0
 40
1.0
176
     0
 90
        8
176
     2
 62
     7
176
     0
 40
1.0
176
     0
 90
        1
176
     0
 90
        6
176
     0
 90
        2
176
     0
 62
     7
176
     0
 90
        5
176
     0
 90
        0
176
     0
 90
        0
176
     0
290
     0
176
     0
 90
        1
176
     0
 40
0.0
176
     0
 90
        0
176
     0
290
     0
176
     0
290
     1
176
     0
290
     1
176
     0
290
     0
176
     0
290
     0
176
     0
290
     0
176
     0
290
     0
176
     0
290
     0
176
     0
290
     0
176
     0
 90
       50
176
     0
 40
0.0
176
     0
 40
1.0
176
     0
 90
        0
176
     0
 62
    18
420
        0
176
     0
 90
       50
176
     0
 90
        3
176
     0
 62
     5
420
      255
176
     0
290
     0
176
     0
 90
       50
176
     0
 90
       50
176
     0
 90
       50
176
     0
290
     0
176
     0
 90
       50
176
     0
 62
   256
176
     0
 40
1.0
176
     0
 90
        2
176
     0
  1
strokes_ogs.tif
176
     0
290
     0
176
     0
 40
1.0
176
     0
 40
1.0
176
     0
  0
VISUALSTYLE
  5
332
102
{ACAD_REACTORS
330
323
102
}
330
323
100
AcDbVisualStyle
  2
Facepattern
 70
    15
177
     3
291
     1
 70
    58
 90
        2
176
     1
 90
        2
176
     1
 90
        0
176
     1
 90
        0
176
     1
 40
-0.6
176
     1
 40
-30.0
176
     1
 62
     7
176
     1
 90
        1
176
     1
 90
        4
176
     1
 62
     7
176
     1
 62
   257
176
     1
 90
        1
176
     1
 90
        1
176
     1
 40
1.0
176
     1
 90
        8
176
     1
 62
     7
176
     1
 40
1.0
176
     1
 90
        1
176
     1
 90
        6
176
     1
 90
        2
176
     1
 62
     7
176
     1
 90
        5
176
     1
 90
        0
176
     1
 90
        0
176
     1
290
     0
176
     1
 90
        1
176
     1
 40
0.0
176
     1
 90
        0
176
     1
290
     0
176
     1
290
     1
176
     1
290
     1
176
     1
290
     0
176
     1
290
     0
176
     1
290
     0
176
     1
290
     0
176
     1
290
     0
176
     1
290
     0
176
     1
 90
       50
176
     1
 40
0.0
176
     1
 40
1.0
176
     1
 90
        0
176
     1
 62
    18
420
        0
176
     1
 90
       50
176
     1
 90
        3
176
     1
 62
     5
420
      255
176
     1
290
     0
176
     1
 90
       50
176
     1
 90
       50
176
     1
 90
       50
176
     1
290
     0
176
     1
 90
       50
176
     1
 62
   256
176
     0
 40
1.0
176
     0
 90
        2
176
     1
  1
strokes_ogs.tif
176
     1
290
     0
176
     1
 40
1.0
176
     1
 40
1.0
176
     1
  0
VISUALSTYLE
  5
324
102
{ACAD_REACTORS
330
323
102
}
330
323
100
AcDbVisualStyle
  2
Flat
 70
     0
177
     3
291
     1
 70
    58
 90
        2
176
     1
 90
        1
176
     1
 90
        1
176
     1
 90
        2
176
     1
 40
-0.6
176
     1
 40
30.0
176
     1
 62
     7
176
     1
 90
        0
176
     1
 90
        4
176
     1
 62
     7
176
     1
 62
   257
176
     1
 90
        1
176
     1
 90
        1
176
     1
 40
1.0
176
     1
 90
        8
176
     1
 62
     7
176
     1
 40
1.0
176
     1
 90
        1
176
     1
 90
        6
176
     1
 90
        2
176
     1
 62
     7
176
     1
 90
        5
176
     1
 90
        0
176
     1
 90
        0
176
     1
290
     0
176
     1
 90
       13
176
     1
 40
0.0
176
     1
 90
        0
176
     1
290
     0
176
     1
290
     1
176
     1
290
     1
176
     1
290
     0
176
     1
290
     0
176
     1
290
     0
176
     1
290
     0
176
     1
290
     0
176
     1
290
     0
176
     1
 90
       50
176
     1
 40
0.0
176
     1
 40
1.0
176
     1
 90
        0
176
     1
 62
    18
420
        0
176
     1
 90
       50
176
     1
 90
        3
176
     1
 62
     5
420
      255
176
     1
290
     0
176
     1
 90
       50
176
     1
 90
       50
176
     1
 90
       50
176
     1
290
     0
176
     1
 90
       50
176
     1
 62
   256
176
     0
 40
1.0
176
     0
 90
        2
176
     1
  1
strokes_ogs.tif
176
     1
290
     0
176
     1
 40
1.0
176
     1
 40
1.0
176
     1
  0
VISUALSTYLE
  5
325
102
{ACAD_REACTORS
330
323
102
}
330
323
100
AcDbVisualStyle
  2
FlatWithEdges
 70
     1
177
     3
291
     1
 70
    58
 90
        2
176
     1
 90
        1
176
     1
 90
        1
176
     1
 90
        2
176
     1
 40
-0.6
176
     1
 40
30.0
176
     1
 62
     7
176
     1
 90
        1
176
     1
 90
        4
176
     1
 62
     7
176
     1
 62
   257
176
     1
 90
        1
176
     1
 90
        1
176
     1
 40
1.0
176
     1
 90
        0
176
     1
 62
   257
176
     1
 40
1.0
176
     1
 90
        1
176
     1
 90
        6
176
     1
 90
        2
176
     1
 62
     7
176
     1
 90
        5
176
     1
 90
        0
176
     1
 90
        0
176
     1
290
     0
176
     1
 90
       13
176
     1
 40
0.0
176
     1
 90
        0
176
     1
290
     0
176
     1
290
     1
176
     1
290
     1
176
     1
290
     0
176
     1
290
     0
176
     1
290
     0
176
     1
290
     0
176
     1
290
     0
176
     1
290
     0
176
     1
 90
       50
176
     1
 40
0.0
176
     1
 40
1.0
176
     1
 90
        0
176
     1
 62
    18
420
        0
176
     1
 90
       50
176
     1
 90
        3
176
     1
 62
     5
420
      255
176
     1
290
     0
176
     1
 90
       50
176
     1
 90
       50
176
     1
 90
       50
176
     1
290
     0
176
     1
 90
       50
176
     1
 62
   256
176
     0
 40
1.0
176
     0
 90
        2
176
     1
  1
strokes_ogs.tif
176
     1
290
     0
176
     1
 40
1.0
176
     1
 40
1.0
176
     1
  0
VISUALSTYLE
  5
326
102
{ACAD_REACTORS
330
323
102
}
330
323
100
AcDbVisualStyle
  2
Gouraud
 70
     2
177
     3
291
     1
 70
    58
 90
        2
176
     1
 90
        2
176
     1
 90
        1
176
     1
 90
        2
176
     1
 40
-0.6
176
     1
 40
30.0
176
     1
 62
     7
176
     1
 90
        0
176
     1
 90
        4
176
     1
 62
     7
176
     1
 62
   257
176
     1
 90
        1
176
     1
 90
        1
176
     1
 40
1.0
176
     1
 90
        0
176
     1
 62
     7
176
     1
 40
1.0
176
     1
 90
        1
176
     1
 90
        6
176
     1
 90
        2
176
     1
 62
     7
176
     1
 90
        5
176
     1
 90
        0
176
     1
 90
        0
176
     1
290
     0
176
     1
 90
       13
176
     1
 40
0.0
176
     1
 90
        0
176
     1
290
     0
176
     1
290
     1
176
     1
290
     1
176
     1
290
     0
176
     1
290
     0
176
     1
290
     0
176
     1
290
     0
176
     1
290
     0
176
     1
290
     0
176
     1
 90
       50
176
     1
 40
0.0
176
     1
 40
1.0
176
     1
 90
        0
176
     1
 62
    18
420
        0
176
     1
 90
       50
176
     1
 90
        3
176
     1
 62
     5
420
      255
176
     1
290
     0
176
     1
 90
       50
176
     1
 90
       50
176
     1
 90
       50
176
     1
290
     0
176
     1
 90
       50
176
     1
 62
   256
176
     0
 40
1.0
176
     0
 90
        2
176
     1
  1
strokes_ogs.tif
176
     1
290
     0
176
     1
 40
1.0
176
     1
 40
1.0
176
     1
  0
VISUALSTYLE
  5
327
102
{ACAD_REACTORS
330
323
102
}
330
323
100
AcDbVisualStyle
  2
GouraudWithEdges
 70
     3
177
     3
291
     1
 70
    58
 90
        2
176
     1
 90
        2
176
     1
 90
        1
176
     1
 90
        2
176
     1
 40
-0.6
176
     1
 40
30.0
176
     1
 62
     7
176
     1
 90
        1
176
     1
 90
        4
176
     1
 62
     7
176
     1
 62
   257
176
     1
 90
        1
176
     1
 90
        1
176
     1
 40
1.0
176
     1
 90
        0
176
     1
 62
   257
176
     1
 40
1.0
176
     1
 90
        1
176
     1
 90
        6
176
     1
 90
        2
176
     1
 62
     7
176
     1
 90
        5
176
     1
 90
        0
176
     1
 90
        0
176
     1
290
     0
176
     1
 90
       13
176
     1
 40
0.0
176
     1
 90
        0
176
     1
290
     0
176
     1
290
     1
176
     1
290
     1
176
     1
290
     0
176
     1
290
     0
176
     1
290
     0
176
     1
290
     0
176
     1
290
     0
176
     1
290
     0
176
     1
 90
       50
176
     1
 40
0.0
176
     1
 40
1.0
176
     1
 90
        0
176
     1
 62
    18
420
        0
176
     1
 90
       50
176
     1
 90
        3
176
     1
 62
     5
420
      255
176
     1
290
     0
176
     1
 90
       50
176
     1
 90
       50
176
     1
 90
       50
176
     1
290
     0
176
     1
 90
       50
176
     1
 62
   256
176
     0
 40
1.0
176
     0
 90
        2
176
     1
  1
strokes_ogs.tif
176
     1
290
     0
176
     1
 40
1.0
176
     1
 40
1.0
176
     1
  0
VISUALSTYLE
  5
380
102
{ACAD_REACTORS
330
323
102
}
330
323
100
AcDbVisualStyle
  2
Hidden
 70
     6
177
     3
291
     0
 70
    58
 90
        1
176
     1
 90
        2
176
     1
 90
        2
176
     1
 90
        0
176
     1
 40
0.6
176
     1
 40
30.0
176
     1
 62
     7
420
 16777215
176
     1
 90
        2
176
     1
 90
        2
176
     1
 62
     7
176
     1
 62
   257
176
     1
 90
        2
176
     1
 90
        1
176
     1
 40
40.0
176
     1
 90
        0
176
     1
 62
   257
176
     1
 40
1.0
176
     1
 90
        1
176
     1
 90
        6
176
     1
 90
        2
176
     1
 62
     7
176
     1
 90
        3
176
     1
 90
        0
176
     1
 90
        0
176
     1
290
     0
176
     1
 90
        1
176
     1
 40
0.0
176
     1
 90
        0
176
     1
290
     0
176
     1
290
     1
176
     1
290
     1
176
     1
290
     0
176
     1
290
     0
176
     1
290
     0
176
     1
290
     0
176
     1
290
     0
176
     1
290
     0
176
     1
 90
       50
176
     1
 40
0.0
176
     1
 40
1.0
176
     1
 90
        0
176
     1
 62
    18
420
        0
176
     1
 90
       50
176
     1
 90
        3
176
     1
 62
     5
420
      255
176
     1
290
     0
176
     1
 90
       50
176
     1
 90
       50
176
     1
 90
       50
176
     1
290
     0
176
     1
 90
       50
176
     1
 62
   256
176
     0
 40
1.0
176
     0
 90
        2
176
     1
  1
strokes_ogs.tif
176
     1
290
     0
176
     1
 40
1.0
176
     1
 40
1.0
176
     1
  0
VISUALSTYLE
  5
381
102
{ACAD_REACTORS
330
323
102
}
330
323
100
AcDbVisualStyle
  2
JitterOff
 70
    20
177
     3
291
     1
 70
    58
 90
        2
176
     0
 90
        2
176
     0
 90
        0
176
     0
 90
        0
176
     0
 40
0.6
176
     0
 40
30.0
176
     0
 62
     7
420
 16777215
176
     0
 90
        1
176
     0
 90
        4
176
     0
 62
     7
176
     0
 62
   257
176
     0
 90
        1
176
     0
 90
        1
176
     0
 40
1.0
176
     0
 90
       10
176
     2
 62
     7
176
     0
 40
1.0
176
     0
 90
        1
176
     0
 90
        6
176
     0
 90
        2
176
     0
 62
     7
176
     0
 90
        5
176
     0
 90
        0
176
     0
 90
        0
176
     0
290
     0
176
     0
 90
        1
176
     0
 40
0.0
176
     0
 90
        0
176
     0
290
     0
176
     0
290
     1
176
     0
290
     1
176
     0
290
     0
176
     0
290
     0
176
     0
290
     0
176
     0
290
     0
176
     0
290
     0
176
     0
290
     0
176
     0
 90
       50
176
     0
 40
0.0
176
     0
 40
1.0
176
     0
 90
        0
176
     0
 62
    18
420
        0
176
     0
 90
       50
176
     0
 90
        3
176
     0
 62
     5
420
      255
176
     0
290
     0
176
     0
 90
       50
176
     0
 90
       50
176
     0
 90
       50
176
     0
290
     0
176
     0
 90
       50
176
     0
 62
   256
176
     0
 40
1.0
176
     0
 90
        2
176
     0
  1
strokes_ogs.tif
176
     0
290
     0
176
     0
 40
1.0
176
     0
 40
1.0
176
     0
  0
VISUALSTYLE
  5
331
102
{ACAD_REACTORS
330
323
102
}
330
323
100
AcDbVisualStyle
  2
Linepattern
 70
    14
177
     3
291
     1
 70
    58
 90
        2
176
     1
 90
        2
176
     1
 90
        0
176
     1
 90
        0
176
     1
 40
-0.6
176
     1
 40
-30.0
176
     1
 62
     7
176
     1
 90
        1
176
     1
 90
        4
176
     1
 62
     7
176
     1
 62
   257
176
     1
 90
        7
176
     1
 90
        7
176
     1
 40
1.0
176
     1
 90
        8
176
     1
 62
     7
176
     1
 40
1.0
176
     1
 90
        1
176
     1
 90
        6
176
     1
 90
        2
176
     1
 62
     7
176
     1
 90
        5
176
     1
 90
        0
176
     1
 90
        0
176
     1
290
     0
176
     1
 90
        1
176
     1
 40
0.0
176
     1
 90
        0
176
     1
290
     0
176
     1
290
     1
176
     1
290
     1
176
     1
290
     0
176
     1
290
     0
176
     1
290
     0
176
     1
290
     0
176
     1
290
     0
176
     1
290
     0
176
     1
 90
       50
176
     1
 40
0.0
176
     1
 40
1.0
176
     1
 90
        0
176
     1
 62
    18
420
        0
176
     1
 90
       50
176
     1
 90
        3
176
     1
 62
     5
420
      255
176
     1
290
     0
176
     1
 90
       50
176
     1
 90
       50
176
     1
 90
       50
176
     1
290
     0
176
     1
 90
       50
176
     1
 62
   256
176
     0
 40
1.0
176
     0
 90
        2
176
     1
  1
strokes_ogs.tif
176
     1
290
     0
176
     1
 40
1.0
176
     1
 40
1.0
176
     1
  0
VISUALSTYLE
  5
382
102
{ACAD_REACTORS
330
323
102
}
330
323
100
AcDbVisualStyle
  2
OverhangOff
 70
    21
177
     3
291
     1
 70
    58
 90
        2
176
     0
 90
        2
176
     0
 90
        0
176
     0
 90
        0
176
     0
 40
0.6
176
     0
 40
30.0
176
     0
 62
     7
420
 16777215
176
     0
 90
        1
176
     0
 90
        4
176
     0
 62
     7
176
     0
 62
   257
176
     0
 90
        1
176
     0
 90
        1
176
     0
 40
1.0
176
     0
 90
        9
176
     2
 62
     7
176
     0
 40
1.0
176
     0
 90
        1
176
     0
 90
        6
176
     0
 90
        2
176
     0
 62
     7
176
     0
 90
        5
176
     0
 90
        0
176
     0
 90
        0
176
     0
290
     0
176
     0
 90
        1
176
     0
 40
0.0
176
     0
 90
        0
176
     0
290
     0
176
     0
290
     1
176
     0
290
     1
176
     0
290
     0
176
     0
290
     0
176
     0
290
     0
176
     0
290
     0
176
     0
290
     0
176
     0
290
     0
176
     0
 90
       50
176
     0
 40
0.0
176
     0
 40
1.0
176
     0
 90
        0
176
     0
 62
    18
420
        0
176
     0
 90
       50
176
     0
 90
        3
176
     0
 62
     5
420
      255
176
     0
290
     0
176
     0
 90
       50
176
     0
 90
       50
176
     0
 90
       50
176
     0
290
     0
176
     0
 90
       50
176
     0
 62
   256
176
     0
 40
1.0
176
     0
 90
        2
176
     0
  1
strokes_ogs.tif
176
     0
290
     0
176
     0
 40
1.0
176
     0
 40
1.0
176
     0
  0
VISUALSTYLE
  5
32C
102
{ACAD_REACTORS
330
323
102
}
330
323
100
AcDbVisualStyle
  2
Realistic
 70
     8
177
     3
291
     0
 70
    58
 90
        2
176
     1
 90
        2
176
     1
 90
        0
176
     1
 90
        0
176
     1
 40
-0.6
176
     1
 40
-30.0
176
     1
 62
     7
176
     1
 90
        1
176
     1
 90
        0
176
     1
 62
     7
176
     1
 62
   257
176
     1
 90
        1
176
     1
 90
        1
176
     1
 40
1.0
176
     1
 90
        8
176
     1
 62
     8
176
     1
 40
1.0
176
     1
 90
        1
176
     1
 90
        6
176
     1
 90
        2
176
     1
 62
     7
176
     1
 90
        5
176
     1
 90
        0
176
     1
 90
        0
176
     1
290
     0
176
     1
 90
       13
176
     1
 40
0.0
176
     1
 90
        0
176
     1
290
     0
176
     1
290
     1
176
     1
290
     1
176
     1
290
     0
176
     1
290
     0
176
     1
290
     0
176
     1
290
     0
176
     1
290
     0
176
     1
290
     0
176
     1
 90
       50
176
     1
 40
0.0
176
     1
 40
1.0
176
     1
 90
        0
176
     1
 62
    18
420
        0
176
     1
 90
       50
176
     1
 90
        3
176
     1
 62
     5
420
      255
176
     1
290
     0
176
     1
 90
       50
176
     1
 90
       50
176
     1
 90
       50
176
     1
290
     0
176
     1
 90
       50
176
     1
 62
   256
176
     0
 40
1.0
176
     0
 90
        2
176
     1
  1
strokes_ogs.tif
176
     1
290
     0
176
     1
 40
1.0
176
     1
 40
1.0
176
     1
  0
VISUALSTYLE
  5
388
102
{ACAD_REACTORS
330
323
102
}
330
323
100
AcDbVisualStyle
  2
Shaded
 70
    27
177
     3
291
     0
 70
    58
 90
        2
176
     1
 90
        2
176
     1
 90
        1
176
     1
 90
        2
176
     1
 40
0.6
176
     1
 40
30.0
176
     1
 62
     7
420
 16777215
176
     1
 90
        0
176
     1
 90
        4
176
     1
 62
     7
176
     1
 62
   257
176
     1
 90
        1
176
     1
 90
        1
176
     1
 40
1.0
176
     1
 90
        8
176
     1
 62
   257
176
     1
 40
1.0
176
     1
 90
        1
176
     1
 90
        6
176
     1
 90
        2
176
     1
 62
     8
420
  7895160
176
     1
 90
        3
176
     1
 90
        0
176
     1
 90
        0
176
     1
290
     0
176
     1
 90
        5
176
     1
 40
0.0
176
     1
 90
        0
176
     1
290
     0
176
     1
290
     1
176
     1
290
     1
176
     1
290
     0
176
     1
290
     0
176
     1
290
     0
176
     1
290
     0
176
     1
290
     0
176
     1
290
     0
176
     1
 90
       50
176
     1
 40
0.0
176
     1
 40
1.0
176
     1
 90
        0
176
     1
 62
    18
420
        0
176
     1
 90
       50
176
     1
 90
        3
176
     1
 62
     5
420
      255
176
     1
290
     0
176
     1
 90
       50
176
     1
 90
       50
176
     1
 90
       50
176
     1
290
     0
176
     1
 90
       50
176
     1
 62
   256
176
     0
 40
1.0
176
     0
 90
        2
176
     1
  1
strokes_ogs.tif
176
     1
290
     0
176
     1
 40
1.0
176
     1
 40
1.0
176
     1
  0
VISUALSTYLE
  5
387
102
{ACAD_REACTORS
330
323
102
}
330
323
100
AcDbVisualStyle
  2
Shaded with edges
 70
    26
177
     3
291
     0
 70
    58
 90
        2
176
     1
 90
        2
176
     1
 90
        1
176
     1
 90
        2
176
     1
 40
0.6
176
     1
 40
30.0
176
     1
 62
     7
420
 16777215
176
     1
 90
        1
176
     1
 90
       10
176
     1
 62
     7
176
     1
 62
   257
176
     1
 90
        2
176
     1
 90
        1
176
     1
 40
1.0
176
     1
 90
        8
176
     1
 62
   257
176
     1
 40
1.0
176
     1
 90
        1
176
     1
 90
        6
176
     1
 90
        2
176
     1
 62
     7
176
     1
 90
        3
176
     1
 90
        0
176
     1
 90
        0
176
     1
290
     0
176
     1
 90
        5
176
     1
 40
0.0
176
     1
 90
        0
176
     1
290
     0
176
     1
290
     1
176
     1
290
     1
176
     1
290
     0
176
     1
290
     0
176
     1
290
     0
176
     1
290
     0
176
     1
290
     0
176
     1
290
     0
176
     1
 90
       50
176
     1
 40
0.0
176
     1
 40
1.0
176
     1
 90
        0
176
     1
 62
    18
420
        0
176
     1
 90
       50
176
     1
 90
        3
176
     1
 62
     5
420
      255
176
     1
290
     0
176
     1
 90
       50
176
     1
 90
       50
176
     1
 90
       50
176
     1
290
     0
176
     1
 90
       50
176
     1
 62
   256
176
     0
 40
1.0
176
     0
 90
        2
176
     1
  1
strokes_ogs.tif
176
     1
290
     0
176
     1
 40
1.0
176
     1
 40
1.0
176
     1
  0
VISUALSTYLE
  5
384
102
{ACAD_REACTORS
330
323
102
}
330
323
100
AcDbVisualStyle
  2
Shades of Gray
 70
    23
177
     3
291
     0
 70
    58
 90
        2
176
     1
 90
        2
176
     1
 90
        3
176
     1
 90
        0
176
     1
 40
0.6
176
     1
 40
30.0
176
     1
 62
     7
420
 16777215
176
     1
 90
        2
176
     1
 90
        2
176
     1
 62
     7
176
     1
 62
     7
176
     1
 90
        1
176
     1
 90
        1
176
     1
 40
40.0
176
     1
 90
        8
176
     1
 62
     7
176
     1
 40
1.0
176
     1
 90
        1
176
     1
 90
        6
176
     1
 90
        2
176
     1
 62
     7
176
     1
 90
        3
176
     1
 90
        0
176
     1
 90
        0
176
     1
290
     0
176
     1
 90
        1
176
     1
 40
0.0
176
     1
 90
        0
176
     1
290
     0
176
     1
290
     1
176
     1
290
     1
176
     1
290
     0
176
     1
290
     0
176
     1
290
     0
176
     1
290
     0
176
     1
290
     0
176
     1
290
     0
176
     1
 90
       50
176
     1
 40
0.0
176
     1
 40
1.0
176
     1
 90
        0
176
     1
 62
    18
420
        0
176
     1
 90
       50
176
     1
 90
        3
176
     1
 62
     5
420
      255
176
     1
290
     0
176
     1
 90
       50
176
     1
 90
       50
176
     1
 90
       50
176
     1
290
     0
176
     1
 90
       50
176
     1
 62
   256
176
     0
 40
1.0
176
     0
 90
        2
176
     1
  1
strokes_ogs.tif
176
     1
290
     0
176
     1
 40
1.0
176
     1
 40
1.0
176
     1
  0
VISUALSTYLE
  5
385
102
{ACAD_REACTORS
330
323
102
}
330
323
100
AcDbVisualStyle
  2
Sketchy
 70
    24
177
     3
291
     0
 70
    58
 90
        1
176
     1
 90
        2
176
     1
 90
        2
176
     1
 90
        0
176
     1
 40
0.6
176
     1
 40
30.0
176
     1
 62
     7
420
 16777215
176
     1
 90
        2
176
     1
 90
        2
176
     1
 62
     7
176
     1
 62
     7
176
     1
 90
        1
176
     1
 90
        1
176
     1
 40
40.0
176
     1
 90
       11
176
     1
 62
     7
176
     1
 40
1.0
176
     1
 90
        1
176
     1
 90
        6
176
     1
 90
        2
176
     1
 62
     7
176
     1
 90
        6
176
     1
 90
        0
176
     1
 90
        0
176
     1
290
     0
176
     1
 90
        1
176
     1
 40
0.0
176
     1
 90
        0
176
     1
290
     0
176
     1
290
     1
176
     1
290
     1
176
     1
290
     0
176
     1
290
     0
176
     1
290
     0
176
     1
290
     0
176
     1
290
     0
176
     1
290
     0
176
     1
 90
       50
176
     1
 40
0.0
176
     1
 40
1.0
176
     1
 90
        0
176
     1
 62
    18
420
        0
176
     1
 90
       50
176
     1
 90
        3
176
     1
 62
     5
420
      255
176
     1
290
     0
176
     1
 90
       50
176
     1
 90
       50
176
     1
 90
       50
176
     1
290
     0
176
     1
 90
       50
176
     1
 62
   256
176
     0
 40
1.0
176
     0
 90
        2
176
     1
  1
strokes_ogs.tif
176
     1
290
     0
176
     1
 40
1.0
176
     1
 40
1.0
176
     1
  0
VISUALSTYLE
  5
330
102
{ACAD_REACTORS
330
323
102
}
330
323
100
AcDbVisualStyle
  2
Thicken
 70
    13
177
     3
291
     1
 70
    58
 90
        2
176
     1
 90
        2
176
     1
 90
        0
176
     1
 90
        0
176
     1
 40
-0.6
176
     1
 40
-30.0
176
     1
 62
     7
176
     1
 90
        1
176
     1
 90
        4
176
     1
 62
     7
176
     1
 62
   257
176
     1
 90
        1
176
     1
 90
        1
176
     1
 40
1.0
176
     1
 90
       12
176
     1
 62
     7
176
     1
 40
1.0
176
     1
 90
        1
176
     1
 90
        6
176
     1
 90
        2
176
     1
 62
     7
176
     1
 90
        5
176
     1
 90
        0
176
     1
 90
        0
176
     1
290
     0
176
     1
 90
        1
176
     1
 40
0.0
176
     1
 90
        0
176
     1
290
     0
176
     1
290
     1
176
     1
290
     1
176
     1
290
     0
176
     1
290
     0
176
     1
290
     0
176
     1
290
     0
176
     1
290
     0
176
     1
290
     0
176
     1
 90
       50
176
     1
 40
0.0
176
     1
 40
1.0
176
     1
 90
        0
176
     1
 62
    18
420
        0
176
     1
 90
       50
176
     1
 90
        3
176
     1
 62
     5
420
      255
176
     1
290
     0
176
     1
 90
       50
176
     1
 90
       50
176
     1
 90
       50
176
     1
290
     0
176
     1
 90
       50
176
     1
 62
   256
176
     0
 40
1.0
176
     0
 90
        2
176
     1
  1
strokes_ogs.tif
176
     1
290
     0
176
     1
 40
1.0
176
     1
 40
1.0
176
     1
  0
VISUALSTYLE
  5
37F
102
{ACAD_REACTORS
330
323
102
}
330
323
100
AcDbVisualStyle
  2
Wireframe
 70
     5
177
     3
291
     0
 70
    58
 90
        0
176
     1
 90
        2
176
     1
 90
        0
176
     1
 90
        0
176
     1
 40
0.6
176
     1
 40
30.0
176
     1
 62
     7
420
 16777215
176
     1
 90
        1
176
     1
 90
        4
176
     1
 62
     7
176
     1
 62
   257
176
     1
 90
        1
176
     1
 90
        1
176
     1
 40
1.0
176
     1
 90
        0
176
     1
 62
   257
176
     1
 40
1.0
176
     1
 90
        1
176
     1
 90
        6
176
     1
 90
        2
176
     1
 62
     7
176
     1
 90
        3
176
     1
 90
        0
176
     1
 90
        0
176
     1
290
     0
176
     1
 90
        1
176
     1
 40
0.0
176
     1
 90
        0
176
     1
290
     0
176
     1
290
     1
176
     1
290
     1
176
     1
290
     0
176
     1
290
     0
176
     1
290
     0
176
     1
290
     0
176
     1
290
     0
176
     1
290
     0
176
     1
 90
       50
176
     1
 40
0.0
176
     1
 40
1.0
176
     1
 90
        0
176
     1
 62
    18
420
        0
176
     1
 90
       50
176
     1
 90
        3
176
     1
 62
     5
420
      255
176
     1
290
     0
176
     1
 90
       50
176
     1
 90
       50
176
     1
 90
       50
176
     1
290
     0
176
     1
 90
       50
176
     1
 62
   256
176
     0
 40
1.0
176
     0
 90
        2
176
     1
  1
strokes_ogs.tif
176
     1
290
     0
176
     1
 40
1.0
176
     1
 40
1.0
176
     1
  0
VISUALSTYLE
  5
386
102
{ACAD_REACTORS
330
323
102
}
330
323
100
AcDbVisualStyle
  2
X-Ray
 70
    25
177
     3
291
     0
 70
    58
 90
        2
176
     1
 90
        2
176
     1
 90
        1
176
     1
 90
        1
176
     1
 40
0.5
176
     1
 40
30.0
176
     1
 62
     7
420
 16777215
176
     1
 90
        1
176
     1
 90
        0
176
     1
 62
     7
176
     1
 62
   257
176
     1
 90
        1
176
     1
 90
        1
176
     1
 40
1.0
176
     1
 90
        8
176
     1
 62
     7
176
     1
 40
1.0
176
     1
 90
        1
176
     1
 90
        6
176
     1
 90
        2
176
     1
 62
     7
176
     1
 90
        3
176
     1
 90
        0
176
     1
 90
        0
176
     1
290
     0
176
     1
 90
       13
176
     1
 40
0.0
176
     1
 90
        0
176
     1
290
     0
176
     1
290
     1
176
     1
290
     1
176
     1
290
     0
176
     1
290
     0
176
     1
290
     0
176
     1
290
     0
176
     1
290
     0
176
     1
290
     0
176
     1
 90
       50
176
     1
 40
0.0
176
     1
 40
1.0
176
     1
 90
        0
176
     1
 62
    18
420
        0
176
     1
 90
       50
176
     1
 90
        3
176
     1
 62
     5
420
      255
176
     1
290
     0
176
     1
 90
       50
176
     1
 90
       50
176
     1
 90
       50
176
     1
290
     0
176
     1
 90
       50
176
     1
 62
   256
176
     0
 40
1.0
176
     0
 90
        2
176
     1
  1
strokes_ogs.tif
176
     1
290
     0
176
     1
 40
1.0
176
     1
 40
1.0
176
     1
  0
DICTIONARYVAR
  5
396
102
{ACAD_REACTORS
330
33E
102
}
330
33E
100
DictionaryVariables
280
     0
  1
1:1
  0
DICTIONARYVAR
  5
398
102
{ACAD_REACTORS
330
33E
102
}
330
33E
100
DictionaryVariables
280
     0
  1
Standard
  0
DICTIONARYVAR
  5
397
102
{ACAD_REACTORS
330
33E
102
}
330
33E
100
DictionaryVariables
280
     0
  1
Standard
  0
DICTIONARYVAR
  5
342
102
{ACAD_REACTORS
330
33E
102
}
330
33E
100
DictionaryVariables
280
     0
  1
2
  0
DICTIONARYVAR
  5
343
102
{ACAD_REACTORS
330
33E
102
}
330
33E
100
DictionaryVariables
280
     0
  1
1
  0
DICTIONARYVAR
  5
341
102
{ACAD_REACTORS
330
33E
102
}
330
33E
100
DictionaryVariables
280
     0
  1
0
  0
DICTIONARY
  5
420
330
38A
100
AcDbDictionary
280
     1
281
     1
  3
ACAD_ROUNDTRIP_2008_TABLESTYLE_CELLSTYLEMAP
360
421
  0
CELLSTYLEMAP
  5
421
102
{ACAD_REACTORS
330
420
102
}
330
420
100
AcDbCellStyleMap
 90
        3
300
CELLSTYLE
  1
TABLEFORMAT_BEGIN
 90
        5
170
     1
 91
        0
 92
    32768
 62
   257
 93
        1
300
CONTENTFORMAT
  1
CONTENTFORMAT_BEGIN
 90
        0
 91
        0
 92
        4
 93
        0
300

 40
0.0
140
1.0
 94
        5
 62
     0
340
11
144
0.25
309
CONTENTFORMAT_END
171
     1
301
MARGIN
  1
CELLMARGIN_BEGIN
 40
0.06
 40
0.06
 40
0.06
 40
0.06
 40
0.06
 40
0.06
309
CELLMARGIN_END
 94
        6
 95
        1
302
GRIDFORMAT
  1
GRIDFORMAT_BEGIN
 90
        0
 91
        1
 62
     0
 92
       -2
340
14
 93
        0
 40
0.045
309
GRIDFORMAT_END
 95
        2
302
GRIDFORMAT
  1
GRIDFORMAT_BEGIN
 90
        0
 91
        1
 62
     0
 92
       -2
340
14
 93
        0
 40
0.045
309
GRIDFORMAT_END
 95
        4
302
GRIDFORMAT
  1
GRIDFORMAT_BEGIN
 90
        0
 91
        1
 62
     0
 92
       -2
340
14
 93
        0
 40
0.045
309
GRIDFORMAT_END
 95
        8
302
GRIDFORMAT
  1
GRIDFORMAT_BEGIN
 90
        0
 91
        1
 62
     0
 92
       -2
340
14
 93
        0
 40
0.045
309
GRIDFORMAT_END
 95
       16
302
GRIDFORMAT
  1
GRIDFORMAT_BEGIN
 90
        0
 91
        1
 62
     0
 92
       -2
340
14
 93
        0
 40
0.045
309
GRIDFORMAT_END
 95
       32
302
GRIDFORMAT
  1
GRIDFORMAT_BEGIN
 90
        0
 91
        1
 62
     0
 92
       -2
340
14
 93
        0
 40
0.045
309
GRIDFORMAT_END
309
TABLEFORMAT_END
  1
CELLSTYLE_BEGIN
 90
        1
 91
        1
300
_TITLE
309
CELLSTYLE_END
300
CELLSTYLE
  1
TABLEFORMAT_BEGIN
 90
        5
170
     1
 91
        0
 92
        0
 62
   257
 93
        1
300
CONTENTFORMAT
  1
CONTENTFORMAT_BEGIN
 90
        0
 91
        0
 92
        4
 93
        0
300

 40
0.0
140
1.0
 94
        5
 62
     0
340
11
144
0.18
309
CONTENTFORMAT_END
171
     1
301
MARGIN
  1
CELLMARGIN_BEGIN
 40
0.06
 40
0.06
 40
0.06
 40
0.06
 40
0.06
 40
0.06
309
CELLMARGIN_END
 94
        6
 95
        1
302
GRIDFORMAT
  1
GRIDFORMAT_BEGIN
 90
        0
 91
        1
 62
     0
 92
       -2
340
14
 93
        0
 40
0.045
309
GRIDFORMAT_END
 95
        2
302
GRIDFORMAT
  1
GRIDFORMAT_BEGIN
 90
        0
 91
        1
 62
     0
 92
       -2
340
14
 93
        0
 40
0.045
309
GRIDFORMAT_END
 95
        4
302
GRIDFORMAT
  1
GRIDFORMAT_BEGIN
 90
        0
 91
        1
 62
     0
 92
       -2
340
14
 93
        0
 40
0.045
309
GRIDFORMAT_END
 95
        8
302
GRIDFORMAT
  1
GRIDFORMAT_BEGIN
 90
        0
 91
        1
 62
     0
 92
       -2
340
14
 93
        0
 40
0.045
309
GRIDFORMAT_END
 95
       16
302
GRIDFORMAT
  1
GRIDFORMAT_BEGIN
 90
        0
 91
        1
 62
     0
 92
       -2
340
14
 93
        0
 40
0.045
309
GRIDFORMAT_END
 95
       32
302
GRIDFORMAT
  1
GRIDFORMAT_BEGIN
 90
        0
 91
        1
 62
     0
 92
       -2
340
14
 93
        0
 40
0.045
309
GRIDFORMAT_END
309
TABLEFORMAT_END
  1
CELLSTYLE_BEGIN
 90
        2
 91
        1
300
_HEADER
309
CELLSTYLE_END
300
CELLSTYLE
  1
TABLEFORMAT_BEGIN
 90
        5
170
     1
 91
        0
 92
        0
 62
   257
 93
        1
300
CONTENTFORMAT
  1
CONTENTFORMAT_BEGIN
 90
        0
 91
        0
 92
        4
 93
        0
300

 40
0.0
140
1.0
 94
        2
 62
     0
340
11
144
0.18
309
CONTENTFORMAT_END
171
     1
301
MARGIN
  1
CELLMARGIN_BEGIN
 40
0.06
 40
0.06
 40
0.06
 40
0.06
 40
0.06
 40
0.06
309
CELLMARGIN_END
 94
        6
 95
        1
302
GRIDFORMAT
  1
GRIDFORMAT_BEGIN
 90
        0
 91
        1
 62
     0
 92
       -2
340
14
 93
        0
 40
0.045
309
GRIDFORMAT_END
 95
        2
302
GRIDFORMAT
  1
GRIDFORMAT_BEGIN
 90
        0
 91
        1
 62
     0
 92
       -2
340
14
 93
        0
 40
0.045
309
GRIDFORMAT_END
 95
        4
302
GRIDFORMAT
  1
GRIDFORMAT_BEGIN
 90
        0
 91
        1
 62
     0
 92
       -2
340
14
 93
        0
 40
0.045
309
GRIDFORMAT_END
 95
        8
302
GRIDFORMAT
  1
GRIDFORMAT_BEGIN
 90
        0
 91
        1
 62
     0
 92
       -2
340
14
 93
        0
 40
0.045
309
GRIDFORMAT_END
 95
       16
302
GRIDFORMAT
  1
GRIDFORMAT_BEGIN
 90
        0
 91
        1
 62
     0
 92
       -2
340
14
 93
        0
 40
0.045
309
GRIDFORMAT_END
 95
       32
302
GRIDFORMAT
  1
GRIDFORMAT_BEGIN
 90
        0
 91
        1
 62
     0
 92
       -2
340
14
 93
        0
 40
0.045
309
GRIDFORMAT_END
309
TABLEFORMAT_END
  1
CELLSTYLE_BEGIN
 90
        3
 91
        2
300
_DATA
309
CELLSTYLE_END
  0
ENDSEC
  0
EOF
