  0
SECTION
  2
HEADER
  9
$ACADVER
  1
AC1015
  9
$ACADMAINTVER
 70
     6
  9
$DWGCODEPAGE
  3
ANSI_1252
  9
$INSBASE
 10
0.0
 20
0.0
 30
0.0
  9
$EXTMIN
 10
-54.90551311820796
 20
-31.66470678287121
 30
0.0
  9
$EXTMAX
 10
62.39712061289561
 20
31.15697603227354
 30
0.0
  9
$LIMMIN
 10
-29.69
 20
-20.500348079
  9
$LIMMAX
 10
40.689999995
 20
23.500348168
  9
$ORTHOMODE
 70
     0
  9
$REGENMODE
 70
     1
  9
$FILLMODE
 70
     1
  9
$QTEXTMODE
 70
     0
  9
$MIRRTEXT
 70
     1
  9
$LTSCALE
 40
1.0
  9
$ATTMODE
 70
     1
  9
$TEXTSIZE
 40
0.2
  9
$TRACEWID
 40
0.05
  9
$TEXTSTYLE
  7
Standard
  9
$CLAYER
  8
1
  9
$CELTYPE
  6
ByLayer
  9
$CECOLOR
 62
   256
  9
$CELTSCALE
 40
1.0
  9
$DISPSILH
 70
     0
  9
$DIMSCALE
 40
1.0
  9
$DIMASZ
 40
0.18
  9
$DIMEXO
 40
0.0625
  9
$DIMDLI
 40
0.38
  9
$DIMRND
 40
0.0
  9
$DIMDLE
 40
0.0
  9
$DIMEXE
 40
0.18
  9
$DIMTP
 40
0.0
  9
$DIMTM
 40
0.0
  9
$DIMTXT
 40
0.18
  9
$DIMCEN
 40
0.09
  9
$DIMTSZ
 40
0.0
  9
$DIMTOL
 70
     0
  9
$DIMLIM
 70
     0
  9
$DIMTIH
 70
     1
  9
$DIMTOH
 70
     1
  9
$DIMSE1
 70
     0
  9
$DIMSE2
 70
     0
  9
$DIMTAD
 70
     0
  9
$DIMZIN
 70
     0
  9
$DIMBLK
  1

  9
$DIMASO
 70
     1
  9
$DIMSHO
 70
     1
  9
$DIMPOST
  1

  9
$DIMAPOST
  1

  9
$DIMALT
 70
     0
  9
$DIMALTD
 70
     2
  9
$DIMALTF
 40
25.4
  9
$DIMLFAC
 40
1.0
  9
$DIMTOFL
 70
     0
  9
$DIMTVP
 40
0.0
  9
$DIMTIX
 70
     0
  9
$DIMSOXD
 70
     0
  9
$DIMSAH
 70
     0
  9
$DIMBLK1
  1

  9
$DIMBLK2
  1

  9
$DIMSTYLE
  2
Standard
  9
$DIMCLRD
 70
     0
  9
$DIMCLRE
 70
     0
  9
$DIMCLRT
 70
     0
  9
$DIMTFAC
 40
1.0
  9
$DIMGAP
 40
0.09
  9
$DIMJUST
 70
     0
  9
$DIMSD1
 70
     0
  9
$DIMSD2
 70
     0
  9
$DIMTOLJ
 70
     1
  9
$DIMTZIN
 70
     0
  9
$DIMALTZ
 70
     0
  9
$DIMALTTZ
 70
     0
  9
$DIMUPT
 70
     0
  9
$DIMDEC
 70
     4
  9
$DIMTDEC
 70
     4
  9
$DIMALTU
 70
     2
  9
$DIMALTTD
 70
     2
  9
$DIMTXSTY
  7
Standard
  9
$DIMAUNIT
 70
     0
  9
$DIMADEC
 70
     0
  9
$DIMALTRND
 40
0.0
  9
$DIMAZIN
 70
     0
  9
$DIMDSEP
 70
    46
  9
$DIMATFIT
 70
     3
  9
$DIMFRAC
 70
     0
  9
$DIMLDRBLK
  1

  9
$DIMLUNIT
 70
     2
  9
$DIMLWD
 70
    -2
  9
$DIMLWE
 70
    -2
  9
$DIMTMOVE
 70
     2
  9
$LUNITS
 70
     2
  9
$LUPREC
 70
     4
  9
$SKETCHINC
 40
0.1
  9
$FILLETRAD
 40
0.5
  9
$AUNITS
 70
     2
  9
$AUPREC
 70
     0
  9
$MENU
  1
.
  9
$ELEVATION
 40
0.0
  9
$PELEVATION
 40
0.0
  9
$THICKNESS
 40
0.0
  9
$LIMCHECK
 70
     0
  9
$CHAMFERA
 40
0.5
  9
$CHAMFERB
 40
0.5
  9
$CHAMFERC
 40
1.0
  9
$CHAMFERD
 40
0.0
  9
$SKPOLY
 70
     0
  9
$TDCREATE
 40
2458327.544385729
  9
$TDUCREATE
 40
2458327.461052396
  9
$TDUPDATE
 40
2458604.375481539
  9
$TDUUPDATE
 40
2458604.292148206
  9
$TDINDWG
 40
0.0044272801
  9
$TDUSRTIMER
 40
0.0007958796
  9
$USRTIMER
 70
     1
  9
$ANGBASE
 50
0.0
  9
$ANGDIR
 70
     0
  9
$PDMODE
 70
     0
  9
$PDSIZE
 40
0.0
  9
$PLINEWID
 40
0.0
  9
$SPLFRAME
 70
     0
  9
$SPLINETYPE
 70
     6
  9
$SPLINESEGS
 70
     8
  9
$HANDSEED
  5
3FB
  9
$SURFTAB1
 70
     6
  9
$SURFTAB2
 70
     6
  9
$SURFTYPE
 70
     6
  9
$SURFU
 70
     6
  9
$SURFV
 70
     6
  9
$UCSBASE
  2

  9
$UCSNAME
  2

  9
$UCSORG
 10
0.0
 20
0.0
 30
0.0
  9
$UCSXDIR
 10
1.0
 20
0.0
 30
0.0
  9
$UCSYDIR
 10
0.0
 20
1.0
 30
0.0
  9
$UCSORTHOREF
  2

  9
$UCSORTHOVIEW
 70
     0
  9
$UCSORGTOP
 10
0.0
 20
0.0
 30
0.0
  9
$UCSORGBOTTOM
 10
0.0
 20
0.0
 30
0.0
  9
$UCSORGLEFT
 10
0.0
 20
0.0
 30
0.0
  9
$UCSORGRIGHT
 10
0.0
 20
0.0
 30
0.0
  9
$UCSORGFRONT
 10
0.0
 20
0.0
 30
0.0
  9
$UCSORGBACK
 10
0.0
 20
0.0
 30
0.0
  9
$PUCSBASE
  2

  9
$PUCSNAME
  2

  9
$PUCSORG
 10
0.0
 20
0.0
 30
0.0
  9
$PUCSXDIR
 10
1.0
 20
0.0
 30
0.0
  9
$PUCSYDIR
 10
0.0
 20
1.0
 30
0.0
  9
$PUCSORTHOREF
  2

  9
$PUCSORTHOVIEW
 70
     0
  9
$PUCSORGTOP
 10
0.0
 20
0.0
 30
0.0
  9
$PUCSORGBOTTOM
 10
0.0
 20
0.0
 30
0.0
  9
$PUCSORGLEFT
 10
0.0
 20
0.0
 30
0.0
  9
$PUCSORGRIGHT
 10
0.0
 20
0.0
 30
0.0
  9
$PUCSORGFRONT
 10
0.0
 20
0.0
 30
0.0
  9
$PUCSORGBACK
 10
0.0
 20
0.0
 30
0.0
  9
$USERI1
 70
     0
  9
$USERI2
 70
     0
  9
$USERI3
 70
     0
  9
$USERI4
 70
     0
  9
$USERI5
 70
     0
  9
$USERR1
 40
0.0
  9
$USERR2
 40
0.0
  9
$USERR3
 40
0.0
  9
$USERR4
 40
0.0
  9
$USERR5
 40
0.0
  9
$WORLDVIEW
 70
     1
  9
$SHADEDGE
 70
     3
  9
$SHADEDIF
 70
    70
  9
$TILEMODE
 70
     1
  9
$MAXACTVP
 70
    64
  9
$PINSBASE
 10
0.0
 20
0.0
 30
0.0
  9
$PLIMCHECK
 70
     0
  9
$PEXTMIN
 10
1.000000000000000E+20
 20
1.000000000000000E+20
 30
1.000000000000000E+20
  9
$PEXTMAX
 10
-1.000000000000000E+20
 20
-1.000000000000000E+20
 30
-1.000000000000000E+20
  9
$PLIMMIN
 10
0.0
 20
0.0
  9
$PLIMMAX
 10
0.0
 20
0.0
  9
$UNITMODE
 70
     0
  9
$VISRETAIN
 70
     1
  9
$PLINEGEN
 70
     0
  9
$PSLTSCALE
 70
     1
  9
$TREEDEPTH
 70
  3020
  9
$CMLSTYLE
  2
Standard
  9
$CMLJUST
 70
     0
  9
$CMLSCALE
 40
1.0
  9
$PROXYGRAPHICS
 70
     1
  9
$MEASUREMENT
 70
     0
  9
$CELWEIGHT
370
    -1
  9
$ENDCAPS
280
     0
  9
$JOINSTYLE
280
     0
  9
$LWDISPLAY
290
     0
  9
$INSUNITS
 70
     0
  9
$HYPERLINKBASE
  1

  9
$STYLESHEET
  1

  9
$XEDIT
290
     1
  9
$CEPSNTYPE
380
     0
  9
$PSTYLEMODE
290
     1
  9
$FINGERPRINTGUID
  2
{D3900275-DF7F-4192-A317-C89E1E14BC08}
  9
$VERSIONGUID
  2
{FAEB1C32-E019-11D5-929B-00C0DF256EC4}
  9
$EXTNAMES
290
     1
  9
$PSVPSCALE
 40
0.0
  9
$OLESTARTUP
290
     0
  0
ENDSEC
  0
SECTION
  2
CLASSES
  0
CLASS
  1
ACDBDICTIONARYWDFLT
  2
AcDbDictionaryWithDefault
  3
ObjectDBX Classes
 90
        0
280
     0
281
     0
  0
CLASS
  1
SCALE
  2
AcDbScale
  3
ObjectDBX Classes
 90
     1153
280
     0
281
     0
  0
CLASS
  1
VISUALSTYLE
  2
AcDbVisualStyle
  3
ObjectDBX Classes
 90
     4095
280
     0
281
     0
  0
CLASS
  1
MATERIAL
  2
AcDbMaterial
  3
ObjectDBX Classes
 90
     1153
280
     0
281
     0
  0
CLASS
  1
DICTIONARYVAR
  2
AcDbDictionaryVar
  3
ObjectDBX Classes
 90
        0
280
     0
281
     0
  0
CLASS
  1
ACDBPLACEHOLDER
  2
AcDbPlaceHolder
  3
ObjectDBX Classes
 90
        0
280
     0
281
     0
  0
CLASS
  1
LAYOUT
  2
AcDbLayout
  3
ObjectDBX Classes
 90
        0
280
     0
281
     0
  0
CLASS
  1
TABLESTYLE
  2
AcDbTableStyle
  3
ObjectDBX Classes
 90
     4095
280
     0
281
     0
  0
CLASS
  1
MLEADERSTYLE
  2
AcDbMLeaderStyle
  3
ACDB_MLEADERSTYLE_CLASS
 90
     4095
280
     0
281
     0
  0
CLASS
  1
SUN
  2
AcDbSun
  3
SCENEOE
 90
     1153
280
     0
281
     0
  0
CLASS
  1
CELLSTYLEMAP
  2
AcDbCellStyleMap
  3
ObjectDBX Classes
 90
     1152
280
     0
281
     0
  0
CLASS
  1
SORTENTSTABLE
  2
AcDbSortentsTable
  3
ObjectDBX Classes
 90
        0
280
     0
281
     0
  0
ENDSEC
  0
SECTION
  2
TABLES
  0
TABLE
  2
VPORT
  5
8
330
0
100
AcDbSymbolTable
 70
     1
  0
VPORT
  5
C6
330
8
100
AcDbSymbolTableRecord
100
AcDbViewportTableRecord
  2
*Active
 70
     0
 10
0.0
 20
0.0
 11
1.0
 21
1.0
 12
9.87405126831272
 22
-3.586572149224942
 13
0.0
 23
0.0
 14
0.5
 24
0.5
 15
0.5
 25
0.5
 16
0.0
 26
0.0
 36
1.0
 17
0.0
 27
0.0
 37
0.0
 40
46.81370663584272
 41
1.925373134328358
 42
50.0
 43
0.0
 44
0.0
 50
0.0
 51
0.0
 71
    16
 72
   100
 73
     1
 74
     3
 75
     0
 76
     0
 77
     0
 78
     0
281
     0
 65
     1
110
0.0
120
0.0
130
0.0
111
1.0
121
0.0
131
0.0
112
0.0
122
1.0
132
0.0
 79
     0
146
0.0
  0
ENDTAB
  0
TABLE
  2
LTYPE
  5
5
330
0
100
AcDbSymbolTable
 70
     8
  0
LTYPE
  5
14
330
5
100
AcDbSymbolTableRecord
100
AcDbLinetypeTableRecord
  2
ByBlock
 70
     0
  3

 72
    65
 73
     0
 40
0.0
  0
LTYPE
  5
15
330
5
100
AcDbSymbolTableRecord
100
AcDbLinetypeTableRecord
  2
ByLayer
 70
     0
  3

 72
    65
 73
     0
 40
0.0
  0
LTYPE
  5
16
330
5
100
AcDbSymbolTableRecord
100
AcDbLinetypeTableRecord
  2
Continuous
 70
     0
  3
Solid line
 72
    65
 73
     0
 40
0.0
  0
LTYPE
  5
20
330
5
100
AcDbSymbolTableRecord
100
AcDbLinetypeTableRecord
  2
PUNKT
 70
     0
  3
..............
 72
    65
 73
     2
 40
1.5
 49
0.7
 74
     0
 49
-0.8
 74
     0
  0
LTYPE
  5
21
330
5
100
AcDbSymbolTableRecord
100
AcDbLinetypeTableRecord
  2
GESTRICHELT
 70
     0
  3
-- -- -- -- --
 72
    65
 73
     7
 40
2.8
 49
0.9
 74
     0
 49
0.0
 74
     0
 49
0.9
 74
     0
 49
0.0
 74
     0
 49
0.2
 74
     0
 49
0.0
 74
     0
 49
-0.8
 74
     0
  0
LTYPE
  5
22
330
5
100
AcDbSymbolTableRecord
100
AcDbLinetypeTableRecord
  2
STRICHPUNKT
 70
     0
  3
--.--.--.--.--
 72
    65
 73
     4
 40
8.8
 49
5.5
 74
     0
 49
-1.3
 74
     0
 49
0.7
 74
     0
 49
-1.3
 74
     0
  0
LTYPE
  5
25
330
5
100
AcDbSymbolTableRecord
100
AcDbLinetypeTableRecord
  2
PHANTOM
 70
     0
  3
--..--..--..--
 72
    65
 73
     6
 40
14.2
 49
7.0
 74
     0
 49
-1.8
 74
     0
 49
0.9
 74
     0
 49
-1.8
 74
     0
 49
0.9
 74
     0
 49
-1.8
 74
     0
  0
LTYPE
  5
140
330
5
100
AcDbSymbolTableRecord
100
AcDbLinetypeTableRecord
  2
DASH
 70
     0
  3
DASH _ _ _ _ _
 72
    65
 73
     2
 40
0.75
 49
0.4
 74
     0
 49
-0.35
 74
     0
  0
LTYPE
  5
141
330
5
100
AcDbSymbolTableRecord
100
AcDbLinetypeTableRecord
  2
LONGDASH_DASH
 70
     0
  3
LONGDASH_DASH __ . __ . __
 72
    65
 73
     4
 40
0.85
 49
0.4
 74
     0
 49
-0.2
 74
     0
 49
0.05
 74
     0
 49
-0.2
 74
     0
  0
LTYPE
  5
142
330
5
100
AcDbSymbolTableRecord
100
AcDbLinetypeTableRecord
  2
LONGDASH_DASH_DASH
 70
     0
  3
LONGDASH_DASH_DASH __ . . __ . . __
 72
    65
 73
     6
 40
1.1
 49
0.4
 74
     0
 49
-0.2
 74
     0
 49
0.05
 74
     0
 49
-0.2
 74
     0
 49
0.05
 74
     0
 49
-0.2
 74
     0
  0
ENDTAB
  0
TABLE
  2
LAYER
  5
2
102
{ACAD_XDICTIONARY
360
15F
102
}
330
0
100
AcDbSymbolTable
 70
    16
  0
LAYER
  5
109
330
2
100
AcDbSymbolTableRecord
100
AcDbLayerTableRecord
  2
200
 70
     0
 62
     2
  6
Continuous
370
    50
390
F
  0
LAYER
  5
143
330
2
100
AcDbSymbolTableRecord
100
AcDbLayerTableRecord
  2
0
 70
     0
 62
     1
  6
Continuous
370
    -3
390
F
  0
LAYER
  5
144
330
2
100
AcDbSymbolTableRecord
100
AcDbLayerTableRecord
  2
1
 70
     0
 62
     4
  6
Continuous
370
    50
390
F
  0
LAYER
  5
145
330
2
100
AcDbSymbolTableRecord
100
AcDbLayerTableRecord
  2
2
 70
     0
 62
     7
  6
Continuous
370
    25
390
F
  0
LAYER
  5
146
330
2
100
AcDbSymbolTableRecord
100
AcDbLayerTableRecord
  2
3
 70
     0
 62
     1
  6
DASH
370
    35
390
F
  0
LAYER
  5
147
330
2
100
AcDbSymbolTableRecord
100
AcDbLayerTableRecord
  2
4
 70
     0
 62
     2
  6
LONGDASH_DASH
370
    25
390
F
  0
LAYER
  5
148
330
2
100
AcDbSymbolTableRecord
100
AcDbLayerTableRecord
  2
6
 70
     0
 62
     5
  6
Continuous
370
    -3
390
F
  0
LAYER
  5
149
330
2
100
AcDbSymbolTableRecord
100
AcDbLayerTableRecord
  2
CUT
 70
     0
 62
     1
  6
Continuous
370
    25
390
F
  0
LAYER
  5
14A
330
2
100
AcDbSymbolTableRecord
100
AcDbLayerTableRecord
  2
NOCUT
 70
     0
 62
     7
  6
Continuous
370
    25
390
F
  0
LAYER
  5
14B
330
2
100
AcDbSymbolTableRecord
100
AcDbLayerTableRecord
  2
SK1
 70
     0
 62
     4
  6
Continuous
370
    50
390
F
  0
LAYER
  5
14C
330
2
100
AcDbSymbolTableRecord
100
AcDbLayerTableRecord
  2
SK2
 70
     0
 62
     7
  6
Continuous
370
    25
390
F
  0
LAYER
  5
14D
330
2
100
AcDbSymbolTableRecord
100
AcDbLayerTableRecord
  2
SK3
 70
     0
 62
     1
  6
DASH
370
    35
390
F
  0
LAYER
  5
14E
330
2
100
AcDbSymbolTableRecord
100
AcDbLayerTableRecord
  2
SK4
 70
     0
 62
     2
  6
LONGDASH_DASH
370
    25
390
F
  0
LAYER
  5
14F
330
2
100
AcDbSymbolTableRecord
100
AcDbLayerTableRecord
  2
SK6
 70
     0
 62
     5
  6
Continuous
370
    -3
390
F
  0
LAYER
  5
150
330
2
100
AcDbSymbolTableRecord
100
AcDbLayerTableRecord
  2
INFTOTAL
 70
     0
 62
     9
  6
Continuous
370
    18
390
F
  0
LAYER
  5
287
330
2
100
AcDbSymbolTableRecord
100
AcDbLayerTableRecord
  2
7
 70
     0
 62
     5
  6
Continuous
370
    -3
390
F
1001
AcAecLayerStandard
1000

1000

  0
ENDTAB
  0
TABLE
  2
STYLE
  5
3
330
0
100
AcDbSymbolTable
 70
     2
  0
STYLE
  5
11
330
3
100
AcDbSymbolTableRecord
100
AcDbTextStyleTableRecord
  2
Standard
 70
     0
 40
0.0
 41
1.0
 50
0.0
 71
     0
 42
0.2
  3
txt
  4

  0
STYLE
  5
108
330
3
100
AcDbSymbolTableRecord
100
AcDbTextStyleTableRecord
  2
BMG_Text
 70
     0
 40
3.5
 41
1.0
 50
0.0
 71
     0
 42
0.2
  3
monos.ttf
  4

1001
ACAD
1000
Monospac821 BT
1071
       49
  0
ENDTAB
  0
TABLE
  2
VIEW
  5
6
330
0
100
AcDbSymbolTable
 70
     0
  0
ENDTAB
  0
TABLE
  2
UCS
  5
7
330
0
100
AcDbSymbolTable
 70
     0
  0
ENDTAB
  0
TABLE
  2
APPID
  5
9
330
0
100
AcDbSymbolTable
 70
     3
  0
APPID
  5
12
330
9
100
AcDbSymbolTableRecord
100
AcDbRegAppTableRecord
  2
ACAD
 70
     0
  0
APPID
  5
288
330
9
100
AcDbSymbolTableRecord
100
AcDbRegAppTableRecord
  2
AcAecLayerStandard
 70
     0
  0
APPID
  5
2C3
330
9
100
AcDbSymbolTableRecord
100
AcDbRegAppTableRecord
  2
PE_URL
 70
     0
  0
ENDTAB
  0
TABLE
  2
DIMSTYLE
  5
A
330
0
100
AcDbSymbolTable
 70
     1
100
AcDbDimStyleTable
  0
DIMSTYLE
105
28
330
A
100
AcDbSymbolTableRecord
100
AcDbDimStyleTableRecord
  2
Standard
 70
     0
178
     0
340
11
  0
ENDTAB
  0
TABLE
  2
BLOCK_RECORD
  5
1
330
0
100
AcDbSymbolTable
 70
     8
  0
BLOCK_RECORD
  5
1D
102
{ACAD_XDICTIONARY
360
2B1
102
}
330
1
100
AcDbSymbolTableRecord
100
AcDbBlockTableRecord
  2
*Model_Space
340
1E
  0
BLOCK_RECORD
  5
1B
330
1
100
AcDbSymbolTableRecord
100
AcDbBlockTableRecord
  2
*Paper_Space
340
1C
  0
ENDTAB
  0
ENDSEC
  0
SECTION
  2
BLOCKS
  0
BLOCK
  5
F1
330
1D
100
AcDbEntity
  8
0
100
AcDbBlockBegin
  2
*Model_Space
 70
     0
 10
0.0
 20
0.0
 30
0.0
  3
*Model_Space
  1

  0
ENDBLK
  5
F2
330
1D
100
AcDbEntity
  8
0
100
AcDbBlockEnd
  0
BLOCK
  5
EF
330
1B
100
AcDbEntity
 67
     1
  8
0
100
AcDbBlockBegin
  2
*Paper_Space
 70
     0
 10
0.0
 20
0.0
 30
0.0
  3
*Paper_Space
  1

  0
ENDBLK
  5
F0
330
1B
100
AcDbEntity
 67
     1
  8
0
100
AcDbBlockEnd
  0
ENDSEC
  0
SECTION
  2
ENTITIES
  0
ARC
  5
29
330
1D
100
AcDbEntity
  8
1
  6
Continuous
370
    50
100
AcDbCircle
 10
5.972129822
 20
13.249992371
 30
0.0
 40
6.000000353
100
AcDbArc
 50
221.810303294
 51
270.0
  0
LINE
  5
2A
330
1D
100
AcDbEntity
  8
1
  6
Continuous
370
    50
100
AcDbLine
 10
5.972129822
 20
7.249992371
 30
0.0
 11
20.699996948
 21
7.249992371
 31
0.0
  0
ARC
  5
2B
330
1D
100
AcDbEntity
  8
SK1
  6
Continuous
370
    50
100
AcDbCircle
 10
-0.299995422
 20
-5.799987793
 30
0.0
 40
0.500000021
100
AcDbArc
 50
53.129407465
 51
105.000236642
  0
LINE
  5
2C
330
1D
100
AcDbEntity
  8
SK1
  6
Continuous
370
    50
100
AcDbLine
 10
-0.429405212
 20
-5.31703186
 30
0.0
 11
-1.112213135
 21
-5.5
 31
0.0
  0
LINE
  5
2D
330
1D
100
AcDbEntity
  8
SK1
  6
Continuous
370
    50
100
AcDbLine
 10
-1.112213135
 20
-5.5
 30
0.0
 11
-1.112213135
 21
5.5
 31
0.0
  0
LINE
  5
2E
330
1D
100
AcDbEntity
  8
SK1
  6
Continuous
370
    50
100
AcDbLine
 10
-1.112213135
 20
5.5
 30
0.0
 11
-0.42941464
 21
5.317055947
 31
0.0
  0
ARC
  5
2F
330
1D
100
AcDbEntity
  8
SK1
  6
Continuous
370
    50
100
AcDbCircle
 10
-0.300003052
 20
5.800018311
 30
0.0
 40
0.500000004
100
AcDbArc
 50
254.999755105
 51
306.8706139920001
  0
LINE
  5
30
330
1D
100
AcDbEntity
  8
SK1
  6
Continuous
370
    50
100
AcDbLine
 10
-11.675003052
 20
-5.336883545
 30
0.0
 11
-10.75
 21
-5.5
 31
0.0
  0
LINE
  5
31
330
1D
100
AcDbEntity
  8
SK1
  6
Continuous
370
    50
100
AcDbLine
 10
-10.75
 20
-5.5
 30
0.0
 11
-10.75
 21
5.5
 31
0.0
  0
LINE
  5
32
330
1D
100
AcDbEntity
  8
SK1
  6
Continuous
370
    50
100
AcDbLine
 10
-10.75
 20
5.5
 30
0.0
 11
-11.657485962
 21
5.339981079
 31
0.0
  0
LINE
  5
33
330
1D
100
AcDbEntity
  8
SK1
  6
Continuous
370
    50
100
AcDbLine
 10
-11.657485962
 20
5.339981079
 30
0.0
 11
-12.530539781
 21
5.493930855
 31
0.0
  0
ARC
  5
34
330
1D
100
AcDbEntity
  8
SK1
  6
Continuous
370
    50
100
AcDbCircle
 10
-12.599998474
 20
5.100006104
 30
0.0
 40
0.400001525
100
AcDbArc
 50
80.000122609
 51
180.0
  0
LINE
  5
35
330
1D
100
AcDbEntity
  8
SK1
  6
Continuous
370
    50
100
AcDbLine
 10
-13.0
 20
5.100006104
 30
0.0
 11
-12.999984794
 21
-5.099975586
 31
0.0
  0
ARC
  5
36
330
1D
100
AcDbEntity
  8
SK1
  6
Continuous
370
    50
100
AcDbCircle
 10
-12.599983215
 20
-5.099975586
 30
0.0
 40
0.400001579
100
AcDbArc
 50
180.0
 51
279.99987659
  0
LINE
  5
37
330
1D
100
AcDbEntity
  8
SK1
  6
Continuous
370
    50
100
AcDbLine
 10
-12.530525208
 20
-5.493896484
 30
0.0
 11
-11.657516479
 21
-5.339958191
 31
0.0
  0
LINE
  5
38
330
1D
100
AcDbEntity
  8
1
  6
Continuous
370
    50
100
AcDbLine
 10
20.699996948
 20
-9.250007629
 30
0.0
 11
0.25
 21
-9.250007629
 31
0.0
  0
LINE
  5
39
330
1D
100
AcDbEntity
  8
1
  6
Continuous
370
    50
100
AcDbLine
 10
0.0
 20
-9.000007629
 30
0.0
 11
0.0
 21
8.999992371
 31
0.0
  0
LINE
  5
3A
330
1D
100
AcDbEntity
  8
1
  6
Continuous
370
    50
100
AcDbLine
 10
0.0
 20
8.999992371
 30
0.0
 11
0.25
 21
9.249992371
 31
0.0
  0
LINE
  5
3B
330
1D
100
AcDbEntity
  8
1
  6
Continuous
370
    50
100
AcDbLine
 10
0.25
 20
9.249992371
 30
0.0
 11
20.699996948
 21
9.249992371
 31
0.0
  0
LINE
  5
3C
330
1D
100
AcDbEntity
  8
1
  6
Continuous
370
    50
100
AcDbLine
 10
20.699996948
 20
9.249992371
 30
0.0
 11
20.699996948
 21
-9.250007629
 31
0.0
  0
LINE
  5
3D
330
1D
100
AcDbEntity
  8
1
  6
Continuous
370
    50
100
AcDbLine
 10
19.5
 20
7.249992371
 30
0.0
 11
19.5
 21
9.249992371
 31
0.0
  0
LINE
  5
3E
330
1D
100
AcDbEntity
  8
1
  6
Continuous
370
    50
100
AcDbLine
 10
20.699996948
 20
-6.279998779
 30
0.0
 11
19.199996948
 21
-4.550003052
 31
0.0
  0
LINE
  5
3F
330
1D
100
AcDbEntity
  8
1
  6
Continuous
370
    50
100
AcDbLine
 10
19.199996948
 20
-4.550003052
 30
0.0
 11
19.199996948
 21
4.550003052
 31
0.0
  0
LINE
  5
40
330
1D
100
AcDbEntity
  8
1
  6
Continuous
370
    50
100
AcDbLine
 10
19.199996948
 20
4.550003052
 30
0.0
 11
20.699996948
 21
6.279998779
 31
0.0
  0
LINE
  5
42
330
1D
100
AcDbEntity
  8
SK1
  6
Continuous
370
    50
100
AcDbLine
 10
-10.749984741
 20
-5.499984741
 30
0.0
 11
-1.112205505
 21
-5.499984741
 31
0.0
  0
LINE
  5
43
330
1D
100
AcDbEntity
  8
SK1
  6
Continuous
370
    50
100
AcDbLine
 10
-10.75
 20
5.5
 30
0.0
 11
-1.112197876
 21
5.5
 31
0.0
  0
CIRCLE
  5
44
330
1D
100
AcDbEntity
  8
SK1
  6
Continuous
370
    50
100
AcDbCircle
 10
-4.75
 20
0.0
 30
0.0
 40
1.5
  0
LINE
  5
45
330
1D
100
AcDbEntity
  8
1
  6
Continuous
370
    50
100
AcDbLine
 10
0.0
 20
-9.000007629
 30
0.0
 11
0.25
 21
-9.250007629
 31
0.0
  0
LINE
  5
46
330
1D
100
AcDbEntity
  8
3
  6
DASH
370
    35
100
AcDbLine
 10
-0.0000000000000001
 20
1.435912788781182
 30
0.0
 11
20.699996948
 21
8.970092246
 31
0.0
  0
LINE
  5
47
330
1D
100
AcDbEntity
  8
3
  6
DASH
370
    35
100
AcDbLine
 10
14.159473391
 20
9.249977112
 30
0.0
 11
0.0000000000000053
 21
4.096342245923853
 31
0.0
  0
LINE
  5
48
330
1D
100
AcDbEntity
  8
4
100
AcDbLine
 10
19.407077761
 20
9.829727173
 30
0.0
 11
-0.0000000000000036
 21
2.766161653704038
 31
0.0
  0
LINE
  5
49
330
1D
100
AcDbEntity
  8
4
100
AcDbLine
 10
0.0000000000000009
 20
-2.766172179020027
 30
0.0
 11
19.717060061
 21
-9.942588806
 31
0.0
  0
LINE
  5
4A
330
1D
100
AcDbEntity
  8
3
  6
DASH
370
    35
100
AcDbLine
 10
-0.0000000000000009
 20
-4.096388021923851
 30
0.0
 11
14.159473391
 21
-9.250022888
 31
0.0
  0
LINE
  5
4B
330
1D
100
AcDbEntity
  8
3
  6
DASH
370
    35
100
AcDbLine
 10
20.699996948
 20
-8.970138023
 30
0.0
 11
-0.0000000000000036
 21
-1.435958564566516
 31
0.0
  0
LINE
  5
4C
330
1D
100
AcDbEntity
  8
4
100
AcDbLine
 10
0.0
 20
0.000015259
 30
0.0
 11
35.352561147
 21
0.000015259
 31
0.0
  0
LINE
  5
4D
330
1D
100
AcDbEntity
  8
3
  6
DASH
370
    35
100
AcDbLine
 10
0.732059451
 20
-0.000022888
 30
0.0
 11
-0.0000000000000003
 21
1.267937720106646
 31
0.0
  0
LINE
  5
4E
330
1D
100
AcDbEntity
  8
3
  6
DASH
370
    35
100
AcDbLine
 10
0.0000000000000001
 20
-1.267983496106646
 30
0.0
 11
0.7320594510000002
 21
-0.0000228880000002
 31
0.0
  0
LINE
  5
4F
330
1D
100
AcDbEntity
  8
SK3
  6
DASH
370
    35
100
AcDbLine
 10
-1.000011472
 20
2.999977112
 30
0.0
 11
-12.999990152
 21
2.999977112
 31
0.0
  0
LINE
  5
50
330
1D
100
AcDbEntity
  8
SK3
  6
DASH
370
    35
100
AcDbLine
 10
-12.999996213
 20
-3.000022888
 30
0.0
 11
-0.999996213
 21
-3.000022888
 31
0.0
  0
LINE
  5
51
330
1D
100
AcDbEntity
  8
3
  6
DASH
370
    35
100
AcDbLine
 10
19.5
 20
7.249992371
 30
0.0
 11
19.5
 21
-9.250007629
 31
0.0
  0
LINE
  5
52
330
1D
100
AcDbEntity
  8
SK1
  6
Continuous
370
    50
100
AcDbLine
 10
-4.489643833
 20
-6.75
 30
0.0
 11
-2.510371372
 21
-6.75
 31
0.0
  0
LINE
  5
53
330
1D
100
AcDbEntity
  8
SK1
  6
Continuous
370
    50
100
AcDbLine
 10
-4.489643833
 20
6.75
 30
0.0
 11
-2.510371372
 21
6.75
 31
0.0
  0
LINE
  5
54
330
1D
100
AcDbEntity
  8
SK1
  6
Continuous
370
    50
100
AcDbLine
 10
-5.41962125
 20
-5.739230347
 30
0.0
 11
-5.009260533
 21
-6.449998474
 31
0.0
  0
LINE
  5
55
330
1D
100
AcDbEntity
  8
SK1
  6
Continuous
370
    50
100
AcDbLine
 10
-1.580390904
 20
-5.739230347
 30
0.0
 11
-1.990754673
 21
-6.449996948
 31
0.0
  0
LINE
  5
56
330
1D
100
AcDbEntity
  8
SK1
  6
Continuous
370
    50
100
AcDbLine
 10
-5.419624302
 20
5.739227295
 30
0.0
 11
-5.009260533
 21
6.45
 31
0.0
  0
LINE
  5
57
330
1D
100
AcDbEntity
  8
SK1
  6
Continuous
370
    50
100
AcDbLine
 10
-1.580393956
 20
5.739230347
 30
0.0
 11
-1.990754673
 21
6.45
 31
0.0
  0
ARC
  5
58
330
1D
100
AcDbEntity
  8
SK1
  6
Continuous
370
    50
100
AcDbCircle
 10
-4.900007603
 20
-5.439230347
 30
0.0
 40
0.599998951
100
AcDbArc
 50
185.811587583
 51
210.00014568
  0
ARC
  5
59
330
1D
100
AcDbEntity
  8
SK1
  6
Continuous
370
    50
100
AcDbCircle
 10
-4.489643833
 20
-6.15
 30
0.0
 40
0.600000469
100
AcDbArc
 50
209.999803672
 51
270.0
  0
ARC
  5
5A
330
1D
100
AcDbEntity
  8
SK1
  6
Continuous
370
    50
100
AcDbCircle
 10
-2.510371372
 20
-6.15
 30
0.0
 40
0.6
100
AcDbArc
 50
270.0
 51
330.000326389
  0
ARC
  5
5B
330
1D
100
AcDbEntity
  8
SK1
  6
Continuous
370
    50
100
AcDbCircle
 10
-2.100007603
 20
-5.439230347
 30
0.0
 40
0.600001256
100
AcDbArc
 50
330.000047439
 51
354.188434817
  0
ARC
  5
5C
330
1D
100
AcDbEntity
  8
SK1
  6
Continuous
370
    50
100
AcDbCircle
 10
-2.100007603
 20
5.439230347
 30
0.0
 40
0.599999936
100
AcDbArc
 50
5.813042642
 51
30.000220782
  0
ARC
  5
5D
330
1D
100
AcDbEntity
  8
SK1
  6
Continuous
370
    50
100
AcDbCircle
 10
-2.510371372
 20
6.15
 30
0.0
 40
0.600001256
100
AcDbArc
 50
29.999947197
 51
90.000004363
  0
ARC
  5
5E
330
1D
100
AcDbEntity
  8
SK1
  6
Continuous
370
    50
100
AcDbCircle
 10
-4.489643833
 20
6.15
 30
0.0
 40
0.6
100
AcDbArc
 50
90.0
 51
150.000063532
  0
ARC
  5
5F
330
1D
100
AcDbEntity
  8
SK1
  6
Continuous
370
    50
100
AcDbCircle
 10
-4.900007603
 20
5.439230347
 30
0.0
 40
0.600001224
100
AcDbArc
 50
150.000063532
 51
174.186969875
  0
LINE
  5
60
330
1D
100
AcDbEntity
  8
SK4
  6
Continuous
370
    50
100
AcDbLine
 10
-3.500007603
 20
7.033330495
 30
0.0
 11
-3.500007603
 21
4.256693055
 31
0.0
  0
LINE
  5
61
330
1D
100
AcDbEntity
  8
SK4
  6
Continuous
370
    50
100
AcDbLine
 10
-3.500007603
 20
-7.033330495
 30
0.0
 11
-3.500007603
 21
-4.256693055
 31
0.0
  0
LINE
  5
62
330
1D
100
AcDbEntity
  8
1
100
AcDbLine
 10
26.38238796
 20
8.984573474
 30
0.0
 11
26.286996837
 21
8.984573474
 31
0.0
  0
LINE
  5
63
330
1D
100
AcDbEntity
  8
1
100
AcDbLine
 10
26.286996837
 20
8.984573474
 30
0.0
 11
26.184000011
 21
9.25000011
 31
0.0
  0
LINE
  5
64
330
1D
100
AcDbEntity
  8
1
100
AcDbLine
 10
26.184000011
 20
9.25000011
 30
0.0
 11
20.699996948
 21
9.25000011
 31
0.0
  0
ARC
  5
65
330
1D
100
AcDbEntity
  8
1
100
AcDbCircle
 10
31.750009532
 20
-4.760734076
 30
0.0
 40
6.0
100
AcDbArc
 50
110.032310475
 51
127.490366937
  0
LINE
  5
66
330
1D
100
AcDbEntity
  8
1
100
AcDbLine
 10
29.694709182
 20
0.876264402
 30
0.0
 11
31.370009532
 21
1.486027559
 31
0.0
  0
LINE
  5
67
330
1D
100
AcDbEntity
  8
1
100
AcDbLine
 10
32.370009532
 20
2.486027559
 30
0.0
 11
32.370009532
 21
3.641945578
 31
0.0
  0
LINE
  5
68
330
1D
100
AcDbEntity
  8
CUT
  6
Continuous
370
    25
100
AcDbLine
 10
32.370009532
 20
3.641945578
 30
0.0
 11
32.346731106
 21
3.649535294
 31
0.0
  0
LINE
  5
69
330
1D
100
AcDbEntity
  8
1
100
AcDbLine
 10
26.150003429
 20
4.998228776
 30
0.0
 11
25.754565171
 21
4.52696729
 31
0.0
  0
ARC
  5
6A
330
1D
100
AcDbEntity
  8
1
100
AcDbCircle
 10
26.621363445
 20
3.070251575
 30
0.0
 40
1.600366844
100
AcDbArc
 50
273.912556739
 51
319.999999315
  0
LINE
  5
6B
330
1D
100
AcDbEntity
  8
1
100
AcDbLine
 10
27.84732246
 20
2.041549793
 30
0.0
 11
28.601525207
 21
2.941337713
 31
0.0
  0
LINE
  5
6C
330
1D
100
AcDbEntity
  8
1
100
AcDbLine
 10
26.184000011
 20
9.25000011
 30
0.0
 11
26.184000011
 21
8.782770336
 31
0.0
  0
LINE
  5
6D
330
1D
100
AcDbEntity
  8
1
100
AcDbLine
 10
26.286996837
 20
8.981178394
 30
0.0
 11
26.286996837
 21
8.922764597
 31
0.0
  0
LINE
  5
6E
330
1D
100
AcDbEntity
  8
1
100
AcDbLine
 10
31.370009532
 20
1.486027559
 30
0.0
 11
32.370009532
 21
2.486027559
 31
0.0
  0
ARC
  5
70
330
1D
100
AcDbEntity
  8
1
100
AcDbCircle
 10
26.549997325
 20
2.985765453
 30
0.0
 40
0.399999623
100
AcDbArc
 50
180.0
 51
279.99987659
  0
ARC
  5
72
330
1D
100
AcDbEntity
  8
1
100
AcDbCircle
 10
32.100008006
 20
3.96438026
 30
0.0
 40
0.399999551
100
AcDbArc
 50
280.000092424
 51
0.0
  0
LINE
  5
73
330
1D
100
AcDbEntity
  8
1
100
AcDbLine
 10
32.500009532
 20
3.96438026
 30
0.0
 11
32.5
 21
9.600000377
 31
0.0
  0
ARC
  5
74
330
1D
100
AcDbEntity
  8
1
100
AcDbCircle
 10
32.100000377
 20
9.600000377
 30
0.0
 40
0.399999623
100
AcDbArc
 50
0.0
 51
99.99987659
  0
LINE
  5
75
330
1D
100
AcDbEntity
  8
1
100
AcDbLine
 10
32.030542369
 20
9.993921275
 30
0.0
 11
26.480538125
 21
9.015308246
 31
0.0
  0
ARC
  5
76
330
1D
100
AcDbEntity
  8
1
100
AcDbCircle
 10
26.549997325
 20
8.62138557
 30
0.0
 40
0.399999569
100
AcDbArc
 50
100.000000558
 51
180.0
  0
CIRCLE
  5
79
330
1D
100
AcDbEntity
  8
1
100
AcDbCircle
 10
29.325006481
 20
6.29288673
 30
0.0
 40
1.600000057
  0
LINE
  5
7A
330
1D
100
AcDbEntity
  8
CUT
  6
Continuous
370
    25
100
AcDbLine
 10
26.38238796
 20
-8.984573474
 30
0.0
 11
26.286996837
 21
-8.984573474
 31
0.0
  0
LINE
  5
7B
330
1D
100
AcDbEntity
  8
CUT
  6
Continuous
370
    25
100
AcDbLine
 10
26.286996837
 20
-8.984573474
 30
0.0
 11
26.184000011
 21
-9.25000011
 31
0.0
  0
LINE
  5
7C
330
1D
100
AcDbEntity
  8
1
100
AcDbLine
 10
26.184000011
 20
-9.25000011
 30
0.0
 11
20.699996948
 21
-9.25000011
 31
0.0
  0
LINE
  5
7D
330
1D
100
AcDbEntity
  8
1
100
AcDbLine
 10
20.699996948
 20
7.25
 30
0.0
 11
25.750009532
 21
7.25
 31
0.0
  0
LINE
  5
7E
330
1D
100
AcDbEntity
  8
1
100
AcDbLine
 10
25.750009532
 20
7.25
 30
0.0
 11
25.750009532
 21
4.760734076
 31
0.0
  0
ARC
  5
7F
330
1D
100
AcDbEntity
  8
1
100
AcDbCircle
 10
31.750009532
 20
4.760734076
 30
0.0
 40
6.0
100
AcDbArc
 50
180.0
 51
249.967689525
  0
LINE
  5
80
330
1D
100
AcDbEntity
  8
1
100
AcDbLine
 10
29.694709182
 20
-0.876264402
 30
0.0
 11
31.370009532
 21
-1.486027559
 31
0.0
  0
LINE
  5
81
330
1D
100
AcDbEntity
  8
1
100
AcDbLine
 10
32.370009532
 20
-2.486027559
 30
0.0
 11
32.370009532
 21
-3.641945578
 31
0.0
  0
LINE
  5
82
330
1D
100
AcDbEntity
  8
CUT
  6
Continuous
370
    25
100
AcDbLine
 10
32.370009532
 20
-3.641945578
 30
0.0
 11
32.346731106
 21
-3.649535294
 31
0.0
  0
LINE
  5
83
330
1D
100
AcDbEntity
  8
1
100
AcDbLine
 10
31.370009532
 20
-1.486027559
 30
0.0
 11
32.370009532
 21
-2.486027559
 31
0.0
  0
ARC
  5
84
330
1D
100
AcDbEntity
  8
CUT
  6
Continuous
370
    25
100
AcDbCircle
 10
32.100008006
 20
-3.96438026
 30
0.0
 40
0.399999551
100
AcDbArc
 50
0.0
 51
51.916557281
  0
LINE
  5
85
330
1D
100
AcDbEntity
  8
CUT
  6
Continuous
370
    25
100
AcDbLine
 10
32.500009532
 20
-3.96438026
 30
0.0
 11
32.5
 21
-9.600000377
 31
0.0
  0
ARC
  5
86
330
1D
100
AcDbEntity
  8
CUT
  6
Continuous
370
    25
100
AcDbCircle
 10
32.100000377
 20
-9.600000377
 30
0.0
 40
0.399999623
100
AcDbArc
 50
260.00012341
 51
0.0
  0
LINE
  5
87
330
1D
100
AcDbEntity
  8
CUT
  6
Continuous
370
    25
100
AcDbLine
 10
32.030542369
 20
-9.993921275
 30
0.0
 11
26.480538125
 21
-9.015308246
 31
0.0
  0
LINE
  5
88
330
1D
100
AcDbEntity
  8
1
100
AcDbLine
 10
32.16500854
 20
-9.077880969
 30
0.0
 11
32.16500854
 21
-3.708786121
 31
0.0
  0
ARC
  5
89
330
1D
100
AcDbEntity
  8
1
100
AcDbCircle
 10
31.765008922
 20
-9.077880969
 30
0.0
 40
0.399999623
100
AcDbArc
 50
259.999906719
 51
0.0
  0
LINE
  5
8A
330
1D
100
AcDbEntity
  8
1
100
AcDbLine
 10
29.000863096
 20
-8.996660258
 30
0.0
 11
31.695550914
 21
-9.471805683
 31
0.0
  0
LINE
  5
8B
330
1D
100
AcDbEntity
  8
1
100
AcDbLine
 10
32.16500854
 20
-3.708786121
 30
0.0
 11
32.346729446
 21
-3.649538243
 31
0.0
  0
LINE
  5
8C
330
1D
100
AcDbEntity
  8
1
100
AcDbLine
 10
29.000863096
 20
-8.996660258
 30
0.0
 11
26.411546743
 21
-8.996660258
 31
0.0
  0
LINE
  5
8D
330
1D
100
AcDbEntity
  8
2
  6
Continuous
370
    25
100
AcDbLine
 10
0.0
 20
16.0
 30
0.0
 11
0.0
 21
8.999992371
 31
0.0
  0
LINE
  5
8E
330
1D
100
AcDbEntity
  8
2
  6
Continuous
370
    25
100
AcDbLine
 10
0.0
 20
14.0
 30
0.0
 11
3.499999998
 21
14.450000015
 31
0.0
  0
LINE
  5
8F
330
1D
100
AcDbEntity
  8
2
  6
Continuous
370
    25
100
AcDbLine
 10
3.499999998
 20
14.450000015
 30
0.0
 11
3.500000002
 21
13.550000015
 31
0.0
  0
LINE
  5
90
330
1D
100
AcDbEntity
  8
2
  6
Continuous
370
    25
100
AcDbLine
 10
3.500000002
 20
13.550000015
 30
0.0
 11
0.0
 21
14.0
 31
0.0
  0
LINE
  5
91
330
1D
100
AcDbEntity
  8
2
  6
Continuous
370
    25
100
AcDbLine
 10
32.500001015
 20
16.000000135
 30
0.0
 11
32.500001015
 21
9.000047342
 31
0.0
  0
LINE
  5
92
330
1D
100
AcDbEntity
  8
2
  6
Continuous
370
    25
100
AcDbLine
 10
32.500001015
 20
14.000000135
 30
0.0
 11
29.000001017
 21
13.550000121
 31
0.0
  0
LINE
  5
93
330
1D
100
AcDbEntity
  8
2
  6
Continuous
370
    25
100
AcDbLine
 10
29.000001017
 20
13.550000121
 30
0.0
 11
29.000001013
 21
14.450000121
 31
0.0
  0
LINE
  5
94
330
1D
100
AcDbEntity
  8
2
  6
Continuous
370
    25
100
AcDbLine
 10
29.000001013
 20
14.450000121
 30
0.0
 11
32.500001015
 21
14.000000135
 31
0.0
  0
LINE
  5
95
330
1D
100
AcDbEntity
  8
2
  6
Continuous
370
    25
100
AcDbLine
 10
3.5
 20
14.000000015
 30
0.0
 11
29.000001015
 21
14.000000121
 31
0.0
  0
TEXT
  5
96
330
1D
100
AcDbEntity
  8
2
  6
Continuous
370
    25
100
AcDbText
 10
13.272812638
 20
15.500000055
 30
0.0
 40
3.5
  1
32.5
 50
0.000000238
  7
BMG_Text
100
AcDbText
  0
LINE
  5
A3
330
1D
100
AcDbEntity
  8
SK2
100
AcDbLine
 10
-20.0
 20
-5.5
 30
0.0
 11
-10.75
 21
-5.5
 31
0.0
  0
LINE
  5
A4
330
1D
100
AcDbEntity
  8
SK2
100
AcDbLine
 10
-18.0
 20
-5.5
 30
0.0
 11
-18.45
 21
-2.0
 31
0.0
  0
LINE
  5
A5
330
1D
100
AcDbEntity
  8
SK2
100
AcDbLine
 10
-18.45
 20
-2.0
 30
0.0
 11
-17.55
 21
-2.0
 31
0.0
  0
LINE
  5
A6
330
1D
100
AcDbEntity
  8
SK2
100
AcDbLine
 10
-17.55
 20
-2.0
 30
0.0
 11
-18.0
 21
-5.5
 31
0.0
  0
LINE
  5
A7
330
1D
100
AcDbEntity
  8
SK2
100
AcDbLine
 10
-20.0
 20
5.5
 30
0.0
 11
-10.75
 21
5.5
 31
0.0
  0
LINE
  5
A8
330
1D
100
AcDbEntity
  8
SK2
100
AcDbLine
 10
-18.0
 20
5.5
 30
0.0
 11
-17.55
 21
2.0
 31
0.0
  0
LINE
  5
A9
330
1D
100
AcDbEntity
  8
SK2
100
AcDbLine
 10
-17.55
 20
2.0
 30
0.0
 11
-18.45
 21
2.0
 31
0.0
  0
LINE
  5
AA
330
1D
100
AcDbEntity
  8
SK2
100
AcDbLine
 10
-18.45
 20
2.0
 30
0.0
 11
-18.0
 21
5.5
 31
0.0
  0
LINE
  5
AB
330
1D
100
AcDbEntity
  8
SK2
100
AcDbLine
 10
-18.0
 20
-2.0
 30
0.0
 11
-18.0
 21
2.0
 31
0.0
  0
TEXT
  5
AC
330
1D
100
AcDbEntity
  8
SK2
100
AcDbText
 10
-19.5
 20
-0.397511154452313
 30
0.0
 40
3.5
  1
11
 50
90.0
  7
BMG_Text
100
AcDbText
  0
CIRCLE
  5
AD
330
1D
100
AcDbEntity
  8
SK2
100
AcDbCircle
 10
-20.75
 20
-2.647511154452313
 30
0.0
 40
1.25
  0
LINE
  5
AE
330
1D
100
AcDbEntity
  8
SK2
100
AcDbLine
 10
-19.5
 20
-3.897511154452313
 30
0.0
 11
-22.0
 21
-1.397511154452313
 31
0.0
  0
LINE
  5
AF
330
1D
100
AcDbEntity
  8
2
  6
Continuous
370
    25
100
AcDbLine
 10
0.0
 20
-18.0
 30
0.0
 11
0.0
 21
-9.000007629
 31
0.0
  0
LINE
  5
B0
330
1D
100
AcDbEntity
  8
2
  6
Continuous
370
    25
100
AcDbLine
 10
0.0
 20
-16.0
 30
0.0
 11
3.499999999
 21
-15.549999991
 31
0.0
  0
LINE
  5
B1
330
1D
100
AcDbEntity
  8
2
  6
Continuous
370
    25
100
AcDbLine
 10
3.499999999
 20
-15.549999991
 30
0.0
 11
3.500000001
 21
-16.449999991
 31
0.0
  0
LINE
  5
B2
330
1D
100
AcDbEntity
  8
2
  6
Continuous
370
    25
100
AcDbLine
 10
3.500000001
 20
-16.449999991
 30
0.0
 11
0.0
 21
-16.0
 31
0.0
  0
LINE
  5
B3
330
1D
100
AcDbEntity
  8
2
  6
Continuous
370
    25
100
AcDbLine
 10
20.699996948
 20
-17.99999995
 30
0.0
 11
20.699996948
 21
-8.970138023
 31
0.0
  0
LINE
  5
B4
330
1D
100
AcDbEntity
  8
2
  6
Continuous
370
    25
100
AcDbLine
 10
20.699996948
 20
-15.99999995
 30
0.0
 11
17.199996949
 21
-16.449999958
 31
0.0
  0
LINE
  5
B5
330
1D
100
AcDbEntity
  8
2
  6
Continuous
370
    25
100
AcDbLine
 10
17.199996949
 20
-16.449999958
 30
0.0
 11
17.199996947
 21
-15.549999958
 31
0.0
  0
LINE
  5
B6
330
1D
100
AcDbEntity
  8
2
  6
Continuous
370
    25
100
AcDbLine
 10
17.199996947
 20
-15.549999958
 30
0.0
 11
20.699996948
 21
-15.99999995
 31
0.0
  0
LINE
  5
B7
330
1D
100
AcDbEntity
  8
2
  6
Continuous
370
    25
100
AcDbLine
 10
3.5
 20
-15.999999991
 30
0.0
 11
17.199996948
 21
-15.999999958
 31
0.0
  0
TEXT
  5
B8
330
1D
100
AcDbEntity
  8
2
  6
Continuous
370
    25
100
AcDbText
 10
7.072029489
 20
-14.499999983
 30
0.0
 40
3.5
  1
20.7
 50
0.000000137
  7
BMG_Text
100
AcDbText
  0
LINE
  5
B9
330
1D
100
AcDbEntity
  8
2
  6
Continuous
370
    25
100
AcDbLine
 10
41.999999996
 20
-10.0
 30
0.0
 11
32.100000377
 21
-10.0
 31
0.0
  0
LINE
  5
BA
330
1D
100
AcDbEntity
  8
2
  6
Continuous
370
    25
100
AcDbLine
 10
39.999999996
 20
-10.0
 30
0.0
 11
39.549999996
 21
-6.5
 31
0.0
  0
LINE
  5
BB
330
1D
100
AcDbEntity
  8
2
  6
Continuous
370
    25
100
AcDbLine
 10
39.549999996
 20
-6.5
 30
0.0
 11
40.449999996
 21
-6.5
 31
0.0
  0
LINE
  5
BC
330
1D
100
AcDbEntity
  8
2
  6
Continuous
370
    25
100
AcDbLine
 10
40.449999996
 20
-6.5
 30
0.0
 11
39.999999996
 21
-10.0
 31
0.0
  0
LINE
  5
BD
330
1D
100
AcDbEntity
  8
2
  6
Continuous
370
    25
100
AcDbLine
 10
41.999999996
 20
10.0
 30
0.0
 11
32.100000377
 21
10.0
 31
0.0
  0
LINE
  5
BE
330
1D
100
AcDbEntity
  8
2
  6
Continuous
370
    25
100
AcDbLine
 10
39.999999996
 20
10.0
 30
0.0
 11
40.449999996
 21
6.5
 31
0.0
  0
LINE
  5
BF
330
1D
100
AcDbEntity
  8
2
  6
Continuous
370
    25
100
AcDbLine
 10
40.449999996
 20
6.5
 30
0.0
 11
39.549999996
 21
6.5
 31
0.0
  0
LINE
  5
C0
330
1D
100
AcDbEntity
  8
2
  6
Continuous
370
    25
100
AcDbLine
 10
39.549999996
 20
6.5
 30
0.0
 11
39.999999996
 21
10.0
 31
0.0
  0
LINE
  5
C1
330
1D
100
AcDbEntity
  8
2
  6
Continuous
370
    25
100
AcDbLine
 10
39.999999996
 20
-6.5
 30
0.0
 11
39.999999996
 21
6.5
 31
0.0
  0
CIRCLE
  5
C2
330
1D
100
AcDbEntity
  8
2
  6
Continuous
370
    25
100
AcDbCircle
 10
37.249999996
 20
-8.117837058085984
 30
0.0
 40
1.25
  0
LINE
  5
C3
330
1D
100
AcDbEntity
  8
2
  6
Continuous
370
    25
100
AcDbLine
 10
38.499999996
 20
-9.367837058085984
 30
0.0
 11
35.999999996
 21
-6.867837058085984
 31
0.0
  0
TEXT
  5
C4
330
1D
100
AcDbEntity
  8
2
  6
Continuous
370
    25
100
AcDbText
 10
38.499999996
 20
-5.867837058085984
 30
0.0
 40
3.5
  1
20-26
 50
90.0
  7
BMG_Text
100
AcDbText
  0
TEXT
  5
C5
330
1D
100
AcDbEntity
  8
SK6
100
AcDbText
 10
-45.18941354656128
 20
-27.84990959671478
 30
0.0
 40
3.5
  1
315.101
  7
BMG_Text
100
AcDbText
  0
LINE
  5
165
330
1D
100
AcDbEntity
  8
1
  6
ByBlock
100
AcDbLine
 10
26.150003429
 20
4.998228776
 30
0.0
 11
26.150003429
 21
8.634395077670957
 31
0.0
  0
LINE
  5
16E
330
1D
100
AcDbEntity
  8
1
100
AcDbLine
 10
28.601525207
 20
2.941337713
 30
0.0
 11
32.16946783453652
 21
3.570457713019151
 31
0.0
  0
LINE
  5
16F
330
1D
100
AcDbEntity
  8
1
100
AcDbLine
 10
32.16946783453652
 20
3.570457713019151
 30
0.0
 11
32.370009532
 21
3.570457713019151
 31
0.0
  0
LINE
  5
170
330
1D
100
AcDbEntity
  8
1
100
AcDbLine
 10
32.370009532
 20
3.570457713019151
 30
0.0
 11
32.370009532
 21
9.54196481804623
 31
0.0
  0
LINE
  5
171
330
1D
100
AcDbEntity
  8
1
100
AcDbLine
 10
32.370009532
 20
9.54196481804623
 30
0.0
 11
32.24368968122269
 21
9.77298920829013
 31
0.0
  0
LINE
  5
172
330
1D
100
AcDbEntity
  8
1
100
AcDbLine
 10
32.24368968122269
 20
9.77298920829013
 30
0.0
 11
32.03139699829586
 21
9.847916037558424
 31
0.0
  0
LINE
  5
173
330
1D
100
AcDbEntity
  8
1
100
AcDbLine
 10
32.03139699829586
 20
9.847916037558424
 30
0.0
 11
26.37442138853977
 21
8.8176721351194
 31
0.0
  0
LINE
  5
174
330
1D
100
AcDbEntity
  8
1
100
AcDbLine
 10
26.37442138853977
 20
8.8176721351194
 30
0.0
 11
26.37442138853977
 21
8.980791671417737
 31
0.0
  0
LINE
  5
177
330
1D
100
AcDbEntity
  8
1
100
AcDbLine
 10
26.150003429
 20
8.634395077670957
 30
0.0
 11
26.149997702
 21
2.985765453
 31
0.0
  0
LINE
  5
178
330
1D
100
AcDbEntity
  8
1
100
AcDbLine
 10
26.61945568212681
 20
2.591842573459618
 30
0.0
 11
32.16946783453652
 21
3.570457713019151
 31
0.0
  0
CIRCLE
  5
179
330
1D
100
AcDbEntity
  8
1
100
AcDbCircle
 10
29.325006481
 20
6.29288673
 30
0.0
 40
1.600000056999999
  0
LINE
  5
17C
330
1D
100
AcDbEntity
  8
NOCUT
100
AcDbLine
 10
0.0
 20
-0.0000076290000006
 30
0.0
 11
0.0
 21
8.999992371
 31
0.0
  0
LINE
  5
17D
330
1D
100
AcDbEntity
  8
NOCUT
100
AcDbLine
 10
0.0
 20
8.999992371
 30
0.0
 11
0.25
 21
9.249992371
 31
0.0
  0
LINE
  5
17E
330
1D
100
AcDbEntity
  8
NOCUT
100
AcDbLine
 10
0.25
 20
9.249992371
 30
0.0
 11
1.500075368349065
 21
9.249992371
 31
0.0
  0
LINE
  5
180
330
1D
100
AcDbEntity
  8
NOCUT
100
AcDbLine
 10
1.499992793932856
 20
9.249993041226194
 30
0.0
 11
26.18552527790028
 21
9.249993041226194
 31
0.0
  0
LINE
  5
181
330
1D
100
AcDbEntity
  8
NOCUT
100
AcDbLine
 10
26.18552527790028
 20
9.249993041226194
 30
0.0
 11
26.286996837
 21
8.984573474
 31
0.0
  0
LINE
  5
182
330
1D
100
AcDbEntity
  8
NOCUT
100
AcDbLine
 10
26.286996837
 20
8.984573474
 30
0.0
 11
26.38238796
 21
8.984573474
 31
0.0
  0
LINE
  5
189
330
1D
100
AcDbEntity
  8
NOCUT
100
AcDbLine
 10
32.370009532
 20
3.680391553539061
 30
0.0
 11
32.370009532
 21
2.486027559
 31
0.0
  0
LINE
  5
18A
330
1D
100
AcDbEntity
  8
NOCUT
100
AcDbLine
 10
32.370009532
 20
2.486027559
 30
0.0
 11
31.370009532
 21
1.486027559
 31
0.0
  0
LINE
  5
18B
330
1D
100
AcDbEntity
  8
NOCUT
100
AcDbLine
 10
31.370009532
 20
1.486027559
 30
0.0
 11
30.532359357
 21
1.1811459805
 31
0.0
  0
LINE
  5
18D
330
1D
100
AcDbEntity
  8
NOCUT
100
AcDbLine
 10
30.532359357
 20
1.1811459805
 30
0.0
 11
29.69470950621586
 21
0.8762635117244892
 31
0.0
  0
ARC
  5
18E
330
1D
100
AcDbEntity
  8
NOCUT
100
AcDbCircle
 10
31.75003194805329
 20
-4.76076842826438
 30
0.0
 40
6.000040900038548
100
AcDbArc
 50
110.0323992078105
 51
127.4903371280581
  0
LINE
  5
191
330
1D
100
AcDbEntity
  8
NOCUT
100
AcDbLine
 10
28.09824132220247
 20
-0.0000000000499316
 30
0.0
 11
0.0019747794033051
 21
-0.0000000000499282
 31
0.0
  0
LWPOLYLINE
  5
193
330
1D
100
AcDbEntity
  8
INFTOTAL
100
AcDbPolyline
 90
        4
 70
     1
 43
0.0
 10
62.3971206128956
 20
31.15697603227354
 10
62.3971206128956
 20
-31.66470678287121
 10
-54.90551311820797
 20
-31.66470678287121
 10
-54.90551311820797
 20
31.15697603227354
  0
LINE
  5
196
330
1D
100
AcDbEntity
  8
SK4
100
AcDbLine
 10
0.0
 20
-0.0000076290000006
 30
0.0
 11
-15.04262474008853
 21
-0.0000076289999988
 31
0.0
  0
LINE
  5
197
330
1D
100
AcDbEntity
  8
SK4
100
AcDbLine
 10
-0.0000000000000036
 20
2.766161653704036
 30
0.0
 11
-7.600002317
 21
0.0
 31
0.0
  0
LINE
  5
198
330
1D
100
AcDbEntity
  8
SK4
100
AcDbLine
 10
-7.600002317
 20
0.0
 30
0.0
 11
0.0
 21
-2.766172179020027
 31
0.0
  0
LINE
  5
1A1
330
1D
100
AcDbEntity
  8
NOCUT
100
AcDbLine
 10
26.37442138853977
 20
8.980791671417737
 30
0.0
 11
26.37442138853977
 21
8.8176721351194
 31
0.0
  0
LINE
  5
1A2
330
1D
100
AcDbEntity
  8
NOCUT
100
AcDbLine
 10
26.37442138853977
 20
8.8176721351194
 30
0.0
 11
32.03139699829586
 21
9.847916037558424
 31
0.0
  0
LINE
  5
1A3
330
1D
100
AcDbEntity
  8
NOCUT
100
AcDbLine
 10
32.03139699829586
 20
9.847916037558424
 30
0.0
 11
32.24368968122269
 21
9.77298920829013
 31
0.0
  0
LINE
  5
1A4
330
1D
100
AcDbEntity
  8
NOCUT
100
AcDbLine
 10
32.24368968122269
 20
9.77298920829013
 30
0.0
 11
32.370009532
 21
9.54196481804623
 31
0.0
  0
LINE
  5
1A5
330
1D
100
AcDbEntity
  8
NOCUT
100
AcDbLine
 10
32.370009532
 20
9.54196481804623
 30
0.0
 11
32.370009532
 21
3.680391553539061
 31
0.0
  0
LINE
  5
1FB
330
1D
100
AcDbEntity
  8
SK3
100
AcDbLine
 10
-3.012233762
 20
2.999977112
 30
0.0
 11
0.0000000000000036
 21
4.096342245923852
 31
0.0
  0
LINE
  5
1FC
330
1D
100
AcDbEntity
  8
SK3
100
AcDbLine
 10
-1.000011472
 20
2.999977112
 30
0.0
 11
-0.0000000000000001
 21
1.267937720106646
 31
0.0
  0
LINE
  5
1FD
330
1D
100
AcDbEntity
  8
SK3
100
AcDbLine
 10
-0.080135373
 20
1.406745911
 30
0.0
 11
0.0
 21
1.435912788781182
 31
0.0
  0
LINE
  5
1FE
330
1D
100
AcDbEntity
  8
SK3
100
AcDbLine
 10
-0.0000000000000036
 20
-1.435958564566516
 30
0.0
 11
-0.080140164
 21
-1.406789943
 31
0.0
  0
LINE
  5
1FF
330
1D
100
AcDbEntity
  8
SK3
100
AcDbLine
 10
-0.0000000000000001
 20
-1.267983496106646
 30
0.0
 11
-0.999996213
 21
-3.000022888
 31
0.0
  0
LINE
  5
200
330
1D
100
AcDbEntity
  8
SK3
100
AcDbLine
 10
0.0
 20
-4.096388021923851
 30
0.0
 11
-3.012233762
 21
-3.000022888
 31
0.0
  0
LINE
  5
280
330
1D
100
AcDbEntity
  8
SK4
100
AcDbLine
 10
0.0000000000000009
 20
-2.766172179020039
 30
0.0
 11
19.717060061
 21
-9.94258880600001
 31
0.0
  0
LINE
  5
281
330
1D
100
AcDbEntity
  8
SK4
100
AcDbLine
 10
19.407077761
 20
9.82972717299998
 30
0.0
 11
-0.0000000000000036
 21
2.766161653704032
 31
0.0
  0
LINE
  5
282
330
1D
100
AcDbEntity
  8
SK4
100
AcDbLine
 10
0.0
 20
0.0000152589999942
 30
0.0
 11
35.352561147
 21
0.0000152589999942
 31
0.0
  0
HATCH
  5
2C2
330
1D
100
AcDbEntity
  8
7
100
AcDbHatch
 10
0.0
 20
0.0
 30
0.0
210
0.0
220
0.0
230
1.0
  2
ANSI31
 70
     0
 71
     0
 91
        2
 92
        7
 72
     1
 73
     1
 93
       10
 10
32.50000805075
 20
3.96438026
 42
0.0
 10
32.50000101491707
 20
9.000047341999998
 42
0.0
 10
32.49999999999942
 20
9.600000715276567
 42
0.4663075660474352
 10
32.03054210715489
 20
9.993922761155288
 42
0.0
 10
26.48053824051307
 20
9.01530826638252
 42
0.3624646513185059
 10
26.1500034179678
 20
8.62351384096444
 42
0.0
 10
26.149997756
 20
8.621385569999998
 42
0.0
 10
26.14999770200027
 20
2.985765723366206
 42
0.4663075834420841
 10
26.61945616764273
 20
2.591842659069022
 42
0.0
 10
32.16946733077754
 20
3.570457624193008
 42
0.3639691794530782
 97
        0
 92
       22
 72
     1
 73
     1
 93
        2
 10
27.725006424
 20
6.29288673
 42
-0.9999999999999998
 10
30.925006538
 20
6.29288673
 42
-0.9999999999999998
 97
        0
 75
     0
 76
     1
 52
0.0
 41
5.0
 77
     0
 78
     1
 53
45.0
 43
0.0
 44
0.0
 45
-0.4419417382415922
 46
0.4419417382415922
 79
     0
 47
0.0
 98
        2
 10
28.84312803336705
 20
7.963600157731465
 10
28.84312803336705
 20
7.963600157731465
1001
ACAD
1010
0.0
1020
0.0
1030
0.0
1001
PE_URL
1000

  0
LINE
  5
315
330
1D
100
AcDbEntity
  8
1
100
AcDbLine
 10
28.601525207
 20
2.941337712999999
 30
0.0
 11
32.16946783453652
 21
3.570457713019152
 31
0.0
  0
ARC
  5
316
330
1D
100
AcDbEntity
  8
CUT
  6
Continuous
370
    25
100
AcDbCircle
 10
26.549997325
 20
2.985765452999999
 30
0.0
 40
0.399999623
100
AcDbArc
 50
180.0
 51
279.9998765899998
  0
LINE
  5
317
330
1D
100
AcDbEntity
  8
CUT
100
AcDbLine
 10
26.150003429
 20
8.634395077670959
 30
0.0
 11
26.149997702
 21
2.985765452999999
 31
0.0
  0
LINE
  5
318
330
1D
100
AcDbEntity
  8
CUT
100
AcDbLine
 10
26.61945568212681
 20
2.591842573459619
 30
0.0
 11
32.16946783453652
 21
3.570457713019152
 31
0.0
  0
LINE
  5
319
330
1D
100
AcDbEntity
  8
CUT
  6
Continuous
370
    25
100
AcDbLine
 10
32.030542369
 20
9.993921274999998
 30
0.0
 11
26.480538125
 21
9.015308246
 31
0.0
  0
ARC
  5
31A
330
1D
100
AcDbEntity
  8
CUT
  6
Continuous
370
    25
100
AcDbCircle
 10
26.549997325
 20
8.621385570000001
 30
0.0
 40
0.399999569
100
AcDbArc
 50
100.0000005580004
 51
180.0
  0
ARC
  5
31B
330
1D
100
AcDbEntity
  8
CUT
  6
Continuous
370
    25
100
AcDbCircle
 10
32.100000377
 20
9.600000377
 30
0.0
 40
0.399999623
100
AcDbArc
 50
0.0
 51
99.99987658999977
  0
LINE
  5
31C
330
1D
100
AcDbEntity
  8
CUT
  6
Continuous
370
    25
100
AcDbLine
 10
32.500009532
 20
3.964380259999999
 30
0.0
 11
32.5
 21
9.600000377
 31
0.0
  0
ARC
  5
31D
330
1D
100
AcDbEntity
  8
CUT
  6
Continuous
370
    25
100
AcDbCircle
 10
32.100008006
 20
3.964380259999999
 30
0.0
 40
0.399999551
100
AcDbArc
 50
280.0000924240001
 51
0.0
  0
ENDSEC
  0
SECTION
  2
OBJECTS
  0
DICTIONARY
  5
C
330
0
100
AcDbDictionary
281
     1
  3
ACAD_DETAILVIEWSTYLE
350
16A
  3
ACAD_GROUP
350
D
  3
ACAD_LAYOUT
350
1A
  3
ACAD_MLINESTYLE
350
17
  3
ACAD_PLOTSETTINGS
350
19
  3
ACAD_PLOTSTYLENAME
350
E
  3
ACAD_SCALELIST
350
CD
  3
ACAD_SECTIONVIEWSTYLE
350
16B
  3
AcDbVariableDictionary
350
110
  3
APPDATA
350
15E
  3
DWGPROPS
350
3FA
  0
DICTIONARY
  5
15F
330
2
100
AcDbDictionary
280
     1
281
     1
  3
ACAD_LAYERSTATES
360
160
  0
DICTIONARY
  5
2B1
330
1D
100
AcDbDictionary
280
     1
281
     1
  3
ACAD_SORTENTS
360
2B2
  0
DICTIONARY
  5
16A
102
{ACAD_REACTORS
330
C
102
}
330
C
100
AcDbDictionary
281
     1
  0
DICTIONARY
  5
D
102
{ACAD_REACTORS
330
C
102
}
330
C
100
AcDbDictionary
281
     1
  0
DICTIONARY
  5
1A
102
{ACAD_REACTORS
330
C
102
}
330
C
100
AcDbDictionary
281
     1
  3
Layout1
350
1C
  3
Model
350
1E
  0
DICTIONARY
  5
17
102
{ACAD_REACTORS
330
C
102
}
330
C
100
AcDbDictionary
281
     1
  3
Standard
350
18
  0
DICTIONARY
  5
19
102
{ACAD_REACTORS
330
C
102
}
330
C
100
AcDbDictionary
281
     1
  0
ACDBDICTIONARYWDFLT
  5
E
102
{ACAD_REACTORS
330
C
102
}
330
C
100
AcDbDictionary
281
     1
  3
Normal
350
F
100
AcDbDictionaryWithDefault
340
F
  0
DICTIONARY
  5
CD
102
{ACAD_REACTORS
330
C
102
}
330
C
100
AcDbDictionary
281
     1
  3
A0
350
CE
  3
A1
350
CF
  3
A2
350
D0
  3
A3
350
D1
  3
A4
350
D2
  3
A5
350
D3
  3
A6
350
D4
  3
A7
350
D5
  3
A8
350
D6
  3
A9
350
D7
  3
B0
350
D8
  3
B1
350
D9
  3
B2
350
DA
  3
B3
350
DB
  3
B4
350
DC
  3
B5
350
DD
  3
B6
350
DE
  3
B7
350
DF
  3
B8
350
E0
  3
B9
350
E1
  3
C0
350
E2
  3
C1
350
E3
  3
C2
350
E4
  3
C3
350
E5
  3
C4
350
E6
  3
C5
350
E7
  3
C6
350
E8
  3
C7
350
E9
  3
C8
350
EA
  3
C9
350
EB
  3
D0
350
EC
  3
D1
350
ED
  3
D2
350
EE
  0
DICTIONARY
  5
16B
102
{ACAD_REACTORS
330
C
102
}
330
C
100
AcDbDictionary
281
     1
  0
DICTIONARY
  5
110
102
{ACAD_REACTORS
330
C
102
}
330
C
100
AcDbDictionary
281
     1
  3
DIMASSOC
350
114
  3
HIDETEXT
350
115
  0
DICTIONARY
  5
15E
102
{ACAD_REACTORS
330
C
102
}
330
C
100
AcDbDictionary
281
     1
  0
XRECORD
  5
3FA
102
{ACAD_REACTORS
330
C
102
}
330
C
100
AcDbXrecord
280
     1
  1
DWGPROPS COOKIE
  2

  3

  4

  6

  7

  8
christoph.stuessi
  9

300
=
301
=
302
=
303
=
304
=
305
=
306
=
307
=
308
=
309
=
 40
0.0
 41
2458327.461052396
 42
2458604.292148206
  1

 90
        0
  0
DICTIONARY
  5
160
102
{ACAD_REACTORS
330
15F
102
}
330
15F
100
AcDbDictionary
281
     1
  0
SORTENTSTABLE
  5
2B2
102
{ACAD_REACTORS
330
2B1
102
}
330
2B1
100
AcDbSortentsTable
330
1D
331
29
  5
2A
331
2A
  5
2D
331
2B
  5
2E
331
2C
  5
2F
331
2D
  5
31
331
2E
  5
32
331
2F
  5
33
331
30
  5
34
331
31
  5
35
331
32
  5
36
331
33
  5
37
331
34
  5
38
331
35
  5
39
331
36
  5
3A
331
37
  5
3B
331
38
  5
3C
331
39
  5
3D
331
3A
  5
3E
331
3B
  5
3F
331
3C
  5
43
331
3D
  5
44
331
3E
  5
45
331
3F
  5
46
331
40
  5
47
331
42
  5
48
331
43
  5
49
331
44
  5
4A
331
45
  5
4B
331
46
  5
4C
331
47
  5
4D
331
48
  5
4E
331
49
  5
4F
331
4A
  5
50
331
4B
  5
51
331
4C
  5
52
331
4D
  5
53
331
4E
  5
54
331
4F
  5
55
331
50
  5
56
331
51
  5
57
331
52
  5
58
331
53
  5
59
331
54
  5
5A
331
55
  5
5B
331
56
  5
5C
331
57
  5
5D
331
58
  5
5E
331
59
  5
5F
331
5A
  5
60
331
5B
  5
61
331
5C
  5
62
331
5D
  5
63
331
5E
  5
64
331
5F
  5
65
331
60
  5
66
331
61
  5
67
331
62
  5
68
331
63
  5
69
331
64
  5
6A
331
65
  5
6B
331
66
  5
6C
331
67
  5
6D
331
68
  5
6E
331
69
  5
70
331
6A
  5
72
331
6B
  5
73
331
6C
  5
74
331
6D
  5
75
331
6E
  5
76
331
70
  5
80
331
72
  5
81
331
73
  5
82
331
74
  5
83
331
75
  5
84
331
76
  5
85
331
79
  5
87
331
7A
  5
88
331
7B
  5
89
331
7C
  5
8A
331
7D
  5
8B
331
7E
  5
8C
331
7F
  5
8D
331
80
  5
8E
331
81
  5
8F
331
82
  5
90
331
83
  5
91
331
84
  5
92
331
85
  5
93
331
86
  5
94
331
87
  5
95
331
88
  5
96
331
89
  5
97
331
8A
  5
98
331
8B
  5
99
331
8C
  5
9A
331
8D
  5
9B
331
8E
  5
9C
331
8F
  5
9D
331
90
  5
9E
331
91
  5
9F
331
92
  5
A0
331
93
  5
A1
331
94
  5
A2
331
95
  5
A3
331
96
  5
A4
331
0
  5
A5
331
0
  5
A6
331
0
  5
A7
331
0
  5
A8
331
0
  5
A9
331
0
  5
AA
331
0
  5
AB
331
0
  5
AC
331
0
  5
AD
331
0
  5
AE
331
0
  5
AF
331
0
  5
B0
331
A3
  5
B1
331
A4
  5
B2
331
A5
  5
B3
331
A6
  5
B4
331
A7
  5
B5
331
A8
  5
B6
331
A9
  5
B7
331
AA
  5
B8
331
AB
  5
B9
331
AC
  5
BA
331
AD
  5
BB
331
AE
  5
BC
331
AF
  5
BD
331
B0
  5
BE
331
B1
  5
BF
331
B2
  5
C0
331
B3
  5
C1
331
B4
  5
C2
331
B5
  5
C3
331
B6
  5
C4
331
B7
  5
C5
331
B8
  5
165
331
B9
  5
16E
331
BA
  5
16F
331
BB
  5
170
331
BC
  5
171
331
BD
  5
172
331
BE
  5
173
331
BF
  5
174
331
C0
  5
177
331
C1
  5
178
331
C2
  5
179
331
C3
  5
17C
331
C4
  5
17D
331
C5
  5
17E
331
165
  5
180
331
16E
  5
181
331
16F
  5
182
331
170
  5
189
331
171
  5
18A
331
172
  5
18B
331
173
  5
18D
331
174
  5
18E
331
177
  5
191
331
178
  5
193
331
179
  5
197
331
17C
  5
198
331
17D
  5
1A1
331
17E
  5
1A2
331
180
  5
1A3
331
181
  5
1A4
331
182
  5
1A5
331
189
  5
1FB
331
18A
  5
1FC
331
18B
  5
1FD
331
18D
  5
1FE
331
18E
  5
1FF
331
191
  5
200
331
193
  5
27F
331
196
  5
280
331
197
  5
281
331
198
  5
282
331
1A1
  5
2AE
331
1A2
  5
2AF
331
1A3
  5
2B0
331
1A4
  5
2B3
331
1A5
  5
2B4
331
1FB
  5
2B5
331
1FC
  5
2B6
331
1FD
  5
2B7
331
1FE
  5
2B8
331
1FF
  5
2B9
331
200
  5
2BA
331
0
  5
2BB
331
280
  5
2BE
331
281
  5
2BF
331
282
  5
2C0
331
0
  5
2C1
331
0
  5
2C2
331
0
  5
40
331
0
  5
29
331
0
  5
2B
331
0
  5
2C
331
0
  5
79
331
0
  5
86
331
0
  5
7A
331
0
  5
42
331
0
  5
7B
331
0
  5
7C
331
0
  5
30
331
0
  5
7D
331
0
  5
196
331
0
  5
7E
331
2C2
  5
7F
  0
LAYOUT
  5
1C
102
{ACAD_REACTORS
330
1A
102
}
330
1A
100
AcDbPlotSettings
  1

  2
none_device
  4

  6

 40
0.0
 41
0.0
 42
0.0
 43
0.0
 44
0.0
 45
0.0
 46
0.0
 47
0.0
 48
0.0
 49
0.0
140
0.0
141
0.0
142
1.0
143
1.0
 70
   688
 72
     0
 73
     0
 74
     5
  7

 75
    16
147
1.0
148
0.0
149
0.0
100
AcDbLayout
  1
Layout1
 70
     1
 71
     1
 10
0.0
 20
0.0
 11
12.0
 21
9.0
 12
0.0
 22
0.0
 32
0.0
 14
1.000000000000000E+20
 24
1.000000000000000E+20
 34
1.000000000000000E+20
 15
-1.000000000000000E+20
 25
-1.000000000000000E+20
 35
-1.000000000000000E+20
146
0.0
 13
0.0
 23
0.0
 33
0.0
 16
1.0
 26
0.0
 36
0.0
 17
0.0
 27
1.0
 37
0.0
 76
     0
330
1B
  0
LAYOUT
  5
1E
102
{ACAD_REACTORS
330
1A
102
}
330
1A
100
AcDbPlotSettings
  1

  2
none_device
  4

  6

 40
0.0
 41
0.0
 42
0.0
 43
0.0
 44
0.0
 45
0.0
 46
0.0
 47
0.0
 48
0.0
 49
0.0
140
0.0
141
0.0
142
1.0
143
1.0
 70
  1712
 72
     0
 73
     0
 74
     0
  7

 75
     0
147
1.0
148
0.0
149
0.0
100
AcDbLayout
  1
Model
 70
     1
 71
     0
 10
0.0
 20
0.0
 11
12.0
 21
9.0
 12
0.0
 22
0.0
 32
0.0
 14
-54.90551311820796
 24
-31.66470678287121
 34
0.0
 15
62.39712061289561
 25
31.15697603227354
 35
0.0
146
0.0
 13
0.0
 23
0.0
 33
0.0
 16
1.0
 26
0.0
 36
0.0
 17
0.0
 27
1.0
 37
0.0
 76
     0
330
1D
331
C6
  0
MLINESTYLE
  5
18
102
{ACAD_REACTORS
330
17
102
}
330
17
100
AcDbMlineStyle
  2
Standard
 70
     0
  3

 62
   256
 51
90.0
 52
90.0
 71
     2
 49
0.5
 62
   256
  6
BYLAYER
 49
-0.5
 62
   256
  6
BYLAYER
  0
ACDBPLACEHOLDER
  5
F
102
{ACAD_REACTORS
330
E
102
}
330
E
  0
SCALE
  5
CE
102
{ACAD_REACTORS
330
CD
102
}
330
CD
100
AcDbScale
 70
     0
300
1:1
140
1.0
141
1.0
290
     1
  0
SCALE
  5
CF
102
{ACAD_REACTORS
330
CD
102
}
330
CD
100
AcDbScale
 70
     0
300
1:2
140
1.0
141
2.0
290
     0
  0
SCALE
  5
D0
102
{ACAD_REACTORS
330
CD
102
}
330
CD
100
AcDbScale
 70
     0
300
1:4
140
1.0
141
4.0
290
     0
  0
SCALE
  5
D1
102
{ACAD_REACTORS
330
CD
102
}
330
CD
100
AcDbScale
 70
     0
300
1:5
140
1.0
141
5.0
290
     0
  0
SCALE
  5
D2
102
{ACAD_REACTORS
330
CD
102
}
330
CD
100
AcDbScale
 70
     0
300
1:8
140
1.0
141
8.0
290
     0
  0
SCALE
  5
D3
102
{ACAD_REACTORS
330
CD
102
}
330
CD
100
AcDbScale
 70
     0
300
1:10
140
1.0
141
10.0
290
     0
  0
SCALE
  5
D4
102
{ACAD_REACTORS
330
CD
102
}
330
CD
100
AcDbScale
 70
     0
300
1:16
140
1.0
141
16.0
290
     0
  0
SCALE
  5
D5
102
{ACAD_REACTORS
330
CD
102
}
330
CD
100
AcDbScale
 70
     0
300
1:20
140
1.0
141
20.0
290
     0
  0
SCALE
  5
D6
102
{ACAD_REACTORS
330
CD
102
}
330
CD
100
AcDbScale
 70
     0
300
1:30
140
1.0
141
30.0
290
     0
  0
SCALE
  5
D7
102
{ACAD_REACTORS
330
CD
102
}
330
CD
100
AcDbScale
 70
     0
300
1:40
140
1.0
141
40.0
290
     0
  0
SCALE
  5
D8
102
{ACAD_REACTORS
330
CD
102
}
330
CD
100
AcDbScale
 70
     0
300
1:50
140
1.0
141
50.0
290
     0
  0
SCALE
  5
D9
102
{ACAD_REACTORS
330
CD
102
}
330
CD
100
AcDbScale
 70
     0
300
1:100
140
1.0
141
100.0
290
     0
  0
SCALE
  5
DA
102
{ACAD_REACTORS
330
CD
102
}
330
CD
100
AcDbScale
 70
     0
300
2:1
140
2.0
141
1.0
290
     0
  0
SCALE
  5
DB
102
{ACAD_REACTORS
330
CD
102
}
330
CD
100
AcDbScale
 70
     0
300
4:1
140
4.0
141
1.0
290
     0
  0
SCALE
  5
DC
102
{ACAD_REACTORS
330
CD
102
}
330
CD
100
AcDbScale
 70
     0
300
8:1
140
8.0
141
1.0
290
     0
  0
SCALE
  5
DD
102
{ACAD_REACTORS
330
CD
102
}
330
CD
100
AcDbScale
 70
     0
300
10:1
140
10.0
141
1.0
290
     0
  0
SCALE
  5
DE
102
{ACAD_REACTORS
330
CD
102
}
330
CD
100
AcDbScale
 70
     0
300
100:1
140
100.0
141
1.0
290
     0
  0
SCALE
  5
DF
102
{ACAD_REACTORS
330
CD
102
}
330
CD
100
AcDbScale
 70
     0
300
1/128" = 1'-0"
140
0.0078125
141
12.0
290
     0
  0
SCALE
  5
E0
102
{ACAD_REACTORS
330
CD
102
}
330
CD
100
AcDbScale
 70
     0
300
1/64" = 1'-0"
140
0.015625
141
12.0
290
     0
  0
SCALE
  5
E1
102
{ACAD_REACTORS
330
CD
102
}
330
CD
100
AcDbScale
 70
     0
300
1/32" = 1'-0"
140
0.03125
141
12.0
290
     0
  0
SCALE
  5
E2
102
{ACAD_REACTORS
330
CD
102
}
330
CD
100
AcDbScale
 70
     0
300
1/16" = 1'-0"
140
0.0625
141
12.0
290
     0
  0
SCALE
  5
E3
102
{ACAD_REACTORS
330
CD
102
}
330
CD
100
AcDbScale
 70
     0
300
3/32" = 1'-0"
140
0.09375
141
12.0
290
     0
  0
SCALE
  5
E4
102
{ACAD_REACTORS
330
CD
102
}
330
CD
100
AcDbScale
 70
     0
300
1/8" = 1'-0"
140
0.125
141
12.0
290
     0
  0
SCALE
  5
E5
102
{ACAD_REACTORS
330
CD
102
}
330
CD
100
AcDbScale
 70
     0
300
3/16" = 1'-0"
140
0.1875
141
12.0
290
     0
  0
SCALE
  5
E6
102
{ACAD_REACTORS
330
CD
102
}
330
CD
100
AcDbScale
 70
     0
300
1/4" = 1'-0"
140
0.25
141
12.0
290
     0
  0
SCALE
  5
E7
102
{ACAD_REACTORS
330
CD
102
}
330
CD
100
AcDbScale
 70
     0
300
3/8" = 1'-0"
140
0.375
141
12.0
290
     0
  0
SCALE
  5
E8
102
{ACAD_REACTORS
330
CD
102
}
330
CD
100
AcDbScale
 70
     0
300
1/2" = 1'-0"
140
0.5
141
12.0
290
     0
  0
SCALE
  5
E9
102
{ACAD_REACTORS
330
CD
102
}
330
CD
100
AcDbScale
 70
     0
300
3/4" = 1'-0"
140
0.75
141
12.0
290
     0
  0
SCALE
  5
EA
102
{ACAD_REACTORS
330
CD
102
}
330
CD
100
AcDbScale
 70
     0
300
1" = 1'-0"
140
1.0
141
12.0
290
     0
  0
SCALE
  5
EB
102
{ACAD_REACTORS
330
CD
102
}
330
CD
100
AcDbScale
 70
     0
300
1-1/2" = 1'-0"
140
1.5
141
12.0
290
     0
  0
SCALE
  5
EC
102
{ACAD_REACTORS
330
CD
102
}
330
CD
100
AcDbScale
 70
     0
300
3" = 1'-0"
140
3.0
141
12.0
290
     0
  0
SCALE
  5
ED
102
{ACAD_REACTORS
330
CD
102
}
330
CD
100
AcDbScale
 70
     0
300
6" = 1'-0"
140
6.0
141
12.0
290
     0
  0
SCALE
  5
EE
102
{ACAD_REACTORS
330
CD
102
}
330
CD
100
AcDbScale
 70
     0
300
1'-0" = 1'-0"
140
12.0
141
12.0
290
     0
  0
DICTIONARYVAR
  5
114
102
{ACAD_REACTORS
330
110
102
}
330
110
100
DictionaryVariables
280
     0
  1
2
  0
DICTIONARYVAR
  5
115
102
{ACAD_REACTORS
330
110
102
}
330
110
100
DictionaryVariables
280
     0
  1
1
  0
ENDSEC
  0
EOF
