  0
SECTION
  2
HEADER
  9
$ACADVER
  1
AC1015
  9
$ACADMAINTVER
 70
     6
  9
$DWGCODEPAGE
  3
ANSI_1252
  9
$INSBASE
 10
0.0
 20
0.0
 30
0.0
  9
$EXTMIN
 10
-128.5152299284671
 20
-102.759651104104
 30
0.0
  9
$EXTMAX
 10
140.0652834888344
 20
113.0328996329073
 30
0.0
  9
$LIMMIN
 10
-113.307358157
 20
-75.174724835
  9
$LIMMAX
 10
141.797930686
 20
86.721469096
  9
$ORTHOMODE
 70
     0
  9
$REGENMODE
 70
     1
  9
$FILLMODE
 70
     1
  9
$QTEXTMODE
 70
     0
  9
$MIRRTEXT
 70
     1
  9
$LTSCALE
 40
1.0
  9
$ATTMODE
 70
     1
  9
$TEXTSIZE
 40
0.2
  9
$TRACEWID
 40
0.05
  9
$TEXTSTYLE
  7
Standard
  9
$CLAYER
  8
1
  9
$CELTYPE
  6
ByLayer
  9
$CECOLOR
 62
   256
  9
$CELTSCALE
 40
1.0
  9
$DISPSILH
 70
     0
  9
$DIMSCALE
 40
1.0
  9
$DIMASZ
 40
0.18
  9
$DIMEXO
 40
0.0625
  9
$DIMDLI
 40
0.38
  9
$DIMRND
 40
0.0
  9
$DIMDLE
 40
0.0
  9
$DIMEXE
 40
0.18
  9
$DIMTP
 40
0.0
  9
$DIMTM
 40
0.0
  9
$DIMTXT
 40
0.18
  9
$DIMCEN
 40
0.09
  9
$DIMTSZ
 40
0.0
  9
$DIMTOL
 70
     0
  9
$DIMLIM
 70
     0
  9
$DIMTIH
 70
     1
  9
$DIMTOH
 70
     1
  9
$DIMSE1
 70
     0
  9
$DIMSE2
 70
     0
  9
$DIMTAD
 70
     0
  9
$DIMZIN
 70
     0
  9
$DIMBLK
  1

  9
$DIMASO
 70
     1
  9
$DIMSHO
 70
     1
  9
$DIMPOST
  1

  9
$DIMAPOST
  1

  9
$DIMALT
 70
     0
  9
$DIMALTD
 70
     2
  9
$DIMALTF
 40
25.4
  9
$DIMLFAC
 40
1.0
  9
$DIMTOFL
 70
     0
  9
$DIMTVP
 40
0.0
  9
$DIMTIX
 70
     0
  9
$DIMSOXD
 70
     0
  9
$DIMSAH
 70
     0
  9
$DIMBLK1
  1

  9
$DIMBLK2
  1

  9
$DIMSTYLE
  2
Standard
  9
$DIMCLRD
 70
     0
  9
$DIMCLRE
 70
     0
  9
$DIMCLRT
 70
     0
  9
$DIMTFAC
 40
1.0
  9
$DIMGAP
 40
0.09
  9
$DIMJUST
 70
     0
  9
$DIMSD1
 70
     0
  9
$DIMSD2
 70
     0
  9
$DIMTOLJ
 70
     1
  9
$DIMTZIN
 70
     0
  9
$DIMALTZ
 70
     0
  9
$DIMALTTZ
 70
     0
  9
$DIMUPT
 70
     0
  9
$DIMDEC
 70
     4
  9
$DIMTDEC
 70
     4
  9
$DIMALTU
 70
     2
  9
$DIMALTTD
 70
     2
  9
$DIMTXSTY
  7
Standard
  9
$DIMAUNIT
 70
     0
  9
$DIMADEC
 70
     0
  9
$DIMALTRND
 40
0.0
  9
$DIMAZIN
 70
     0
  9
$DIMDSEP
 70
    46
  9
$DIMATFIT
 70
     3
  9
$DIMFRAC
 70
     0
  9
$DIMLDRBLK
  1

  9
$DIMLUNIT
 70
     2
  9
$DIMLWD
 70
    -2
  9
$DIMLWE
 70
    -2
  9
$DIMTMOVE
 70
     2
  9
$LUNITS
 70
     2
  9
$LUPREC
 70
     4
  9
$SKETCHINC
 40
0.1
  9
$FILLETRAD
 40
0.5
  9
$AUNITS
 70
     2
  9
$AUPREC
 70
     0
  9
$MENU
  1
.
  9
$ELEVATION
 40
0.0
  9
$PELEVATION
 40
0.0
  9
$THICKNESS
 40
0.0
  9
$LIMCHECK
 70
     0
  9
$CHAMFERA
 40
0.5
  9
$CHAMFERB
 40
0.5
  9
$CHAMFERC
 40
1.0
  9
$CHAMFERD
 40
0.0
  9
$SKPOLY
 70
     0
  9
$TDCREATE
 40
2458327.549316401
  9
$TDUCREATE
 40
2458327.465983067
  9
$TDUPDATE
 40
2458589.591933148
  9
$TDUUPDATE
 40
2458589.508599815
  9
$TDINDWG
 40
0.0070539005
  9
$TDUSRTIMER
 40
0.0000967361
  9
$USRTIMER
 70
     1
  9
$ANGBASE
 50
0.0
  9
$ANGDIR
 70
     0
  9
$PDMODE
 70
     0
  9
$PDSIZE
 40
0.0
  9
$PLINEWID
 40
0.0
  9
$SPLFRAME
 70
     0
  9
$SPLINETYPE
 70
     6
  9
$SPLINESEGS
 70
     8
  9
$HANDSEED
  5
2E8
  9
$SURFTAB1
 70
     6
  9
$SURFTAB2
 70
     6
  9
$SURFTYPE
 70
     6
  9
$SURFU
 70
     6
  9
$SURFV
 70
     6
  9
$UCSBASE
  2

  9
$UCSNAME
  2

  9
$UCSORG
 10
0.0
 20
0.0
 30
0.0
  9
$UCSXDIR
 10
1.0
 20
0.0
 30
0.0
  9
$UCSYDIR
 10
0.0
 20
1.0
 30
0.0
  9
$UCSORTHOREF
  2

  9
$UCSORTHOVIEW
 70
     0
  9
$UCSORGTOP
 10
0.0
 20
0.0
 30
0.0
  9
$UCSORGBOTTOM
 10
0.0
 20
0.0
 30
0.0
  9
$UCSORGLEFT
 10
0.0
 20
0.0
 30
0.0
  9
$UCSORGRIGHT
 10
0.0
 20
0.0
 30
0.0
  9
$UCSORGFRONT
 10
0.0
 20
0.0
 30
0.0
  9
$UCSORGBACK
 10
0.0
 20
0.0
 30
0.0
  9
$PUCSBASE
  2

  9
$PUCSNAME
  2

  9
$PUCSORG
 10
0.0
 20
0.0
 30
0.0
  9
$PUCSXDIR
 10
1.0
 20
0.0
 30
0.0
  9
$PUCSYDIR
 10
0.0
 20
1.0
 30
0.0
  9
$PUCSORTHOREF
  2

  9
$PUCSORTHOVIEW
 70
     0
  9
$PUCSORGTOP
 10
0.0
 20
0.0
 30
0.0
  9
$PUCSORGBOTTOM
 10
0.0
 20
0.0
 30
0.0
  9
$PUCSORGLEFT
 10
0.0
 20
0.0
 30
0.0
  9
$PUCSORGRIGHT
 10
0.0
 20
0.0
 30
0.0
  9
$PUCSORGFRONT
 10
0.0
 20
0.0
 30
0.0
  9
$PUCSORGBACK
 10
0.0
 20
0.0
 30
0.0
  9
$USERI1
 70
     0
  9
$USERI2
 70
     0
  9
$USERI3
 70
     0
  9
$USERI4
 70
     0
  9
$USERI5
 70
     0
  9
$USERR1
 40
0.0
  9
$USERR2
 40
0.0
  9
$USERR3
 40
0.0
  9
$USERR4
 40
0.0
  9
$USERR5
 40
0.0
  9
$WORLDVIEW
 70
     1
  9
$SHADEDGE
 70
     3
  9
$SHADEDIF
 70
    70
  9
$TILEMODE
 70
     1
  9
$MAXACTVP
 70
    64
  9
$PINSBASE
 10
0.0
 20
0.0
 30
0.0
  9
$PLIMCHECK
 70
     0
  9
$PEXTMIN
 10
1.000000000000000E+20
 20
1.000000000000000E+20
 30
1.000000000000000E+20
  9
$PEXTMAX
 10
-1.000000000000000E+20
 20
-1.000000000000000E+20
 30
-1.000000000000000E+20
  9
$PLIMMIN
 10
0.0
 20
0.0
  9
$PLIMMAX
 10
0.0
 20
0.0
  9
$UNITMODE
 70
     0
  9
$VISRETAIN
 70
     1
  9
$PLINEGEN
 70
     0
  9
$PSLTSCALE
 70
     1
  9
$TREEDEPTH
 70
  3020
  9
$CMLSTYLE
  2
Standard
  9
$CMLJUST
 70
     0
  9
$CMLSCALE
 40
1.0
  9
$PROXYGRAPHICS
 70
     1
  9
$MEASUREMENT
 70
     0
  9
$CELWEIGHT
370
    -1
  9
$ENDCAPS
280
     0
  9
$JOINSTYLE
280
     0
  9
$LWDISPLAY
290
     0
  9
$INSUNITS
 70
     0
  9
$HYPERLINKBASE
  1

  9
$STYLESHEET
  1

  9
$XEDIT
290
     1
  9
$CEPSNTYPE
380
     0
  9
$PSTYLEMODE
290
     1
  9
$FINGERPRINTGUID
  2
{ABE08D2F-6230-4C8D-8119-172726A85ABB}
  9
$VERSIONGUID
  2
{FAEB1C32-E019-11D5-929B-00C0DF256EC4}
  9
$EXTNAMES
290
     1
  9
$PSVPSCALE
 40
0.0
  9
$OLESTARTUP
290
     0
  0
ENDSEC
  0
SECTION
  2
CLASSES
  0
CLASS
  1
ACDBDICTIONARYWDFLT
  2
AcDbDictionaryWithDefault
  3
ObjectDBX Classes
 90
        0
280
     0
281
     0
  0
CLASS
  1
SCALE
  2
AcDbScale
  3
ObjectDBX Classes
 90
     1153
280
     0
281
     0
  0
CLASS
  1
VISUALSTYLE
  2
AcDbVisualStyle
  3
ObjectDBX Classes
 90
     4095
280
     0
281
     0
  0
CLASS
  1
MATERIAL
  2
AcDbMaterial
  3
ObjectDBX Classes
 90
     1153
280
     0
281
     0
  0
CLASS
  1
DICTIONARYVAR
  2
AcDbDictionaryVar
  3
ObjectDBX Classes
 90
        0
280
     0
281
     0
  0
CLASS
  1
ACDBPLACEHOLDER
  2
AcDbPlaceHolder
  3
ObjectDBX Classes
 90
        0
280
     0
281
     0
  0
CLASS
  1
LAYOUT
  2
AcDbLayout
  3
ObjectDBX Classes
 90
        0
280
     0
281
     0
  0
CLASS
  1
TABLESTYLE
  2
AcDbTableStyle
  3
ObjectDBX Classes
 90
     4095
280
     0
281
     0
  0
CLASS
  1
MLEADERSTYLE
  2
AcDbMLeaderStyle
  3
ACDB_MLEADERSTYLE_CLASS
 90
     4095
280
     0
281
     0
  0
CLASS
  1
SUN
  2
AcDbSun
  3
SCENEOE
 90
     1153
280
     0
281
     0
  0
CLASS
  1
SORTENTSTABLE
  2
AcDbSortentsTable
  3
ObjectDBX Classes
 90
        0
280
     0
281
     0
  0
CLASS
  1
CELLSTYLEMAP
  2
AcDbCellStyleMap
  3
ObjectDBX Classes
 90
     1152
280
     0
281
     0
  0
ENDSEC
  0
SECTION
  2
TABLES
  0
TABLE
  2
VPORT
  5
8
330
0
100
AcDbSymbolTable
 70
     1
  0
VPORT
  5
179
330
8
100
AcDbSymbolTableRecord
100
AcDbViewportTableRecord
  2
*Active
 70
     0
 10
0.0
 20
0.0
 11
1.0
 21
1.0
 12
-91.70525900258464
 22
-9.403880720849244
 13
0.0
 23
0.0
 14
0.5
 24
0.5
 15
0.5
 25
0.5
 16
0.0
 26
0.0
 36
1.0
 17
0.0
 27
0.0
 37
0.0
 40
536.0008518306404
 41
1.70021645021645
 42
50.0
 43
0.0
 44
0.0
 50
0.0
 51
0.0
 71
    16
 72
   100
 73
     1
 74
     3
 75
     0
 76
     0
 77
     0
 78
     0
281
     0
 65
     1
110
0.0
120
0.0
130
0.0
111
1.0
121
0.0
131
0.0
112
0.0
122
1.0
132
0.0
 79
     0
146
0.0
  0
ENDTAB
  0
TABLE
  2
LTYPE
  5
5
330
0
100
AcDbSymbolTable
 70
     8
  0
LTYPE
  5
14
330
5
100
AcDbSymbolTableRecord
100
AcDbLinetypeTableRecord
  2
ByBlock
 70
     0
  3

 72
    65
 73
     0
 40
0.0
  0
LTYPE
  5
15
330
5
100
AcDbSymbolTableRecord
100
AcDbLinetypeTableRecord
  2
ByLayer
 70
     0
  3

 72
    65
 73
     0
 40
0.0
  0
LTYPE
  5
16
330
5
100
AcDbSymbolTableRecord
100
AcDbLinetypeTableRecord
  2
Continuous
 70
     0
  3
Solid line
 72
    65
 73
     0
 40
0.0
  0
LTYPE
  5
20
330
5
100
AcDbSymbolTableRecord
100
AcDbLinetypeTableRecord
  2
PUNKT
 70
     0
  3
..............
 72
    65
 73
     2
 40
1.5
 49
0.7
 74
     0
 49
-0.8
 74
     0
  0
LTYPE
  5
21
330
5
100
AcDbSymbolTableRecord
100
AcDbLinetypeTableRecord
  2
GESTRICHELT
 70
     0
  3
-- -- -- -- --
 72
    65
 73
     7
 40
2.8
 49
0.9
 74
     0
 49
0.0
 74
     0
 49
0.9
 74
     0
 49
0.0
 74
     0
 49
0.2
 74
     0
 49
0.0
 74
     0
 49
-0.8
 74
     0
  0
LTYPE
  5
22
330
5
100
AcDbSymbolTableRecord
100
AcDbLinetypeTableRecord
  2
STRICHPUNKT
 70
     0
  3
--.--.--.--.--
 72
    65
 73
     4
 40
8.8
 49
5.5
 74
     0
 49
-1.3
 74
     0
 49
0.7
 74
     0
 49
-1.3
 74
     0
  0
LTYPE
  5
25
330
5
100
AcDbSymbolTableRecord
100
AcDbLinetypeTableRecord
  2
PHANTOM
 70
     0
  3
--..--..--..--
 72
    65
 73
     6
 40
14.2
 49
7.0
 74
     0
 49
-1.8
 74
     0
 49
0.9
 74
     0
 49
-1.8
 74
     0
 49
0.9
 74
     0
 49
-1.8
 74
     0
  0
LTYPE
  5
1F1
330
5
100
AcDbSymbolTableRecord
100
AcDbLinetypeTableRecord
  2
DASH
 70
     0
  3
DASH _ _ _ _ _
 72
    65
 73
     2
 40
0.75
 49
0.4
 74
     0
 49
-0.35
 74
     0
  0
LTYPE
  5
1F2
330
5
100
AcDbSymbolTableRecord
100
AcDbLinetypeTableRecord
  2
LONGDASH_DASH
 70
     0
  3
LONGDASH_DASH __ . __ . __
 72
    65
 73
     4
 40
0.85
 49
0.4
 74
     0
 49
-0.2
 74
     0
 49
0.05
 74
     0
 49
-0.2
 74
     0
  0
LTYPE
  5
1F3
330
5
100
AcDbSymbolTableRecord
100
AcDbLinetypeTableRecord
  2
LONGDASH_DASH_DASH
 70
     0
  3
LONGDASH_DASH_DASH __ . . __ . . __
 72
    65
 73
     6
 40
1.1
 49
0.4
 74
     0
 49
-0.2
 74
     0
 49
0.05
 74
     0
 49
-0.2
 74
     0
 49
0.05
 74
     0
 49
-0.2
 74
     0
  0
ENDTAB
  0
TABLE
  2
LAYER
  5
2
102
{ACAD_XDICTIONARY
360
210
102
}
330
0
100
AcDbSymbolTable
 70
    16
  0
LAYER
  5
1BB
330
2
100
AcDbSymbolTableRecord
100
AcDbLayerTableRecord
  2
200
 70
     0
 62
     2
  6
Continuous
370
    50
390
F
  0
LAYER
  5
1F4
330
2
100
AcDbSymbolTableRecord
100
AcDbLayerTableRecord
  2
0
 70
     0
 62
     1
  6
Continuous
370
    -3
390
F
  0
LAYER
  5
1F5
330
2
100
AcDbSymbolTableRecord
100
AcDbLayerTableRecord
  2
1
 70
     0
 62
     4
  6
Continuous
370
    50
390
F
  0
LAYER
  5
1F6
330
2
100
AcDbSymbolTableRecord
100
AcDbLayerTableRecord
  2
2
 70
     0
 62
     7
  6
Continuous
370
    25
390
F
  0
LAYER
  5
1F7
330
2
100
AcDbSymbolTableRecord
100
AcDbLayerTableRecord
  2
3
 70
     0
 62
     1
  6
DASH
370
    35
390
F
  0
LAYER
  5
1F8
330
2
100
AcDbSymbolTableRecord
100
AcDbLayerTableRecord
  2
4
 70
     0
 62
     2
  6
LONGDASH_DASH
370
    25
390
F
  0
LAYER
  5
1F9
330
2
100
AcDbSymbolTableRecord
100
AcDbLayerTableRecord
  2
6
 70
     0
 62
     5
  6
Continuous
370
    -3
390
F
  0
LAYER
  5
1FA
330
2
100
AcDbSymbolTableRecord
100
AcDbLayerTableRecord
  2
CUT
 70
     0
 62
     1
  6
Continuous
370
    25
390
F
  0
LAYER
  5
1FB
330
2
100
AcDbSymbolTableRecord
100
AcDbLayerTableRecord
  2
NOCUT
 70
     0
 62
     7
  6
Continuous
370
    25
390
F
  0
LAYER
  5
1FC
330
2
100
AcDbSymbolTableRecord
100
AcDbLayerTableRecord
  2
SK1
 70
     0
 62
     4
  6
Continuous
370
    50
390
F
  0
LAYER
  5
1FD
330
2
100
AcDbSymbolTableRecord
100
AcDbLayerTableRecord
  2
SK2
 70
     0
 62
     7
  6
Continuous
370
    25
390
F
  0
LAYER
  5
1FE
330
2
100
AcDbSymbolTableRecord
100
AcDbLayerTableRecord
  2
SK3
 70
     0
 62
     1
  6
DASH
370
    35
390
F
  0
LAYER
  5
1FF
330
2
100
AcDbSymbolTableRecord
100
AcDbLayerTableRecord
  2
SK4
 70
     0
 62
     2
  6
LONGDASH_DASH
370
    25
390
F
  0
LAYER
  5
200
330
2
100
AcDbSymbolTableRecord
100
AcDbLayerTableRecord
  2
SK6
 70
     0
 62
     5
  6
Continuous
370
    -3
390
F
  0
LAYER
  5
201
330
2
100
AcDbSymbolTableRecord
100
AcDbLayerTableRecord
  2
INFTOTAL
 70
     0
 62
     9
  6
Continuous
370
    18
390
F
  0
LAYER
  5
2B0
330
2
100
AcDbSymbolTableRecord
100
AcDbLayerTableRecord
  2
7
 70
     0
 62
     5
  6
Continuous
370
    -3
390
F
1001
AcAecLayerStandard
1000

1000

  0
ENDTAB
  0
TABLE
  2
STYLE
  5
3
330
0
100
AcDbSymbolTable
 70
     2
  0
STYLE
  5
11
330
3
100
AcDbSymbolTableRecord
100
AcDbTextStyleTableRecord
  2
Standard
 70
     0
 40
0.0
 41
1.0
 50
0.0
 71
     0
 42
0.2
  3
txt
  4

  0
STYLE
  5
1BA
330
3
100
AcDbSymbolTableRecord
100
AcDbTextStyleTableRecord
  2
BMG_Text
 70
     0
 40
3.5
 41
1.0
 50
0.0
 71
     0
 42
0.2
  3
monos.ttf
  4

1001
ACAD
1000
Monospac821 BT
1071
       49
  0
ENDTAB
  0
TABLE
  2
VIEW
  5
6
330
0
100
AcDbSymbolTable
 70
     0
  0
ENDTAB
  0
TABLE
  2
UCS
  5
7
330
0
100
AcDbSymbolTable
 70
     0
  0
ENDTAB
  0
TABLE
  2
APPID
  5
9
330
0
100
AcDbSymbolTable
 70
     2
  0
APPID
  5
12
330
9
100
AcDbSymbolTableRecord
100
AcDbRegAppTableRecord
  2
ACAD
 70
     0
  0
APPID
  5
2B1
330
9
100
AcDbSymbolTableRecord
100
AcDbRegAppTableRecord
  2
AcAecLayerStandard
 70
     0
  0
ENDTAB
  0
TABLE
  2
DIMSTYLE
  5
A
330
0
100
AcDbSymbolTable
 70
     1
100
AcDbDimStyleTable
  0
DIMSTYLE
105
28
330
A
100
AcDbSymbolTableRecord
100
AcDbDimStyleTableRecord
  2
Standard
 70
     0
178
     0
340
11
  0
ENDTAB
  0
TABLE
  2
BLOCK_RECORD
  5
1
330
0
100
AcDbSymbolTable
 70
     0
  0
BLOCK_RECORD
  5
1D
102
{ACAD_XDICTIONARY
360
2B5
102
}
330
1
100
AcDbSymbolTableRecord
100
AcDbBlockTableRecord
  2
*Model_Space
340
1E
  0
BLOCK_RECORD
  5
1B
330
1
100
AcDbSymbolTableRecord
100
AcDbBlockTableRecord
  2
*Paper_Space
340
1C
  0
ENDTAB
  0
ENDSEC
  0
SECTION
  2
BLOCKS
  0
BLOCK
  5
1A3
330
1D
100
AcDbEntity
  8
0
100
AcDbBlockBegin
  2
*Model_Space
 70
     0
 10
0.0
 20
0.0
 30
0.0
  3
*Model_Space
  1

  0
ENDBLK
  5
1A4
330
1D
100
AcDbEntity
  8
0
100
AcDbBlockEnd
  0
BLOCK
  5
1A1
330
1B
100
AcDbEntity
 67
     1
  8
0
100
AcDbBlockBegin
  2
*Paper_Space
 70
     0
 10
0.0
 20
0.0
 30
0.0
  3
*Paper_Space
  1

  0
ENDBLK
  5
1A2
330
1B
100
AcDbEntity
 67
     1
  8
0
100
AcDbBlockEnd
  0
ENDSEC
  0
SECTION
  2
ENTITIES
  0
LINE
  5
29
330
1D
100
AcDbEntity
  8
1
100
AcDbLine
 10
16.2
 20
-63.0
 30
0.0
 11
14.921052632
 21
-61.5
 31
0.0
  0
LINE
  5
2A
330
1D
100
AcDbEntity
  8
1
100
AcDbLine
 10
46.3033321
 20
-61.5
 30
0.0
 11
45.901408311
 21
-63.0
 31
0.0
  0
LINE
  5
2B
330
1D
100
AcDbEntity
  8
1
100
AcDbLine
 10
16.2
 20
-63.0
 30
0.0
 11
45.901408311
 21
-63.0
 31
0.0
  0
LINE
  5
2C
330
1D
100
AcDbEntity
  8
1
100
AcDbLine
 10
46.42820323
 20
61.5
 30
0.0
 11
46.026279442
 21
63.0
 31
0.0
  0
LINE
  5
2D
330
1D
100
AcDbEntity
  8
1
100
AcDbLine
 10
16.2
 20
63.0
 30
0.0
 11
14.921052632
 21
61.5
 31
0.0
  0
LINE
  5
2E
330
1D
100
AcDbEntity
  8
1
100
AcDbLine
 10
58.503783091
 20
71.005
 30
0.0
 11
52.932119558
 21
71.005
 31
0.0
  0
LINE
  5
2F
330
1D
100
AcDbEntity
  8
1
100
AcDbLine
 10
75.1
 20
71.005
 30
0.0
 11
69.493282295
 21
71.005
 31
0.0
  0
ARC
  5
30
330
1D
100
AcDbEntity
  8
1
100
AcDbCircle
 10
52.886944778
 20
70.126293261
 30
0.0
 40
0.873976152
100
AcDbArc
 50
86.974829349
 51
181.635437602
  0
LINE
  5
31
330
1D
100
AcDbEntity
  8
1
100
AcDbLine
 10
52.0
 20
70.10135318
 30
0.0
 11
52.0
 21
62.505
 31
0.0
  0
LINE
  5
32
330
1D
100
AcDbEntity
  8
1
100
AcDbLine
 10
68.245289062
 20
70.798120721
 30
0.0
 11
67.1
 21
71.105
 31
0.0
  0
LINE
  5
33
330
1D
100
AcDbEntity
  8
1
100
AcDbLine
 10
60.9
 20
71.105
 30
0.0
 11
59.75290739
 21
70.797637462
 31
0.0
  0
LINE
  5
34
330
1D
100
AcDbEntity
  8
1
100
AcDbLine
 10
48.087320508
 20
-58.9
 30
0.0
 11
59.246152423
 21
-61.89
 31
0.0
  0
LINE
  5
35
330
1D
100
AcDbEntity
  8
1
100
AcDbLine
 10
68.753847577
 20
-61.89
 30
0.0
 11
79.912679491
 21
-58.9
 31
0.0
  0
LINE
  5
36
330
1D
100
AcDbEntity
  8
1
100
AcDbLine
 10
51.95
 20
62.505
 30
0.0
 11
51.95
 21
56.307626094
 31
0.0
  0
LINE
  5
37
330
1D
100
AcDbEntity
  8
1
100
AcDbLine
 10
76.05
 20
49.850050556
 30
0.0
 11
76.05
 21
62.505
 31
0.0
  0
LINE
  5
38
330
1D
100
AcDbEntity
  8
1
100
AcDbLine
 10
14.921052632
 20
61.5
 30
0.0
 11
0.0
 21
44.0
 31
0.0
  0
LINE
  5
39
330
1D
100
AcDbEntity
  8
1
100
AcDbLine
 10
0.0
 20
-44.0
 30
0.0
 11
14.921052632
 21
-61.5
 31
0.0
  0
LINE
  5
3A
330
1D
100
AcDbEntity
  8
1
100
AcDbLine
 10
82.680384758
 20
-58.9
 30
0.0
 11
83.2
 21
-58.0
 31
0.0
  0
ARC
  5
3B
330
1D
100
AcDbEntity
  8
4
100
AcDbCircle
 10
-0.25
 20
-22.9
 30
0.0
 40
0.5
100
AcDbArc
 50
60.0
 51
105.0
  0
ARC
  5
3C
330
1D
100
AcDbEntity
  8
4
100
AcDbCircle
 10
-0.25
 20
22.9
 30
0.0
 40
0.5
100
AcDbArc
 50
255.0
 51
300.0
  0
LINE
  5
3D
330
1D
100
AcDbEntity
  8
SK1
100
AcDbLine
 10
-2.555056733
 20
-23.0
 30
0.0
 11
-0.379409523
 21
-22.417037087
 31
0.0
  0
LINE
  5
3E
330
1D
100
AcDbEntity
  8
SK1
100
AcDbLine
 10
-0.379409523
 20
22.417037087
 30
0.0
 11
-2.555056733
 21
23.0
 31
0.0
  0
LINE
  5
3F
330
1D
100
AcDbEntity
  8
SK1
100
AcDbLine
 10
-44.0
 20
23.0
 30
0.0
 11
-46.605707514
 21
22.633791691
 31
0.0
  0
LINE
  5
40
330
1D
100
AcDbEntity
  8
SK1
100
AcDbLine
 10
-46.605707514
 20
-22.633791691
 30
0.0
 11
-44.0
 21
-23.0
 31
0.0
  0
LINE
  5
41
330
1D
100
AcDbEntity
  8
SK1
100
AcDbLine
 10
-44.0
 20
-23.0
 30
0.0
 11
-2.555056733
 21
-23.0
 31
0.0
  0
LINE
  5
42
330
1D
100
AcDbEntity
  8
SK1
100
AcDbLine
 10
-2.555056733
 20
23.0
 30
0.0
 11
-44.0
 21
23.0
 31
0.0
  0
ARC
  5
43
330
1D
100
AcDbEntity
  8
SK1
100
AcDbCircle
 10
-48.787564435
 20
-21.8
 30
0.0
 40
1.2
100
AcDbArc
 50
210.0
 51
280.0
  0
ARC
  5
44
330
1D
100
AcDbEntity
  8
SK1
100
AcDbCircle
 10
-48.787564435
 20
21.8
 30
0.0
 40
1.2
100
AcDbArc
 50
80.0
 51
150.0
  0
LINE
  5
45
330
1D
100
AcDbEntity
  8
SK1
100
AcDbLine
 10
-48.579186622
 20
-22.981769304
 30
0.0
 11
-46.605707514
 21
-22.633791691
 31
0.0
  0
LINE
  5
46
330
1D
100
AcDbEntity
  8
SK1
100
AcDbLine
 10
-46.605707514
 20
22.633791691
 30
0.0
 11
-48.579186622
 21
22.981769304
 31
0.0
  0
LINE
  5
47
330
1D
100
AcDbEntity
  8
4
100
AcDbLine
 10
-49.826794919
 20
22.4
 30
0.0
 11
-50.0
 21
22.1
 31
0.0
  0
LINE
  5
48
330
1D
100
AcDbEntity
  8
4
100
AcDbLine
 10
-50.0
 20
-22.1
 30
0.0
 11
-49.826794919
 21
-22.4
 31
0.0
  0
ARC
  5
49
330
1D
100
AcDbEntity
  8
1
100
AcDbCircle
 10
64.069932508
 20
100.731143783
 30
0.0
 40
30.243471143
100
AcDbArc
 50
259.3945608000001
 51
269.8675138479999
  0
ARC
  5
4A
330
1D
100
AcDbEntity
  8
1
100
AcDbCircle
 10
63.950421247
 20
100.514017609
 30
0.0
 40
30.026305048
100
AcDbArc
 50
270.094605533
 51
280.637822399
  0
ARC
  5
4B
330
1D
100
AcDbEntity
  8
1
100
AcDbCircle
 10
75.1
 20
70.105
 30
0.0
 40
0.9
100
AcDbArc
 50
0.0
 51
90.0
  0
LINE
  5
4C
330
1D
100
AcDbEntity
  8
1
100
AcDbLine
 10
66.799512926
 20
63.105487074
 30
0.0
 11
67.4
 21
62.505
 31
0.0
  0
LINE
  5
4D
330
1D
100
AcDbEntity
  8
1
100
AcDbLine
 10
66.799512926
 20
63.105487074
 30
0.0
 11
66.548580521
 21
64.605
 31
0.0
  0
LINE
  5
4E
330
1D
100
AcDbEntity
  8
1
100
AcDbLine
 10
66.548580521
 20
64.605
 30
0.0
 11
61.451419479
 21
64.605
 31
0.0
  0
LINE
  5
4F
330
1D
100
AcDbEntity
  8
1
100
AcDbLine
 10
61.451419479
 20
64.605
 30
0.0
 11
61.182523803
 21
62.998142801
 31
0.0
  0
LINE
  5
50
330
1D
100
AcDbEntity
  8
1
100
AcDbLine
 10
60.491163094
 20
62.505
 30
0.0
 11
61.182523803
 21
62.998142801
 31
0.0
  0
LINE
  5
51
330
1D
100
AcDbEntity
  8
1
100
AcDbLine
 10
76.0
 20
62.505
 30
0.0
 11
76.0
 21
70.105
 31
0.0
  0
LINE
  5
53
330
1D
100
AcDbEntity
  8
1
100
AcDbLine
 10
84.555660938
 20
74.413054405
 30
0.0
 11
76.218942984
 21
72.943066099
 31
0.0
  0
ARC
  5
54
330
1D
100
AcDbEntity
  8
1
100
AcDbCircle
 10
78.585193217
 20
70.20621259
 30
0.0
 40
1.6
100
AcDbArc
 50
87.0
 51
266.9999999999999
  0
LINE
  5
55
330
1D
100
AcDbEntity
  8
1
100
AcDbLine
 10
78.501455687
 20
68.608405334
 30
0.0
 11
79.901540806
 21
68.535029982
 31
0.0
  0
LINE
  5
57
330
1D
100
AcDbEntity
  8
1
100
AcDbLine
 10
85.937218587
 20
62.505
 30
0.0
 11
86.046258056
 21
64.585597007
 31
0.0
  0
LINE
  5
58
330
1D
100
AcDbEntity
  8
1
100
AcDbLine
 10
76.218942984
 20
72.943066099
 30
0.0
 11
75.1
 21
71.005
 31
0.0
  0
LINE
  5
59
330
1D
100
AcDbEntity
  8
1
100
AcDbLine
 10
84.555660938
 20
74.413054405
 30
0.0
 11
84.715987907
 21
74.098395011
 31
0.0
  0
LINE
  5
5A
330
1D
100
AcDbEntity
  8
1
100
AcDbLine
 10
80.069015866
 20
71.730644494
 30
0.0
 11
78.668930747
 21
71.804019846
 31
0.0
  0
LINE
  5
5B
330
1D
100
AcDbEntity
  8
1
100
AcDbLine
 10
76.05
 20
62.505
 30
0.0
 11
85.937218587
 21
62.505
 31
0.0
  0
LINE
  5
5D
330
1D
100
AcDbEntity
  8
1
100
AcDbLine
 10
77.798843003
 20
69.900537902
 30
0.0
 11
85.860884194
 21
64.664987136
 31
0.0
  0
ARC
  5
5E
330
1D
100
AcDbEntity
  8
1
100
AcDbCircle
 10
78.016698617
 20
70.236006129
 30
0.0
 40
0.4
100
AcDbArc
 50
117.0
 51
237.0
  0
LINE
  5
5F
330
1D
100
AcDbEntity
  8
1
100
AcDbLine
 10
86.400242979
 20
74.956565834
 30
0.0
 11
77.835102417
 21
70.592408739
 31
0.0
  0
ARC
  5
60
330
1D
100
AcDbEntity
  8
1
100
AcDbCircle
 10
86.581839179
 20
74.600163224
 30
0.0
 40
0.4
100
AcDbArc
 50
356.9999999999999
 51
117.0
  0
LINE
  5
61
330
1D
100
AcDbEntity
  8
1
100
AcDbLine
 10
86.478191622
 20
64.979520981
 30
0.0
 11
86.981290993
 21
74.579228842
 31
0.0
  0
ARC
  5
62
330
1D
100
AcDbEntity
  8
1
100
AcDbCircle
 10
86.078739808
 20
65.000455363
 30
0.0
 40
0.4
100
AcDbArc
 50
237.0
 51
356.9999999999999
  0
LINE
  5
64
330
1D
100
AcDbEntity
  8
1
100
AcDbLine
 10
67.1
 20
71.105
 30
0.0
 11
60.9
 21
71.105
 31
0.0
  0
LINE
  5
65
330
1D
100
AcDbEntity
  8
1
100
AcDbLine
 10
46.555
 20
-2.502813417
 30
0.0
 11
49.441751346
 21
-2.502813417
 31
0.0
  0
LINE
  5
66
330
1D
100
AcDbEntity
  8
1
100
AcDbLine
 10
49.441751346
 20
-2.502813417
 30
0.0
 11
50.888375673
 21
0.002813417
 31
0.0
  0
LINE
  5
67
330
1D
100
AcDbEntity
  8
1
100
AcDbLine
 10
50.888375673
 20
0.002813417
 30
0.0
 11
49.445
 21
2.502813417
 31
0.0
  0
LINE
  5
68
330
1D
100
AcDbEntity
  8
1
100
AcDbLine
 10
49.445
 20
2.502813417
 30
0.0
 11
46.558248654
 21
2.502813417
 31
0.0
  0
LINE
  5
69
330
1D
100
AcDbEntity
  8
1
100
AcDbLine
 10
46.558248654
 20
2.502813417
 30
0.0
 11
45.111624327
 21
-0.002813417
 31
0.0
  0
LINE
  5
6A
330
1D
100
AcDbEntity
  8
1
100
AcDbLine
 10
45.111624327
 20
-0.002813417
 30
0.0
 11
46.555
 21
-2.502813417
 31
0.0
  0
LINE
  5
6B
330
1D
100
AcDbEntity
  8
1
100
AcDbLine
 10
68.753847577
 20
-61.89
 30
0.0
 11
59.246152423
 21
-61.89
 31
0.0
  0
LINE
  5
6C
330
1D
100
AcDbEntity
  8
1
100
AcDbLine
 10
76.05
 20
62.505
 30
0.0
 11
67.4
 21
62.505
 31
0.0
  0
LINE
  5
6D
330
1D
100
AcDbEntity
  8
1
100
AcDbLine
 10
60.491163094
 20
62.505
 30
0.0
 11
51.95
 21
62.505
 31
0.0
  0
LINE
  5
6E
330
1D
100
AcDbEntity
  8
SK1
100
AcDbLine
 10
-24.896312545
 20
-6.936667654
 30
0.0
 11
-26.014981517
 21
-5.797049204
 31
0.0
  0
LINE
  5
6F
330
1D
100
AcDbEntity
  8
SK1
100
AcDbLine
 10
-26.014981517
 20
-5.797049204
 30
0.0
 11
-26.92991681
 21
-4.482478241
 31
0.0
  0
LINE
  5
70
330
1D
100
AcDbEntity
  8
SK1
100
AcDbLine
 10
-26.92991681
 20
-4.482478241
 30
0.0
 11
-27.608204916
 21
-3.011316513
 31
0.0
  0
LINE
  5
71
330
1D
100
AcDbEntity
  8
SK1
100
AcDbLine
 10
-27.608204916
 20
-3.011316513
 30
0.0
 11
-28.017491181
 21
-1.433372105
 31
0.0
  0
LINE
  5
72
330
1D
100
AcDbEntity
  8
SK1
100
AcDbLine
 10
-28.017491181
 20
-1.433372105
 30
0.0
 11
-28.132460798
 21
0.044533703
 31
0.0
  0
LINE
  5
73
330
1D
100
AcDbEntity
  8
SK1
100
AcDbLine
 10
-28.132460798
 20
0.044533703
 30
0.0
 11
-28.002733117
 21
1.521045581
 31
0.0
  0
LINE
  5
74
330
1D
100
AcDbEntity
  8
SK1
100
AcDbLine
 10
-28.002733117
 20
1.521045581
 30
0.0
 11
-27.658292876
 21
2.869522996
 31
0.0
  0
LINE
  5
75
330
1D
100
AcDbEntity
  8
SK1
100
AcDbLine
 10
-27.658292876
 20
2.869522996
 30
0.0
 11
-27.115587468
 21
4.142924762
 31
0.0
  0
LINE
  5
76
330
1D
100
AcDbEntity
  8
SK1
100
AcDbLine
 10
-27.115587468
 20
4.142924762
 30
0.0
 11
-26.352326076
 21
5.366311839
 31
0.0
  0
LINE
  5
77
330
1D
100
AcDbEntity
  8
SK1
100
AcDbLine
 10
-26.352326076
 20
5.366311839
 30
0.0
 11
-25.415433926
 21
6.455145802
 31
0.0
  0
LINE
  5
78
330
1D
100
AcDbEntity
  8
SK1
100
AcDbLine
 10
-25.415433926
 20
6.455145802
 30
0.0
 11
-24.206405779
 21
7.478540009
 31
0.0
  0
LINE
  5
79
330
1D
100
AcDbEntity
  8
SK1
100
AcDbLine
 10
-24.206405779
 20
7.478540009
 30
0.0
 11
-22.845263426
 21
8.299086383
 31
0.0
  0
LINE
  5
7A
330
1D
100
AcDbEntity
  8
SK1
100
AcDbLine
 10
-22.845263426
 20
8.299086383
 30
0.0
 11
-21.264576032
 21
8.928742983
 31
0.0
  0
LINE
  5
7B
330
1D
100
AcDbEntity
  8
SK1
100
AcDbLine
 10
-21.264576032
 20
8.928742983
 30
0.0
 11
-19.591004446
 21
9.294444583
 31
0.0
  0
LINE
  5
7C
330
1D
100
AcDbEntity
  8
SK1
100
AcDbLine
 10
-19.591004446
 20
9.294444583
 30
0.0
 11
-17.92111376
 21
9.381981695
 31
0.0
  0
LINE
  5
7D
330
1D
100
AcDbEntity
  8
SK1
100
AcDbLine
 10
-17.92111376
 20
9.381981695
 30
0.0
 11
-16.25952933
 21
9.206274326
 31
0.0
  0
LINE
  5
7E
330
1D
100
AcDbEntity
  8
SK1
100
AcDbLine
 10
-16.25952933
 20
9.206274326
 30
0.0
 11
-14.706113934
 21
8.787329983
 31
0.0
  0
LINE
  5
7F
330
1D
100
AcDbEntity
  8
SK1
100
AcDbLine
 10
-14.706113934
 20
8.787329983
 30
0.0
 11
-13.245707075
 21
8.138111843
 31
0.0
  0
LINE
  5
80
330
1D
100
AcDbEntity
  8
SK1
100
AcDbLine
 10
-13.245707075
 20
8.138111843
 30
0.0
 11
-11.867544684
 21
7.234362414
 31
0.0
  0
LINE
  5
81
330
1D
100
AcDbEntity
  8
SK1
100
AcDbLine
 10
-11.867544684
 20
7.234362414
 30
0.0
 11
-10.661793731
 21
6.116845304
 31
0.0
  0
LINE
  5
82
330
1D
100
AcDbEntity
  8
SK1
100
AcDbLine
 10
-10.661793731
 20
6.116845304
 30
0.0
 11
-9.644238658
 21
4.770947288
 31
0.0
  0
LINE
  5
83
330
1D
100
AcDbEntity
  8
SK1
100
AcDbLine
 10
-9.644238658
 20
4.770947288
 30
0.0
 11
-8.881594242
 21
3.255227311
 31
0.0
  0
LINE
  5
84
330
1D
100
AcDbEntity
  8
SK1
100
AcDbLine
 10
-8.881594242
 20
3.255227311
 30
0.0
 11
-8.438984416
 21
1.737212441
 31
0.0
  0
LINE
  5
85
330
1D
100
AcDbEntity
  8
SK1
100
AcDbLine
 10
-8.438984416
 20
1.737212441
 30
0.0
 11
-8.267643066
 21
0.158405605
 31
0.0
  0
LINE
  5
86
330
1D
100
AcDbEntity
  8
SK1
100
AcDbLine
 10
-8.267643066
 20
0.158405605
 30
0.0
 11
-8.357973664
 21
-1.267097352
 31
0.0
  0
LINE
  5
87
330
1D
100
AcDbEntity
  8
SK1
100
AcDbLine
 10
-8.357973664
 20
-1.267097352
 30
0.0
 11
-8.671497055
 21
-2.656184506
 31
0.0
  0
LINE
  5
88
330
1D
100
AcDbEntity
  8
SK1
100
AcDbLine
 10
-8.671497055
 20
-2.656184506
 30
0.0
 11
-9.189457222
 21
-3.953552805
 31
0.0
  0
LINE
  5
89
330
1D
100
AcDbEntity
  8
SK1
100
AcDbLine
 10
-9.189457222
 20
-3.953552805
 30
0.0
 11
-9.893146526
 21
-5.151168371
 31
0.0
  0
LINE
  5
8A
330
1D
100
AcDbEntity
  8
SK1
100
AcDbLine
 10
-9.893146526
 20
-5.151168371
 30
0.0
 11
-10.84072245
 21
-6.307672945
 31
0.0
  0
LINE
  5
8B
330
1D
100
AcDbEntity
  8
SK1
100
AcDbLine
 10
-10.84072245
 20
-6.307672945
 30
0.0
 11
-11.954509166
 21
-7.302434221
 31
0.0
  0
LINE
  5
8C
330
1D
100
AcDbEntity
  8
SK1
100
AcDbLine
 10
-11.954509166
 20
-7.302434221
 30
0.0
 11
-13.34117701
 21
-8.188445999
 31
0.0
  0
LINE
  5
8D
330
1D
100
AcDbEntity
  8
SK1
100
AcDbLine
 10
-13.34117701
 20
-8.188445999
 30
0.0
 11
-14.862246368
 21
-8.842056166
 31
0.0
  0
LINE
  5
8E
330
1D
100
AcDbEntity
  8
SK1
100
AcDbLine
 10
-14.862246368
 20
-8.842056166
 30
0.0
 11
-16.519839635
 21
-9.250652718
 31
0.0
  0
LINE
  5
8F
330
1D
100
AcDbEntity
  8
SK1
100
AcDbLine
 10
-16.519839635
 20
-9.250652718
 30
0.0
 11
-18.229419178
 21
-9.386691954
 31
0.0
  0
LINE
  5
90
330
1D
100
AcDbEntity
  8
SK1
100
AcDbLine
 10
-18.229419178
 20
-9.386691954
 30
0.0
 11
-19.860919059
 21
-9.253937611
 31
0.0
  0
LINE
  5
91
330
1D
100
AcDbEntity
  8
SK1
100
AcDbLine
 10
-19.860919059
 20
-9.253937611
 30
0.0
 11
-21.445504148
 21
-8.872617061
 31
0.0
  0
LINE
  5
92
330
1D
100
AcDbEntity
  8
SK1
100
AcDbLine
 10
-21.445504148
 20
-8.872617061
 30
0.0
 11
-22.935724782
 21
-8.252594816
 31
0.0
  0
LINE
  5
93
330
1D
100
AcDbEntity
  8
SK1
100
AcDbLine
 10
-22.935724782
 20
-8.252594816
 30
0.0
 11
-24.301201105
 21
-7.41050391
 31
0.0
  0
LINE
  5
94
330
1D
100
AcDbEntity
  8
SK1
100
AcDbLine
 10
-24.301201105
 20
-7.41050391
 30
0.0
 11
-24.896312545
 21
-6.936667654
 31
0.0
  0
CIRCLE
  5
95
330
1D
100
AcDbEntity
  8
SK1
100
AcDbCircle
 10
-18.2
 20
0.0
 30
0.0
 40
7.75
  0
LINE
  5
96
330
1D
100
AcDbEntity
  8
1
100
AcDbLine
 10
14.96923426
 20
-61.5
 30
0.0
 11
16.2
 21
-61.5
 31
0.0
  0
LINE
  5
97
330
1D
100
AcDbEntity
  8
1
100
AcDbLine
 10
16.2
 20
61.5
 30
0.0
 11
14.969828471
 21
61.5
 31
0.0
  0
LINE
  5
98
330
1D
100
AcDbEntity
  8
1
100
AcDbLine
 10
16.2
 20
54.845236803
 30
0.0
 11
16.2
 21
61.5
 31
0.0
  0
LINE
  5
99
330
1D
100
AcDbEntity
  8
1
100
AcDbLine
 10
16.2
 20
54.845236803
 30
0.0
 11
13.264587313
 21
49.878099102
 31
0.0
  0
LINE
  5
9A
330
1D
100
AcDbEntity
  8
1
100
AcDbLine
 10
13.264587313
 20
49.878099102
 30
0.0
 11
10.51259972
 21
44.814870222
 31
0.0
  0
LINE
  5
9B
330
1D
100
AcDbEntity
  8
1
100
AcDbLine
 10
10.51259972
 20
44.814870222
 30
0.0
 11
7.997620081
 21
39.644387894
 31
0.0
  0
LINE
  5
9C
330
1D
100
AcDbEntity
  8
1
100
AcDbLine
 10
7.997620081
 20
39.644387894
 30
0.0
 11
6.261368916
 21
35.582367114
 31
0.0
  0
LINE
  5
9D
330
1D
100
AcDbEntity
  8
1
100
AcDbLine
 10
6.261368916
 20
35.582367114
 30
0.0
 11
4.737745926
 21
31.435816554
 31
0.0
  0
LINE
  5
9E
330
1D
100
AcDbEntity
  8
1
100
AcDbLine
 10
4.737745926
 20
31.435816554
 30
0.0
 11
3.472350238
 21
27.215197441
 31
0.0
  0
LINE
  5
9F
330
1D
100
AcDbEntity
  8
1
100
AcDbLine
 10
3.472350238
 20
27.215197441
 30
0.0
 11
2.510780977
 21
22.930971006
 31
0.0
  0
LINE
  5
A0
330
1D
100
AcDbEntity
  8
1
100
AcDbLine
 10
2.510780977
 20
22.930971006
 30
0.0
 11
2.022212203
 21
19.744164229
 31
0.0
  0
LINE
  5
A1
330
1D
100
AcDbEntity
  8
1
100
AcDbLine
 10
2.022212203
 20
19.744164229
 30
0.0
 11
1.732685034
 21
16.535482869
 31
0.0
  0
LINE
  5
A2
330
1D
100
AcDbEntity
  8
1
100
AcDbLine
 10
1.732685034
 20
16.535482869
 30
0.0
 11
1.652414766
 21
13.26690602
 31
0.0
  0
LINE
  5
A3
330
1D
100
AcDbEntity
  8
1
100
AcDbLine
 10
1.652414766
 20
13.26690602
 30
0.0
 11
1.788584265
 21
10.0
 31
0.0
  0
ARC
  5
A4
330
1D
100
AcDbEntity
  8
1
100
AcDbCircle
 10
54.743137936
 20
0.0
 30
0.0
 40
53.890488535
100
AcDbArc
 50
169.306129055
 51
190.693870945
  0
LINE
  5
A5
330
1D
100
AcDbEntity
  8
1
100
AcDbLine
 10
1.788584265
 20
-10.0
 30
0.0
 11
1.656339906
 21
-14.384467927
 31
0.0
  0
LINE
  5
A6
330
1D
100
AcDbEntity
  8
1
100
AcDbLine
 10
1.656339906
 20
-14.384467927
 30
0.0
 11
1.911715615
 21
-18.764057655
 31
0.0
  0
LINE
  5
A7
330
1D
100
AcDbEntity
  8
1
100
AcDbLine
 10
1.911715615
 20
-18.764057655
 30
0.0
 11
2.567333197
 21
-23.22935845
 31
0.0
  0
LINE
  5
A8
330
1D
100
AcDbEntity
  8
1
100
AcDbLine
 10
2.567333197
 20
-23.22935845
 30
0.0
 11
3.583177797
 21
-27.633756076
 31
0.0
  0
LINE
  5
A9
330
1D
100
AcDbEntity
  8
1
100
AcDbLine
 10
3.583177797
 20
-27.633756076
 30
0.0
 11
5.048761004
 21
-32.348675199
 31
0.0
  0
LINE
  5
AA
330
1D
100
AcDbEntity
  8
1
100
AcDbLine
 10
5.048761004
 20
-32.348675199
 30
0.0
 11
6.828230266
 21
-36.970661384
 31
0.0
  0
LINE
  5
AB
330
1D
100
AcDbEntity
  8
1
100
AcDbLine
 10
6.828230266
 20
-36.970661384
 30
0.0
 11
8.860850714
 21
-41.493744263
 31
0.0
  0
LINE
  5
AC
330
1D
100
AcDbEntity
  8
1
100
AcDbLine
 10
8.860850714
 20
-41.493744263
 30
0.0
 11
12.355421753
 21
-48.256093148
 31
0.0
  0
LINE
  5
AD
330
1D
100
AcDbEntity
  8
1
100
AcDbLine
 10
12.355421753
 20
-48.256093148
 30
0.0
 11
16.2
 21
-54.845236803
 31
0.0
  0
LINE
  5
AE
330
1D
100
AcDbEntity
  8
1
100
AcDbLine
 10
16.2
 20
-61.5
 30
0.0
 11
16.2
 21
-54.845236803
 31
0.0
  0
LINE
  5
AF
330
1D
100
AcDbEntity
  8
1
100
AcDbLine
 10
0.0
 20
-44.0
 30
0.0
 11
0.0
 21
44.0
 31
0.0
  0
LINE
  5
B0
330
1D
100
AcDbEntity
  8
1
100
AcDbLine
 10
1.788584265
 20
10.0
 30
0.0
 11
15.117096231
 21
10.0
 31
0.0
  0
LINE
  5
B1
330
1D
100
AcDbEntity
  8
1
100
AcDbLine
 10
23.2
 20
54.845236803
 30
0.0
 11
16.2
 21
54.845236803
 31
0.0
  0
LINE
  5
B2
330
1D
100
AcDbEntity
  8
1
100
AcDbLine
 10
23.2
 20
54.845236803
 30
0.0
 11
15.117096231
 21
10.0
 31
0.0
  0
LINE
  5
B3
330
1D
100
AcDbEntity
  8
1
100
AcDbLine
 10
16.2
 20
-54.845236803
 30
0.0
 11
23.2
 21
-54.845236803
 31
0.0
  0
LINE
  5
B4
330
1D
100
AcDbEntity
  8
1
100
AcDbLine
 10
1.788584265
 20
-10.0
 30
0.0
 11
15.117096231
 21
-10.0
 31
0.0
  0
LINE
  5
B5
330
1D
100
AcDbEntity
  8
1
100
AcDbLine
 10
23.2
 20
-54.845236803
 30
0.0
 11
15.117096231
 21
-10.0
 31
0.0
  0
LINE
  5
B6
330
1D
100
AcDbEntity
  8
1
100
AcDbLine
 10
15.117096231
 20
-10.0
 30
0.0
 11
15.117096231
 21
10.0
 31
0.0
  0
LINE
  5
B7
330
1D
100
AcDbEntity
  8
1
100
AcDbLine
 10
23.2
 20
-54.845236803
 30
0.0
 11
23.2
 21
54.845236803
 31
0.0
  0
LINE
  5
B8
330
1D
100
AcDbEntity
  8
1
100
AcDbLine
 10
16.2
 20
61.5
 30
0.0
 11
46.42820323
 21
61.5
 31
0.0
  0
LINE
  5
B9
330
1D
100
AcDbEntity
  8
1
100
AcDbLine
 10
47.5
 20
57.5
 30
0.0
 11
46.42820323
 21
61.5
 31
0.0
  0
LINE
  5
BA
330
1D
100
AcDbEntity
  8
1
100
AcDbLine
 10
56.490118082
 20
55.09110512
 30
0.0
 11
47.5
 21
57.5
 31
0.0
  0
LINE
  5
BB
330
1D
100
AcDbEntity
  8
1
100
AcDbLine
 10
56.490118082
 20
55.09110512
 30
0.0
 11
54.0
 21
54.845236803
 31
0.0
  0
LINE
  5
BC
330
1D
100
AcDbEntity
  8
1
100
AcDbLine
 10
54.0
 20
54.845236803
 30
0.0
 11
23.2
 21
54.845236803
 31
0.0
  0
LINE
  5
BD
330
1D
100
AcDbEntity
  8
1
100
AcDbLine
 10
54.0
 20
-54.845236803
 30
0.0
 11
54.0
 21
54.845236803
 31
0.0
  0
LINE
  5
BE
330
1D
100
AcDbEntity
  8
1
100
AcDbLine
 10
54.0
 20
-54.845236803
 30
0.0
 11
23.2
 21
-54.845236803
 31
0.0
  0
CIRCLE
  5
BF
330
1D
100
AcDbEntity
  8
1
100
AcDbCircle
 10
48.0
 20
0.0
 30
0.0
 40
5.25
  0
LINE
  5
C0
330
1D
100
AcDbEntity
  8
1
100
AcDbLine
 10
79.158548116
 20
-57.125833514
 30
0.0
 11
70.659514235
 21
-56.404763272
 31
0.0
  0
LINE
  5
C1
330
1D
100
AcDbEntity
  8
1
100
AcDbLine
 10
70.659514235
 20
-56.404763272
 30
0.0
 11
62.271383126
 21
-55.644387748
 31
0.0
  0
LINE
  5
C2
330
1D
100
AcDbEntity
  8
1
100
AcDbLine
 10
62.271383126
 20
-55.644387748
 30
0.0
 11
54.0
 21
-54.845236803
 31
0.0
  0
LINE
  5
C3
330
1D
100
AcDbEntity
  8
1
100
AcDbLine
 10
80.88446864
 20
48.554658588
 30
0.0
 11
56.490118082
 21
55.09110512
 31
0.0
  0
ARC
  5
C4
330
1D
100
AcDbEntity
  8
1
100
AcDbCircle
 10
79.303510106
 20
-55.346251296
 30
0.0
 40
1.785476644
100
AcDbArc
 50
265.3430573950001
 51
332.3075183719999
  0
LINE
  5
C5
330
1D
100
AcDbEntity
  8
1
100
AcDbLine
 10
82.680384758
 20
-58.9
 30
0.0
 11
47.0
 21
-58.9
 31
0.0
  0
LINE
  5
C6
330
1D
100
AcDbEntity
  8
1
100
AcDbLine
 10
46.3033321
 20
-61.5
 30
0.0
 11
47.0
 21
-58.9
 31
0.0
  0
LINE
  5
C7
330
1D
100
AcDbEntity
  8
1
100
AcDbLine
 10
46.3033321
 20
-61.5
 30
0.0
 11
16.2
 21
-61.5
 31
0.0
  0
LINE
  5
C8
330
1D
100
AcDbEntity
  8
1
100
AcDbLine
 10
80.890598923
 20
-56.167784814
 30
0.0
 11
80.88446864
 21
-56.176008465
 31
0.0
  0
LINE
  5
C9
330
1D
100
AcDbEntity
  8
1
100
AcDbLine
 10
83.2
 20
-53.02593705
 30
0.0
 11
80.890598923
 21
-56.167784814
 31
0.0
  0
LINE
  5
CA
330
1D
100
AcDbEntity
  8
1
100
AcDbLine
 10
83.2
 20
-53.02593705
 30
0.0
 11
83.2
 21
47.93421383
 31
0.0
  0
LINE
  5
CB
330
1D
100
AcDbEntity
  8
1
100
AcDbLine
 10
83.2
 20
47.93421383
 30
0.0
 11
80.88446864
 21
48.554658588
 31
0.0
  0
LINE
  5
CC
330
1D
100
AcDbEntity
  8
1
100
AcDbLine
 10
83.2
 20
-58.0
 30
0.0
 11
83.2
 21
-53.02593705
 31
0.0
  0
LINE
  5
CD
330
1D
100
AcDbEntity
  8
SK1
100
AcDbLine
 10
-2.555056733
 20
-23.0
 30
0.0
 11
-2.555056733
 21
23.0
 31
0.0
  0
LINE
  5
CE
330
1D
100
AcDbEntity
  8
SK1
100
AcDbLine
 10
-44.0
 20
0.0
 30
0.0
 11
-44.0
 21
23.0
 31
0.0
  0
LINE
  5
CF
330
1D
100
AcDbEntity
  8
SK1
100
AcDbLine
 10
-44.0
 20
-23.0
 30
0.0
 11
-44.0
 21
0.0
 31
0.0
  0
LINE
  5
D0
330
1D
100
AcDbEntity
  8
SK1
100
AcDbLine
 10
-46.605707514
 20
-22.633791691
 30
0.0
 11
-46.605707514
 21
22.633791691
 31
0.0
  0
LINE
  5
D1
330
1D
100
AcDbEntity
  8
SK1
100
AcDbLine
 10
-50.0
 20
-22.1
 30
0.0
 11
-50.0
 21
22.1
 31
0.0
  0
ARC
  5
D2
330
1D
100
AcDbEntity
  8
1
100
AcDbCircle
 10
64.001262874
 20
96.567804795
 30
0.0
 40
27.868242765
100
AcDbArc
 50
246.597021654
 51
293.469292466
  0
LINE
  5
D3
330
1D
100
AcDbEntity
  8
1
100
AcDbLine
 10
76.0
 20
70.105
 30
0.0
 11
75.974816873
 21
70.09596723
 31
0.0
  0
LINE
  5
D4
330
1D
100
AcDbEntity
  8
1
100
AcDbLine
 10
75.974816873
 20
70.09596723
 30
0.0
 11
75.867162712
 21
70.057535517
 31
0.0
  0
LINE
  5
D5
330
1D
100
AcDbEntity
  8
1
100
AcDbLine
 10
75.867162712
 20
70.057535517
 30
0.0
 11
75.672091755
 21
69.988651526
 31
0.0
  0
LINE
  5
D6
330
1D
100
AcDbEntity
  8
1
100
AcDbLine
 10
75.672091755
 20
69.988651526
 30
0.0
 11
75.390092741
 21
69.890803418
 31
0.0
  0
LINE
  5
D7
330
1D
100
AcDbEntity
  8
1
100
AcDbLine
 10
75.390092741
 20
69.890803418
 30
0.0
 11
75.018569119
 21
69.76505061
 31
0.0
  0
LINE
  5
D8
330
1D
100
AcDbEntity
  8
1
100
AcDbLine
 10
75.018569119
 20
69.76505061
 30
0.0
 11
74.578435944
 21
69.620783238
 31
0.0
  0
LINE
  5
D9
330
1D
100
AcDbEntity
  8
1
100
AcDbLine
 10
74.578435944
 20
69.620783238
 30
0.0
 11
74.060314664
 21
69.457598222
 31
0.0
  0
LINE
  5
DA
330
1D
100
AcDbEntity
  8
1
100
AcDbLine
 10
74.060314664
 20
69.457598222
 30
0.0
 11
73.457102143
 21
69.276826474
 31
0.0
  0
LINE
  5
DB
330
1D
100
AcDbEntity
  8
1
100
AcDbLine
 10
73.457102143
 20
69.276826474
 30
0.0
 11
72.778901437
 21
69.085650058
 31
0.0
  0
LINE
  5
DC
330
1D
100
AcDbEntity
  8
1
100
AcDbLine
 10
72.778901437
 20
69.085650058
 30
0.0
 11
72.104087007
 21
68.908361492
 31
0.0
  0
LINE
  5
DD
330
1D
100
AcDbEntity
  8
1
100
AcDbLine
 10
72.104087007
 20
68.908361492
 30
0.0
 11
71.37367278
 21
68.731296661
 31
0.0
  0
LINE
  5
DE
330
1D
100
AcDbEntity
  8
1
100
AcDbLine
 10
71.37367278
 20
68.731296661
 30
0.0
 11
70.587986452
 21
68.558381757
 31
0.0
  0
LINE
  5
DF
330
1D
100
AcDbEntity
  8
1
100
AcDbLine
 10
70.587986452
 20
68.558381757
 30
0.0
 11
69.747015495
 21
68.393840484
 31
0.0
  0
LINE
  5
E0
330
1D
100
AcDbEntity
  8
1
100
AcDbLine
 10
69.747015495
 20
68.393840484
 30
0.0
 11
68.508226486
 21
68.190947861
 31
0.0
  0
LINE
  5
E1
330
1D
100
AcDbEntity
  8
1
100
AcDbLine
 10
68.508226486
 20
68.190947861
 30
0.0
 11
67.186691838
 21
68.027422138
 31
0.0
  0
LINE
  5
E2
330
1D
100
AcDbEntity
  8
1
100
AcDbLine
 10
67.186691838
 20
68.027422138
 30
0.0
 11
66.268302025
 21
67.946489305
 31
0.0
  0
LINE
  5
E3
330
1D
100
AcDbEntity
  8
1
100
AcDbLine
 10
66.268302025
 20
67.946489305
 30
0.0
 11
65.317546856
 21
67.891271144
 31
0.0
  0
LINE
  5
E4
330
1D
100
AcDbEntity
  8
1
100
AcDbLine
 10
65.317546856
 20
67.891271144
 30
0.0
 11
64.34996504
 21
67.865098504
 31
0.0
  0
LINE
  5
E5
330
1D
100
AcDbEntity
  8
1
100
AcDbLine
 10
64.34996504
 20
67.865098504
 30
0.0
 11
63.368582638
 21
67.869580924
 31
0.0
  0
LINE
  5
E6
330
1D
100
AcDbEntity
  8
1
100
AcDbLine
 10
63.368582638
 20
67.869580924
 30
0.0
 11
62.376869112
 21
67.905836922
 31
0.0
  0
LINE
  5
E7
330
1D
100
AcDbEntity
  8
1
100
AcDbLine
 10
62.376869112
 20
67.905836922
 30
0.0
 11
60.621456851
 21
68.047731163
 31
0.0
  0
LINE
  5
E8
330
1D
100
AcDbEntity
  8
1
100
AcDbLine
 10
60.621456851
 20
68.047731163
 30
0.0
 11
58.438686503
 21
68.360408167
 31
0.0
  0
LINE
  5
E9
330
1D
100
AcDbEntity
  8
1
100
AcDbLine
 10
58.438686503
 20
68.360408167
 30
0.0
 11
57.567078957
 21
68.526433689
 31
0.0
  0
LINE
  5
EA
330
1D
100
AcDbEntity
  8
1
100
AcDbLine
 10
57.567078957
 20
68.526433689
 30
0.0
 11
56.736723558
 21
68.705894377
 31
0.0
  0
LINE
  5
EB
330
1D
100
AcDbEntity
  8
1
100
AcDbLine
 10
56.736723558
 20
68.705894377
 30
0.0
 11
55.942614981
 21
68.896575685
 31
0.0
  0
LINE
  5
EC
330
1D
100
AcDbEntity
  8
1
100
AcDbLine
 10
55.942614981
 20
68.896575685
 30
0.0
 11
55.203272995
 21
69.09050926
 31
0.0
  0
LINE
  5
ED
330
1D
100
AcDbEntity
  8
1
100
AcDbLine
 10
55.203272995
 20
69.09050926
 30
0.0
 11
54.598288315
 21
69.260730242
 31
0.0
  0
LINE
  5
EE
330
1D
100
AcDbEntity
  8
1
100
AcDbLine
 10
54.598288315
 20
69.260730242
 30
0.0
 11
53.548828822
 21
69.580030435
 31
0.0
  0
LINE
  5
EF
330
1D
100
AcDbEntity
  8
1
100
AcDbLine
 10
53.548828822
 20
69.580030435
 30
0.0
 11
53.110750784
 21
69.722129103
 31
0.0
  0
LINE
  5
F0
330
1D
100
AcDbEntity
  8
1
100
AcDbLine
 10
53.110750784
 20
69.722129103
 30
0.0
 11
52.754412671
 21
69.841462463
 31
0.0
  0
LINE
  5
F1
330
1D
100
AcDbEntity
  8
1
100
AcDbLine
 10
52.754412671
 20
69.841462463
 30
0.0
 11
52.341647459
 21
69.983836713
 31
0.0
  0
LINE
  5
F2
330
1D
100
AcDbEntity
  8
1
100
AcDbLine
 10
52.341647459
 20
69.983836713
 30
0.0
 11
52.085908058
 21
70.074252575
 31
0.0
  0
LINE
  5
F3
330
1D
100
AcDbEntity
  8
1
100
AcDbLine
 10
52.085908058
 20
70.074252575
 30
0.0
 11
52.008904549
 21
70.101804243
 31
0.0
  0
LINE
  5
F4
330
1D
100
AcDbEntity
  8
1
100
AcDbLine
 10
52.008904549
 20
70.101804243
 30
0.0
 11
52.010139389
 21
70.101361253
 31
0.0
  0
LINE
  5
F5
330
1D
100
AcDbEntity
  8
SK4
100
AcDbLine
 10
80.709132135
 20
69.945541572
 30
0.0
 11
86.409052934
 21
69.945541572
 31
0.0
  0
LINE
  5
F6
330
1D
100
AcDbEntity
  8
SK4
100
AcDbLine
 10
83.559092535
 20
67.095581173
 30
0.0
 11
83.559092535
 21
72.795501972
 31
0.0
  0
ARC
  5
F7
330
1D
100
AcDbEntity
  8
4
100
AcDbCircle
 10
-0.25
 20
-22.9
 30
0.0
 40
0.5
100
AcDbArc
 50
60.0
 51
105.0
  0
ARC
  5
F8
330
1D
100
AcDbEntity
  8
4
100
AcDbCircle
 10
-0.25
 20
22.9
 30
0.0
 40
0.5
100
AcDbArc
 50
255.0
 51
300.0
  0
ARC
  5
F9
330
1D
100
AcDbEntity
  8
SK1
100
AcDbCircle
 10
-48.787564435
 20
-21.8
 30
0.0
 40
1.2
100
AcDbArc
 50
210.0
 51
280.0
  0
ARC
  5
FA
330
1D
100
AcDbEntity
  8
SK1
100
AcDbCircle
 10
-48.787564435
 20
21.8
 30
0.0
 40
1.2
100
AcDbArc
 50
80.0
 51
150.0
  0
LINE
  5
FB
330
1D
100
AcDbEntity
  8
SK1
100
AcDbLine
 10
-44.0
 20
-23.0
 30
0.0
 11
-2.555056733
 21
-23.0
 31
0.0
  0
LINE
  5
FC
330
1D
100
AcDbEntity
  8
SK1
100
AcDbLine
 10
-2.555056733
 20
23.0
 30
0.0
 11
-44.0
 21
23.0
 31
0.0
  0
LINE
  5
FD
330
1D
100
AcDbEntity
  8
SK1
100
AcDbLine
 10
-2.555056733
 20
-23.0
 30
0.0
 11
-0.379409522
 21
-22.417037087
 31
0.0
  0
LINE
  5
FE
330
1D
100
AcDbEntity
  8
SK1
100
AcDbLine
 10
-0.379409522
 20
22.417037087
 30
0.0
 11
-2.555056733
 21
23.0
 31
0.0
  0
LINE
  5
FF
330
1D
100
AcDbEntity
  8
SK1
100
AcDbLine
 10
-44.0
 20
23.0
 30
0.0
 11
-46.605707514
 21
22.633791691
 31
0.0
  0
LINE
  5
100
330
1D
100
AcDbEntity
  8
SK1
100
AcDbLine
 10
-46.605707514
 20
-22.633791691
 30
0.0
 11
-44.0
 21
-23.0
 31
0.0
  0
LINE
  5
101
330
1D
100
AcDbEntity
  8
SK1
100
AcDbLine
 10
-48.579186622
 20
-22.981769304
 30
0.0
 11
-46.605707514
 21
-22.633791691
 31
0.0
  0
LINE
  5
102
330
1D
100
AcDbEntity
  8
SK1
100
AcDbLine
 10
-46.605707514
 20
22.633791691
 30
0.0
 11
-48.579186622
 21
22.981769304
 31
0.0
  0
LINE
  5
103
330
1D
100
AcDbEntity
  8
SK1
100
AcDbLine
 10
-49.826794919
 20
22.4
 30
0.0
 11
-50.0
 21
22.1
 31
0.0
  0
LINE
  5
104
330
1D
100
AcDbEntity
  8
SK1
100
AcDbLine
 10
-50.0
 20
-22.1
 30
0.0
 11
-49.826794919
 21
-22.4
 31
0.0
  0
LINE
  5
105
330
1D
100
AcDbEntity
  8
SK1
100
AcDbLine
 10
-44.0
 20
0.0
 30
0.0
 11
-44.0
 21
23.0
 31
0.0
  0
LINE
  5
106
330
1D
100
AcDbEntity
  8
SK1
100
AcDbLine
 10
-44.0
 20
-23.0
 30
0.0
 11
-44.0
 21
0.0
 31
0.0
  0
LINE
  5
107
330
1D
100
AcDbEntity
  8
SK1
100
AcDbLine
 10
-2.555056733
 20
-23.0
 30
0.0
 11
-2.555056733
 21
23.0
 31
0.0
  0
LINE
  5
108
330
1D
100
AcDbEntity
  8
SK1
100
AcDbLine
 10
-46.605707514
 20
-22.633791691
 30
0.0
 11
-46.605707514
 21
22.633791691
 31
0.0
  0
LINE
  5
109
330
1D
100
AcDbEntity
  8
SK1
100
AcDbLine
 10
-50.0
 20
-22.1
 30
0.0
 11
-50.0
 21
22.1
 31
0.0
  0
LINE
  5
10A
330
1D
100
AcDbEntity
  8
SK1
100
AcDbLine
 10
-24.896312545
 20
-6.936667655
 30
0.0
 11
-26.014981517
 21
-5.797049204
 31
0.0
  0
LINE
  5
10B
330
1D
100
AcDbEntity
  8
SK1
100
AcDbLine
 10
-26.014981517
 20
-5.797049204
 30
0.0
 11
-26.92991681
 21
-4.482478241
 31
0.0
  0
LINE
  5
10C
330
1D
100
AcDbEntity
  8
SK1
100
AcDbLine
 10
-26.92991681
 20
-4.482478241
 30
0.0
 11
-27.608204916
 21
-3.011316513
 31
0.0
  0
LINE
  5
10D
330
1D
100
AcDbEntity
  8
SK1
100
AcDbLine
 10
-27.608204916
 20
-3.011316513
 30
0.0
 11
-28.017491181
 21
-1.433372105
 31
0.0
  0
LINE
  5
10E
330
1D
100
AcDbEntity
  8
SK1
100
AcDbLine
 10
-28.017491181
 20
-1.433372105
 30
0.0
 11
-28.132460798
 21
0.044533703
 31
0.0
  0
LINE
  5
10F
330
1D
100
AcDbEntity
  8
SK1
100
AcDbLine
 10
-28.132460798
 20
0.044533703
 30
0.0
 11
-28.002733117
 21
1.521045581
 31
0.0
  0
LINE
  5
110
330
1D
100
AcDbEntity
  8
SK1
100
AcDbLine
 10
-28.002733117
 20
1.521045581
 30
0.0
 11
-27.658292876
 21
2.869522996
 31
0.0
  0
LINE
  5
111
330
1D
100
AcDbEntity
  8
SK1
100
AcDbLine
 10
-27.658292876
 20
2.869522996
 30
0.0
 11
-27.115587468
 21
4.142924762
 31
0.0
  0
LINE
  5
112
330
1D
100
AcDbEntity
  8
SK1
100
AcDbLine
 10
-27.115587468
 20
4.142924762
 30
0.0
 11
-26.352326076
 21
5.366311839
 31
0.0
  0
LINE
  5
113
330
1D
100
AcDbEntity
  8
SK1
100
AcDbLine
 10
-26.352326076
 20
5.366311839
 30
0.0
 11
-25.415433926
 21
6.455145802
 31
0.0
  0
LINE
  5
114
330
1D
100
AcDbEntity
  8
SK1
100
AcDbLine
 10
-25.415433926
 20
6.455145802
 30
0.0
 11
-24.206405779
 21
7.478540009
 31
0.0
  0
LINE
  5
115
330
1D
100
AcDbEntity
  8
SK1
100
AcDbLine
 10
-24.206405779
 20
7.478540009
 30
0.0
 11
-22.845263426
 21
8.299086383
 31
0.0
  0
LINE
  5
116
330
1D
100
AcDbEntity
  8
SK1
100
AcDbLine
 10
-22.845263426
 20
8.299086383
 30
0.0
 11
-21.264576032
 21
8.928742983
 31
0.0
  0
LINE
  5
117
330
1D
100
AcDbEntity
  8
SK1
100
AcDbLine
 10
-21.264576032
 20
8.928742983
 30
0.0
 11
-19.591004446
 21
9.294444583
 31
0.0
  0
LINE
  5
118
330
1D
100
AcDbEntity
  8
SK1
100
AcDbLine
 10
-19.591004446
 20
9.294444583
 30
0.0
 11
-17.92111376
 21
9.381981695
 31
0.0
  0
LINE
  5
119
330
1D
100
AcDbEntity
  8
SK1
100
AcDbLine
 10
-17.92111376
 20
9.381981695
 30
0.0
 11
-16.259529329
 21
9.206274326
 31
0.0
  0
LINE
  5
11A
330
1D
100
AcDbEntity
  8
SK1
100
AcDbLine
 10
-16.259529329
 20
9.206274326
 30
0.0
 11
-14.706113934
 21
8.787329983
 31
0.0
  0
LINE
  5
11B
330
1D
100
AcDbEntity
  8
SK1
100
AcDbLine
 10
-14.706113934
 20
8.787329983
 30
0.0
 11
-13.245707075
 21
8.138111843
 31
0.0
  0
LINE
  5
11C
330
1D
100
AcDbEntity
  8
SK1
100
AcDbLine
 10
-13.245707075
 20
8.138111843
 30
0.0
 11
-11.867544684
 21
7.234362414
 31
0.0
  0
LINE
  5
11D
330
1D
100
AcDbEntity
  8
SK1
100
AcDbLine
 10
-11.867544684
 20
7.234362414
 30
0.0
 11
-10.661793731
 21
6.116845304
 31
0.0
  0
LINE
  5
11E
330
1D
100
AcDbEntity
  8
SK1
100
AcDbLine
 10
-10.661793731
 20
6.116845304
 30
0.0
 11
-9.644238658
 21
4.770947288
 31
0.0
  0
LINE
  5
11F
330
1D
100
AcDbEntity
  8
SK1
100
AcDbLine
 10
-9.644238658
 20
4.770947288
 30
0.0
 11
-8.881594242
 21
3.255227311
 31
0.0
  0
LINE
  5
120
330
1D
100
AcDbEntity
  8
SK1
100
AcDbLine
 10
-8.881594242
 20
3.255227311
 30
0.0
 11
-8.438984416
 21
1.737212441
 31
0.0
  0
LINE
  5
121
330
1D
100
AcDbEntity
  8
SK1
100
AcDbLine
 10
-8.438984416
 20
1.737212441
 30
0.0
 11
-8.267643066
 21
0.158405605
 31
0.0
  0
LINE
  5
122
330
1D
100
AcDbEntity
  8
SK1
100
AcDbLine
 10
-8.267643066
 20
0.158405605
 30
0.0
 11
-8.357973664
 21
-1.267097352
 31
0.0
  0
LINE
  5
123
330
1D
100
AcDbEntity
  8
SK1
100
AcDbLine
 10
-8.357973664
 20
-1.267097352
 30
0.0
 11
-8.671497055
 21
-2.656184506
 31
0.0
  0
LINE
  5
124
330
1D
100
AcDbEntity
  8
SK1
100
AcDbLine
 10
-8.671497055
 20
-2.656184506
 30
0.0
 11
-9.189457222
 21
-3.953552805
 31
0.0
  0
LINE
  5
125
330
1D
100
AcDbEntity
  8
SK1
100
AcDbLine
 10
-9.189457222
 20
-3.953552805
 30
0.0
 11
-9.893146526
 21
-5.151168371
 31
0.0
  0
LINE
  5
126
330
1D
100
AcDbEntity
  8
SK1
100
AcDbLine
 10
-9.893146526
 20
-5.151168371
 30
0.0
 11
-10.84072245
 21
-6.307672945
 31
0.0
  0
LINE
  5
127
330
1D
100
AcDbEntity
  8
SK1
100
AcDbLine
 10
-10.84072245
 20
-6.307672945
 30
0.0
 11
-11.954509166
 21
-7.302434221
 31
0.0
  0
LINE
  5
128
330
1D
100
AcDbEntity
  8
SK1
100
AcDbLine
 10
-11.954509166
 20
-7.302434221
 30
0.0
 11
-13.34117701
 21
-8.188445999
 31
0.0
  0
LINE
  5
129
330
1D
100
AcDbEntity
  8
SK1
100
AcDbLine
 10
-13.34117701
 20
-8.188445999
 30
0.0
 11
-14.862246368
 21
-8.842056166
 31
0.0
  0
LINE
  5
12A
330
1D
100
AcDbEntity
  8
SK1
100
AcDbLine
 10
-14.862246368
 20
-8.842056166
 30
0.0
 11
-16.519839635
 21
-9.250652718
 31
0.0
  0
LINE
  5
12B
330
1D
100
AcDbEntity
  8
SK1
100
AcDbLine
 10
-16.519839635
 20
-9.250652718
 30
0.0
 11
-18.229419178
 21
-9.386691954
 31
0.0
  0
LINE
  5
12C
330
1D
100
AcDbEntity
  8
SK1
100
AcDbLine
 10
-18.229419178
 20
-9.386691954
 30
0.0
 11
-19.860919059
 21
-9.253937611
 31
0.0
  0
LINE
  5
12D
330
1D
100
AcDbEntity
  8
SK1
100
AcDbLine
 10
-19.860919059
 20
-9.253937611
 30
0.0
 11
-21.445504148
 21
-8.872617061
 31
0.0
  0
LINE
  5
12E
330
1D
100
AcDbEntity
  8
SK1
100
AcDbLine
 10
-21.445504148
 20
-8.872617061
 30
0.0
 11
-22.935724782
 21
-8.252594816
 31
0.0
  0
LINE
  5
12F
330
1D
100
AcDbEntity
  8
SK1
100
AcDbLine
 10
-22.935724782
 20
-8.252594816
 30
0.0
 11
-24.301201105
 21
-7.410503911
 31
0.0
  0
LINE
  5
130
330
1D
100
AcDbEntity
  8
SK1
100
AcDbLine
 10
-24.301201105
 20
-7.410503911
 30
0.0
 11
-24.896312545
 21
-6.936667655
 31
0.0
  0
CIRCLE
  5
131
330
1D
100
AcDbEntity
  8
SK1
100
AcDbCircle
 10
-18.2
 20
0.0
 30
0.0
 40
7.75
  0
LINE
  5
132
330
1D
100
AcDbEntity
  8
SK4
100
AcDbLine
 10
64.0
 20
-63.310940275
 30
0.0
 11
64.0
 21
72.59261726
 31
0.0
  0
LINE
  5
133
330
1D
100
AcDbEntity
  8
3
100
AcDbLine
 10
51.501
 20
-54.25
 30
0.0
 11
51.501
 21
56.427935281
 31
0.0
  0
LINE
  5
134
330
1D
100
AcDbEntity
  8
3
100
AcDbLine
 10
79.0
 20
-54.25
 30
0.0
 11
49.0
 21
-54.25
 31
0.0
  0
LINE
  5
135
330
1D
100
AcDbEntity
  8
3
100
AcDbLine
 10
49.0
 20
-54.25
 30
0.0
 11
49.0
 21
-58.9
 31
0.0
  0
LINE
  5
136
330
1D
100
AcDbEntity
  8
3
100
AcDbLine
 10
79.0
 20
-58.9
 30
0.0
 11
79.0
 21
-54.25
 31
0.0
  0
LINE
  5
137
330
1D
100
AcDbEntity
  8
3
100
AcDbLine
 10
76.501
 20
49.72920547
 30
0.0
 11
76.501
 21
-54.25
 31
0.0
  0
TEXT
  5
138
330
1D
100
AcDbEntity
  8
SK6
100
AcDbText
 10
24.058307018
 20
-59.795518758
 30
0.0
 40
3.5
  1
310.706
  7
BMG_Text
100
AcDbText
  0
LINE
  5
139
330
1D
100
AcDbEntity
  8
SK4
100
AcDbLine
 10
-2.004952342
 20
7.838054939
 30
0.0
 11
60.278199282
 21
55.780842797
 31
0.0
  0
LINE
  5
13A
330
1D
100
AcDbEntity
  8
SK3
100
AcDbLine
 10
-2.0
 20
11.0
 30
0.0
 11
0.0
 21
12.5398342522175
 31
0.0
  0
LINE
  5
13B
330
1D
100
AcDbEntity
  8
3
100
AcDbLine
 10
0.521402799
 20
6.632903355
 30
0.0
 11
61.664792232
 21
53.70455536
 31
0.0
  0
LINE
  5
13C
330
1D
100
AcDbEntity
  8
SK4
100
AcDbLine
 10
-52.773880459
 20
0.0
 30
0.0
 11
85.484804297
 21
0.0
 31
0.0
  0
LINE
  5
13D
330
1D
100
AcDbEntity
  8
SK4
100
AcDbLine
 10
48.0
 20
-6.931158984
 30
0.0
 11
48.0
 21
8.113582031
 31
0.0
  0
LINE
  5
13E
330
1D
100
AcDbEntity
  8
SK3
100
AcDbLine
 10
-2.0
 20
-11.0
 30
0.0
 11
-50.0
 21
-11.0
 31
0.0
  0
LINE
  5
13F
330
1D
100
AcDbEntity
  8
SK3
100
AcDbLine
 10
-2.0
 20
0.0
 30
0.0
 11
-2.0
 21
-11.0
 31
0.0
  0
LINE
  5
140
330
1D
100
AcDbEntity
  8
SK3
100
AcDbLine
 10
-2.0
 20
-11.0
 30
0.0
 11
-0.0000000000000009
 21
-7.535978586049442
 31
0.0
  0
LINE
  5
141
330
1D
100
AcDbEntity
  8
SK3
100
AcDbLine
 10
-2.0
 20
11.0
 30
0.0
 11
0.0
 21
7.535978586049442
 31
0.0
  0
LINE
  5
142
330
1D
100
AcDbEntity
  8
SK3
100
AcDbLine
 10
-2.0
 20
0.0
 30
0.0
 11
-2.0
 21
11.0
 31
0.0
  0
LINE
  5
143
330
1D
100
AcDbEntity
  8
SK3
100
AcDbLine
 10
-2.0
 20
11.0
 30
0.0
 11
-50.0
 21
11.0
 31
0.0
  0
LINE
  5
144
330
1D
100
AcDbEntity
  8
SK4
100
AcDbLine
 10
-18.2
 20
-12.014293895
 30
0.0
 11
-18.2
 21
11.882934178
 31
0.0
  0
LINE
  5
145
330
1D
100
AcDbEntity
  8
SK2
100
AcDbLine
 10
-61.231303215
 20
-23.0
 30
0.0
 11
-44.0
 21
-23.0
 31
0.0
  0
LINE
  5
146
330
1D
100
AcDbEntity
  8
SK2
100
AcDbLine
 10
-59.231303215
 20
-23.0
 30
0.0
 11
-59.681303215
 21
-19.5
 31
0.0
  0
LINE
  5
147
330
1D
100
AcDbEntity
  8
SK2
100
AcDbLine
 10
-59.681303215
 20
-19.5
 30
0.0
 11
-58.781303215
 21
-19.5
 31
0.0
  0
LINE
  5
148
330
1D
100
AcDbEntity
  8
SK2
100
AcDbLine
 10
-58.781303215
 20
-19.5
 30
0.0
 11
-59.231303215
 21
-23.0
 31
0.0
  0
LINE
  5
149
330
1D
100
AcDbEntity
  8
SK2
100
AcDbLine
 10
-61.231303215
 20
23.0
 30
0.0
 11
-44.0
 21
23.0
 31
0.0
  0
LINE
  5
14A
330
1D
100
AcDbEntity
  8
SK2
100
AcDbLine
 10
-59.231303215
 20
23.0
 30
0.0
 11
-58.781303215
 21
19.5
 31
0.0
  0
LINE
  5
14B
330
1D
100
AcDbEntity
  8
SK2
100
AcDbLine
 10
-58.781303215
 20
19.5
 30
0.0
 11
-59.681303215
 21
19.5
 31
0.0
  0
LINE
  5
14C
330
1D
100
AcDbEntity
  8
SK2
100
AcDbLine
 10
-59.681303215
 20
19.5
 30
0.0
 11
-59.231303215
 21
23.0
 31
0.0
  0
LINE
  5
14D
330
1D
100
AcDbEntity
  8
SK2
100
AcDbLine
 10
-59.231303215
 20
-19.5
 30
0.0
 11
-59.231303215
 21
19.5
 31
0.0
  0
TEXT
  5
14E
330
1D
100
AcDbEntity
  8
SK2
100
AcDbText
 10
-60.731303215
 20
0.139999486
 30
0.0
 40
3.5
  1
46
 50
90.0
  7
BMG_Text
100
AcDbText
  0
CIRCLE
  5
14F
330
1D
100
AcDbEntity
  8
SK2
100
AcDbCircle
 10
-61.981303215
 20
-2.110000514
 30
0.0
 40
1.25
  0
LINE
  5
150
330
1D
100
AcDbEntity
  8
SK2
100
AcDbLine
 10
-60.731303215
 20
-3.360000514
 30
0.0
 11
-63.231303215
 21
-0.860000514
 31
0.0
  0
LINE
  5
151
330
1D
100
AcDbEntity
  8
1
100
AcDbLine
 10
16.2
 20
63.0
 30
0.0
 11
46.026279442
 21
63.0
 31
0.0
  0
LINE
  5
152
330
1D
100
AcDbEntity
  8
2
100
AcDbLine
 10
-68.803410339
 20
-63.0
 30
0.0
 11
16.2
 21
-63.0
 31
0.0
  0
LINE
  5
153
330
1D
100
AcDbEntity
  8
2
100
AcDbLine
 10
-66.803410339
 20
-63.0
 30
0.0
 11
-67.253410339
 21
-59.5
 31
0.0
  0
LINE
  5
154
330
1D
100
AcDbEntity
  8
2
100
AcDbLine
 10
-67.253410339
 20
-59.5
 30
0.0
 11
-66.353410339
 21
-59.5
 31
0.0
  0
LINE
  5
155
330
1D
100
AcDbEntity
  8
2
100
AcDbLine
 10
-66.353410339
 20
-59.5
 30
0.0
 11
-66.803410339
 21
-63.0
 31
0.0
  0
LINE
  5
156
330
1D
100
AcDbEntity
  8
2
100
AcDbLine
 10
-68.803410339
 20
63.0
 30
0.0
 11
16.2
 21
63.0
 31
0.0
  0
LINE
  5
157
330
1D
100
AcDbEntity
  8
2
100
AcDbLine
 10
-66.803410339
 20
63.0
 30
0.0
 11
-66.353410339
 21
59.5
 31
0.0
  0
LINE
  5
158
330
1D
100
AcDbEntity
  8
2
100
AcDbLine
 10
-66.353410339
 20
59.5
 30
0.0
 11
-67.253410339
 21
59.5
 31
0.0
  0
LINE
  5
159
330
1D
100
AcDbEntity
  8
2
100
AcDbLine
 10
-67.253410339
 20
59.5
 30
0.0
 11
-66.803410339
 21
63.0
 31
0.0
  0
LINE
  5
15A
330
1D
100
AcDbEntity
  8
2
100
AcDbLine
 10
-66.803410339
 20
-59.5
 30
0.0
 11
-66.803410339
 21
59.5
 31
0.0
  0
TEXT
  5
15B
330
1D
100
AcDbEntity
  8
2
100
AcDbText
 10
-68.303410339
 20
-0.598282658
 30
0.0
 40
3.5
  1
126
 50
90.0
  7
BMG_Text
100
AcDbText
  0
CIRCLE
  5
15C
330
1D
100
AcDbEntity
  8
2
100
AcDbCircle
 10
-69.553410339
 20
-2.848282658
 30
0.0
 40
1.25
  0
LINE
  5
15D
330
1D
100
AcDbEntity
  8
2
100
AcDbLine
 10
-68.303410339
 20
-4.098282658
 30
0.0
 11
-70.803410339
 21
-1.598282658
 31
0.0
  0
LINE
  5
15E
330
1D
100
AcDbEntity
  8
2
100
AcDbLine
 10
0.0
 20
-73.227781296
 30
0.0
 11
0.0
 21
-44.0
 31
0.0
  0
LINE
  5
15F
330
1D
100
AcDbEntity
  8
2
100
AcDbLine
 10
0.0
 20
-71.227781296
 30
0.0
 11
3.499999995
 21
-70.777781256
 31
0.0
  0
LINE
  5
160
330
1D
100
AcDbEntity
  8
2
100
AcDbLine
 10
3.499999995
 20
-70.777781256
 30
0.0
 11
3.500000005
 21
-71.677781256
 31
0.0
  0
LINE
  5
161
330
1D
100
AcDbEntity
  8
2
100
AcDbLine
 10
3.500000005
 20
-71.677781256
 30
0.0
 11
0.0
 21
-71.227781296
 31
0.0
  0
LINE
  5
162
330
1D
100
AcDbEntity
  8
2
100
AcDbLine
 10
83.2
 20
-73.227780342
 30
0.0
 11
83.2
 21
-58.0
 31
0.0
  0
LINE
  5
163
330
1D
100
AcDbEntity
  8
2
100
AcDbLine
 10
83.2
 20
-71.227780342
 30
0.0
 11
79.700000005
 21
-71.677780382
 31
0.0
  0
LINE
  5
164
330
1D
100
AcDbEntity
  8
2
100
AcDbLine
 10
79.700000005
 20
-71.677780382
 30
0.0
 11
79.699999995
 21
-70.777780382
 31
0.0
  0
LINE
  5
165
330
1D
100
AcDbEntity
  8
2
100
AcDbLine
 10
79.699999995
 20
-70.777780382
 30
0.0
 11
83.2
 21
-71.227780342
 31
0.0
  0
LINE
  5
166
330
1D
100
AcDbEntity
  8
2
100
AcDbLine
 10
3.5
 20
-71.227781256
 30
0.0
 11
79.7
 21
-71.227780382
 31
0.0
  0
TEXT
  5
167
330
1D
100
AcDbEntity
  8
2
100
AcDbText
 10
38.513436553
 20
-69.727780854
 30
0.0
 40
3.5
  1
83.2
 50
0.000000657
  7
BMG_Text
100
AcDbText
  0
LINE
  5
168
330
1D
100
AcDbEntity
  8
2
100
AcDbLine
 10
0.0
 20
82.134250641
 30
0.0
 11
0.0
 21
44.0
 31
0.0
  0
LINE
  5
169
330
1D
100
AcDbEntity
  8
2
100
AcDbLine
 10
0.0
 20
80.134250641
 30
0.0
 11
3.499999991
 21
80.584250708
 31
0.0
  0
LINE
  5
16A
330
1D
100
AcDbEntity
  8
2
100
AcDbLine
 10
3.499999991
 20
80.584250708
 30
0.0
 11
3.500000009
 21
79.684250708
 31
0.0
  0
LINE
  5
16B
330
1D
100
AcDbEntity
  8
2
100
AcDbLine
 10
3.500000009
 20
79.684250708
 30
0.0
 11
0.0
 21
80.134250641
 31
0.0
  0
LINE
  5
16C
330
1D
100
AcDbEntity
  8
2
100
AcDbLine
 10
86.981839179
 20
82.134252313
 30
0.0
 11
86.981839179
 21
74.600163224
 31
0.0
  0
LINE
  5
16D
330
1D
100
AcDbEntity
  8
2
100
AcDbLine
 10
86.981839179
 20
80.134252313
 30
0.0
 11
83.481839188
 21
79.684252246
 31
0.0
  0
LINE
  5
16E
330
1D
100
AcDbEntity
  8
2
100
AcDbLine
 10
83.481839188
 20
79.684252246
 30
0.0
 11
83.48183917
 21
80.584252246
 31
0.0
  0
LINE
  5
16F
330
1D
100
AcDbEntity
  8
2
100
AcDbLine
 10
83.48183917
 20
80.584252246
 30
0.0
 11
86.981839179
 21
80.134252313
 31
0.0
  0
LINE
  5
170
330
1D
100
AcDbEntity
  8
2
100
AcDbLine
 10
3.5
 20
80.134250708
 30
0.0
 11
83.481839179
 21
80.134252246
 31
0.0
  0
TEXT
  5
171
330
1D
100
AcDbEntity
  8
2
100
AcDbText
 10
41.826231089
 20
81.634251445
 30
0.0
 40
3.5
  1
87
 50
0.000001101
  7
BMG_Text
100
AcDbText
  0
LINE
  5
172
330
1D
100
AcDbEntity
  8
2
100
AcDbLine
 10
102.293979262
 20
75.000163911
 30
0.0
 11
86.581839179
 21
75.000163224
 31
0.0
  0
LINE
  5
173
330
1D
100
AcDbEntity
  8
2
100
AcDbLine
 10
100.293979262
 20
75.000163824
 30
0.0
 11
100.743979415
 21
71.500163844
 31
0.0
  0
LINE
  5
174
330
1D
100
AcDbEntity
  8
2
100
AcDbLine
 10
100.743979415
 20
71.500163844
 30
0.0
 11
99.843979415
 21
71.500163804
 31
0.0
  0
LINE
  5
175
330
1D
100
AcDbEntity
  8
2
100
AcDbLine
 10
99.843979415
 20
71.500163804
 30
0.0
 11
100.293979262
 21
75.000163824
 31
0.0
  0
LINE
  5
176
330
1D
100
AcDbEntity
  8
2
100
AcDbLine
 10
100.293982868
 20
-7.50001567
 30
0.0
 11
100.293979415
 21
71.500163824
 31
0.0
  0
TEXT
  5
177
330
1D
100
AcDbEntity
  8
2
100
AcDbText
 10
98.709506612
 20
-6.952624747
 30
0.0
 40
3.5
  1
150
 50
90.00000250400001
  7
BMG_Text
100
AcDbText
  0
TEXT
  5
178
330
1D
100
AcDbEntity
  8
2
100
AcDbText
 10
98.709506346
 20
-0.865437247
 30
0.0
 40
3.5
  1
-203
 50
90.00000250400001
  7
BMG_Text
100
AcDbText
  0
LINE
  5
222
330
1D
100
AcDbEntity
  8
NOCUT
100
AcDbLine
 10
47.0
 20
-58.9
 30
0.0
 11
48.087320508
 21
-58.9
 31
0.0
  0
LINE
  5
226
330
1D
100
AcDbEntity
  8
NOCUT
100
AcDbLine
 10
79.912679491
 20
58.9
 30
0.0
 11
82.680384758
 21
58.9
 31
0.0
  0
LINE
  5
227
330
1D
100
AcDbEntity
  8
NOCUT
100
AcDbLine
 10
82.680384758
 20
58.9
 30
0.0
 11
83.2
 21
58.0
 31
0.0
  0
LINE
  5
228
330
1D
100
AcDbEntity
  8
NOCUT
100
AcDbLine
 10
83.2
 20
58.0
 30
0.0
 11
83.2
 21
0.0
 31
0.0
  0
LINE
  5
229
330
1D
100
AcDbEntity
  8
NOCUT
100
AcDbLine
 10
83.2
 20
0.0
 30
0.0
 11
0.0
 21
0.0
 31
0.0
  0
LINE
  5
22A
330
1D
100
AcDbEntity
  8
NOCUT
100
AcDbLine
 10
0.0
 20
0.0
 30
0.0
 11
0.0
 21
44.0
 31
0.0
  0
LINE
  5
22B
330
1D
100
AcDbEntity
  8
NOCUT
100
AcDbLine
 10
0.0
 20
44.0
 30
0.0
 11
16.2
 21
63.0
 31
0.0
  0
LINE
  5
22C
330
1D
100
AcDbEntity
  8
NOCUT
100
AcDbLine
 10
16.2
 20
63.0
 30
0.0
 11
46.026279442
 21
63.0
 31
0.0
  0
LINE
  5
22D
330
1D
100
AcDbEntity
  8
NOCUT
100
AcDbLine
 10
46.026279442
 20
63.0
 30
0.0
 11
46.964101615
 21
59.5
 31
0.0
  0
LINE
  5
22E
330
1D
100
AcDbEntity
  8
NOCUT
100
AcDbLine
 10
51.95
 20
59.93500185046743
 30
0.0
 11
47.18934301397024
 21
58.65938765529127
 31
0.0
  0
LINE
  5
22F
330
1D
100
AcDbEntity
  8
NOCUT
100
AcDbLine
 10
47.18934301397024
 20
58.65938765529127
 30
0.0
 11
46.964101615
 21
59.5
 31
0.0
  0
LINE
  5
230
330
1D
100
AcDbEntity
  8
NOCUT
100
AcDbLine
 10
51.95
 20
59.93500185046743
 30
0.0
 11
51.95
 21
62.505
 31
0.0
  0
LINE
  5
231
330
1D
100
AcDbEntity
  8
NOCUT
100
AcDbLine
 10
51.95
 20
62.505
 30
0.0
 11
52.0
 21
62.505
 31
0.0
  0
LINE
  5
232
330
1D
100
AcDbEntity
  8
NOCUT
100
AcDbLine
 10
52.0
 20
62.505
 30
0.0
 11
52.0
 21
70.10135318
 31
0.0
  0
LINE
  5
233
330
1D
100
AcDbEntity
  8
NOCUT
100
AcDbLine
 10
52.93211955808835
 20
70.99217144877016
 30
0.0
 11
58.56892611994818
 21
70.99217144877016
 31
0.0
  0
LINE
  5
234
330
1D
100
AcDbEntity
  8
NOCUT
100
AcDbLine
 10
58.56892611994818
 20
70.99217144877016
 30
0.0
 11
59.75290739
 21
70.797637462
 31
0.0
  0
LINE
  5
235
330
1D
100
AcDbEntity
  8
NOCUT
100
AcDbLine
 10
59.75290739
 20
70.797637462
 30
0.0
 11
60.9
 21
71.105
 31
0.0
  0
LINE
  5
236
330
1D
100
AcDbEntity
  8
NOCUT
100
AcDbLine
 10
60.9
 20
71.105
 30
0.0
 11
67.1
 21
71.105
 31
0.0
  0
LINE
  5
237
330
1D
100
AcDbEntity
  8
NOCUT
100
AcDbLine
 10
67.1
 20
71.105
 30
0.0
 11
68.245289062
 21
70.798120721
 31
0.0
  0
LINE
  5
238
330
1D
100
AcDbEntity
  8
NOCUT
100
AcDbLine
 10
68.245289062
 20
70.798120721
 30
0.0
 11
69.49328229545965
 21
71.00375352626061
 31
0.0
  0
LINE
  5
239
330
1D
100
AcDbEntity
  8
NOCUT
100
AcDbLine
 10
69.49328229545965
 20
71.00375352626061
 30
0.0
 11
75.14735080816762
 21
71.00375352626061
 31
0.0
  0
LINE
  5
23A
330
1D
100
AcDbEntity
  8
NOCUT
100
AcDbLine
 10
75.14735080816762
 20
71.00375352626061
 30
0.0
 11
76.218942984
 21
72.943066099
 31
0.0
  0
LINE
  5
23B
330
1D
100
AcDbEntity
  8
NOCUT
100
AcDbLine
 10
76.218942984
 20
72.943066099
 30
0.0
 11
84.555660938
 21
74.413054405
 31
0.0
  0
LINE
  5
23C
330
1D
100
AcDbEntity
  8
NOCUT
100
AcDbLine
 10
84.555660938
 20
74.413054405
 30
0.0
 11
84.715987907
 21
74.098395011
 31
0.0
  0
LINE
  5
23D
330
1D
100
AcDbEntity
  8
NOCUT
100
AcDbLine
 10
84.715987907
 20
74.098395011
 30
0.0
 11
86.71242111101581
 21
74.5906590525588
 31
0.0
  0
LINE
  5
23E
330
1D
100
AcDbEntity
  8
NOCUT
100
AcDbLine
 10
86.71242111101581
 20
74.5906590525588
 30
0.0
 11
86.23801088340892
 21
65.04135368238529
 31
0.0
  0
LINE
  5
23F
330
1D
100
AcDbEntity
  8
NOCUT
100
AcDbLine
 10
86.23801088340892
 20
65.04135368238529
 30
0.0
 11
86.046258056
 21
64.585597007
 31
0.0
  0
LINE
  5
240
330
1D
100
AcDbEntity
  8
NOCUT
100
AcDbLine
 10
86.046258056
 20
64.585597007
 30
0.0
 11
85.937218587
 21
62.505
 31
0.0
  0
LINE
  5
241
330
1D
100
AcDbEntity
  8
NOCUT
100
AcDbLine
 10
85.937218587
 20
62.505
 30
0.0
 11
76.05
 21
62.505
 31
0.0
  0
LINE
  5
242
330
1D
100
AcDbEntity
  8
NOCUT
100
AcDbLine
 10
76.05
 20
62.505
 30
0.0
 11
76.05
 21
59.93500185029223
 31
0.0
  0
LINE
  5
243
330
1D
100
AcDbEntity
  8
NOCUT
100
AcDbLine
 10
76.05
 20
59.93500185029223
 30
0.0
 11
79.912679491
 21
58.9
 31
0.0
  0
LINE
  5
245
330
1D
100
AcDbEntity
  8
1
100
AcDbLine
 10
80.069015866
 20
71.730644494
 30
0.0
 11
84.715987907
 21
74.098395011
 31
0.0
  0
LINE
  5
246
330
1D
100
AcDbEntity
  8
3
100
AcDbLine
 10
84.715987907
 20
74.098395011
 30
0.0
 11
86.71242111101581
 21
74.5906590525588
 31
0.0
  0
LINE
  5
247
330
1D
100
AcDbEntity
  8
3
100
AcDbLine
 10
86.71242111101581
 20
74.5906590525588
 30
0.0
 11
86.23801088340892
 21
65.04135368238529
 31
0.0
  0
LINE
  5
248
330
1D
100
AcDbEntity
  8
3
100
AcDbLine
 10
86.23801088340892
 20
65.04135368238529
 30
0.0
 11
86.05286204323008
 21
64.60129331408939
 31
0.0
  0
LINE
  5
249
330
1D
100
AcDbEntity
  8
1
100
AcDbLine
 10
79.901540806
 20
68.535029982
 30
0.0
 11
86.03990309415961
 21
64.54685448755905
 31
0.0
  0
LINE
  5
24A
330
1D
100
AcDbEntity
  8
1
100
AcDbLine
 10
86.03990309415961
 20
64.54685448755905
 30
0.0
 11
86.04422764658705
 21
64.54685448755905
 31
0.0
  0
ARC
  5
251
330
1D
100
AcDbEntity
  8
NOCUT
100
AcDbCircle
 10
52.90470780965109
 20
70.10070732944523
 30
0.0
 40
0.9047080401801572
100
AcDbArc
 50
88.2637294850125
 51
179.9590978387674
  0
LWPOLYLINE
  5
292
330
1D
100
AcDbEntity
  8
INFTOTAL
100
AcDbPolyline
 90
        4
 70
     1
 43
0.0
 10
-128.5152299284671
 20
113.0328996329073
 10
-128.5152299284671
 20
-102.759651104104
 10
140.0652834888344
 20
-102.759651104104
 10
140.0652834888344
 20
113.0328996329073
  0
LINE
  5
295
330
1D
100
AcDbEntity
  8
3
100
AcDbLine
 10
55.583027754
 20
55.334159241
 30
0.0
 11
-0.0000000000000002
 21
12.5398342522175
 31
0.0
  0
LINE
  5
296
330
1D
100
AcDbEntity
  8
3
100
AcDbLine
 10
-0.0000000000000005
 20
-7.535978586049442
 30
0.0
 11
4.351
 21
0.0
 31
0.0
  0
LINE
  5
297
330
1D
100
AcDbEntity
  8
3
100
AcDbLine
 10
4.351
 20
0.0
 30
0.0
 11
-0.0000000000000002
 21
7.535978586049442
 31
0.0
  0
LINE
  5
29A
330
1D
100
AcDbEntity
  8
4
100
AcDbLine
 10
83.559092535
 20
72.795501972
 30
0.0
 11
83.559092535
 21
67.095581173
 31
0.0
  0
LINE
  5
29B
330
1D
100
AcDbEntity
  8
4
100
AcDbLine
 10
86.409052934
 20
69.945541572
 30
0.0
 11
80.709132135
 21
69.945541572
 31
0.0
  0
LINE
  5
29C
330
1D
100
AcDbEntity
  8
4
100
AcDbLine
 10
64.0
 20
72.59261726
 30
0.0
 11
64.0
 21
-63.310940275
 31
0.0
  0
LINE
  5
29D
330
1D
100
AcDbEntity
  8
4
100
AcDbLine
 10
85.484804297
 20
0.0
 30
0.0
 11
0.0
 21
0.0
 31
0.0
  0
LINE
  5
29E
330
1D
100
AcDbEntity
  8
4
100
AcDbLine
 10
48.0
 20
8.113582031
 30
0.0
 11
48.0
 21
-6.931158984
 31
0.0
  0
LINE
  5
29F
330
1D
100
AcDbEntity
  8
4
100
AcDbLine
 10
60.278199282
 20
55.780842797
 30
0.0
 11
0.0000000000000004
 21
9.38137768827569
 31
0.0
  0
LINE
  5
2A0
102
{ACAD_REACTORS
330
2B7
102
}
330
1D
100
AcDbEntity
  8
CUT
100
AcDbLine
 10
77.798843003
 20
69.900537902
 30
0.0
 11
85.860884194
 21
64.664987136
 31
0.0
  0
ARC
  5
2A1
102
{ACAD_REACTORS
330
2B7
102
}
330
1D
100
AcDbEntity
  8
CUT
100
AcDbCircle
 10
78.016698617
 20
70.236006129
 30
0.0
 40
0.4
100
AcDbArc
 50
117.0000000000007
 51
236.9999999999997
  0
LINE
  5
2A2
102
{ACAD_REACTORS
330
2B7
102
}
330
1D
100
AcDbEntity
  8
CUT
100
AcDbLine
 10
86.400242979
 20
74.956565834
 30
0.0
 11
77.835102417
 21
70.592408739
 31
0.0
  0
ARC
  5
2A3
102
{ACAD_REACTORS
330
2B7
102
}
330
1D
100
AcDbEntity
  8
CUT
100
AcDbCircle
 10
86.581839179
 20
74.600163224
 30
0.0
 40
0.4
100
AcDbArc
 50
357.0000000000005
 51
117.0000000000007
  0
LINE
  5
2A4
102
{ACAD_REACTORS
330
2B7
102
}
330
1D
100
AcDbEntity
  8
CUT
100
AcDbLine
 10
86.478191622
 20
64.979520981
 30
0.0
 11
86.981290993
 21
74.579228842
 31
0.0
  0
ARC
  5
2A5
102
{ACAD_REACTORS
330
2B7
102
}
330
1D
100
AcDbEntity
  8
CUT
100
AcDbCircle
 10
86.078739808
 20
65.000455363
 30
0.0
 40
0.4
100
AcDbArc
 50
236.9999999999997
 51
357.0000000000005
  0
CIRCLE
  5
2A6
330
1D
100
AcDbEntity
  8
1
100
AcDbCircle
 10
83.559092535
 20
69.945541572
 30
0.0
 40
1.8999736
  0
CIRCLE
  5
2A7
102
{ACAD_REACTORS
330
2B7
102
}
330
1D
100
AcDbEntity
  8
1
100
AcDbCircle
 10
83.5590925345
 20
69.945541572
 30
0.0
 40
1.899973599999996
  0
HATCH
  5
2B7
330
1D
100
AcDbEntity
  8
7
100
AcDbHatch
 10
0.0
 20
0.0
 30
0.0
210
0.0
220
0.0
230
1.0
  2
ANSI31
 70
     0
 71
     1
 91
        2
 92
        7
 72
     1
 73
     1
 93
        6
 10
86.47819162192637
 20
64.97952098062711
 42
0.0
 10
86.98129099292638
 20
74.57922884162713
 42
0.5773502689263955
 10
86.40024297907813
 20
74.95656583375651
 42
0.0
 10
77.83510241707813
 20
70.59240873875652
 42
0.5773502691154809
 10
77.7988430029955
 20
69.90053790186636
 42
0.0
 10
85.86088419399549
 20
64.66498713586637
 42
0.577350269342371
 97
        6
330
2A4
330
2A3
330
2A2
330
2A1
330
2A0
330
2A5
 92
       22
 72
     1
 73
     1
 93
        2
 10
81.6591189345
 20
69.945541572
 42
1.0
 10
85.45906613449999
 20
69.945541572
 42
1.0
 97
        1
330
2A7
 75
     0
 76
     1
 52
0.0
 41
1.0
 77
     0
 78
     1
 53
45.0
 43
-24.62792265947451
 44
-21.29024757339576
 45
-0.0883883476483184
 46
0.0883883476483184
 79
     0
 47
0.0
 98
        2
 10
86.85699488139636
 20
72.49913671804858
 10
86.85699488139636
 20
72.49913671804858
1001
ACAD
1010
0.0
1020
0.0
1030
0.0
  0
ENDSEC
  0
SECTION
  2
OBJECTS
  0
DICTIONARY
  5
C
330
0
100
AcDbDictionary
281
     1
  3
ACAD_DETAILVIEWSTYLE
350
21F
  3
ACAD_GROUP
350
D
  3
ACAD_LAYOUT
350
1A
  3
ACAD_MLINESTYLE
350
17
  3
ACAD_PLOTSETTINGS
350
19
  3
ACAD_PLOTSTYLENAME
350
E
  3
ACAD_SCALELIST
350
17F
  3
ACAD_SECTIONVIEWSTYLE
350
220
  3
AcDbVariableDictionary
350
1C1
  3
APPDATA
350
20F
  3
DWGPROPS
350
2E7
  0
DICTIONARY
  5
210
330
2
100
AcDbDictionary
280
     1
281
     1
  3
ACAD_LAYERSTATES
360
211
  3
ACLYDICTIONARY
360
2B2
  0
DICTIONARY
  5
2B5
330
1D
100
AcDbDictionary
280
     1
281
     1
  3
ACAD_SORTENTS
360
2B6
  0
DICTIONARY
  5
21F
102
{ACAD_REACTORS
330
C
102
}
330
C
100
AcDbDictionary
281
     1
  0
DICTIONARY
  5
D
102
{ACAD_REACTORS
330
C
102
}
330
C
100
AcDbDictionary
281
     1
  0
DICTIONARY
  5
1A
102
{ACAD_REACTORS
330
C
102
}
330
C
100
AcDbDictionary
281
     1
  3
Layout1
350
1C
  3
Model
350
1E
  0
DICTIONARY
  5
17
102
{ACAD_REACTORS
330
C
102
}
330
C
100
AcDbDictionary
281
     1
  3
Standard
350
18
  0
DICTIONARY
  5
19
102
{ACAD_REACTORS
330
C
102
}
330
C
100
AcDbDictionary
281
     1
  0
ACDBDICTIONARYWDFLT
  5
E
102
{ACAD_REACTORS
330
C
102
}
330
C
100
AcDbDictionary
281
     1
  3
Normal
350
F
100
AcDbDictionaryWithDefault
340
F
  0
DICTIONARY
  5
17F
102
{ACAD_REACTORS
330
C
102
}
330
C
100
AcDbDictionary
281
     1
  3
A0
350
180
  3
A1
350
181
  3
A2
350
182
  3
A3
350
183
  3
A4
350
184
  3
A5
350
185
  3
A6
350
186
  3
A7
350
187
  3
A8
350
188
  3
A9
350
189
  3
B0
350
18A
  3
B1
350
18B
  3
B2
350
18C
  3
B3
350
18D
  3
B4
350
18E
  3
B5
350
18F
  3
B6
350
190
  3
B7
350
191
  3
B8
350
192
  3
B9
350
193
  3
C0
350
194
  3
C1
350
195
  3
C2
350
196
  3
C3
350
197
  3
C4
350
198
  3
C5
350
199
  3
C6
350
19A
  3
C7
350
19B
  3
C8
350
19C
  3
C9
350
19D
  3
D0
350
19E
  3
D1
350
19F
  3
D2
350
1A0
  0
DICTIONARY
  5
220
102
{ACAD_REACTORS
330
C
102
}
330
C
100
AcDbDictionary
281
     1
  0
DICTIONARY
  5
1C1
102
{ACAD_REACTORS
330
C
102
}
330
C
100
AcDbDictionary
281
     1
  3
DIMASSOC
350
1C5
  3
HIDETEXT
350
1C6
  0
DICTIONARY
  5
20F
102
{ACAD_REACTORS
330
C
102
}
330
C
100
AcDbDictionary
281
     1
  0
XRECORD
  5
2E7
102
{ACAD_REACTORS
330
C
102
}
330
C
100
AcDbXrecord
280
     1
  1
DWGPROPS COOKIE
  2

  3

  4

  6

  7

  8
matthias.ochs
  9

300
=
301
=
302
=
303
=
304
=
305
=
306
=
307
=
308
=
309
=
 40
0.0
 41
2458327.465983067
 42
2458589.508599815
  1

 90
        0
  0
DICTIONARY
  5
211
102
{ACAD_REACTORS
330
210
102
}
330
210
100
AcDbDictionary
281
     1
  0
DICTIONARY
  5
2B2
102
{ACAD_REACTORS
330
210
102
}
330
210
100
AcDbDictionary
281
     1
1001
ACAD
1000
<All
  0
SORTENTSTABLE
  5
2B6
102
{ACAD_REACTORS
330
2B5
102
}
330
2B5
100
AcDbSortentsTable
330
1D
331
0
  5
2A0
331
2A0
  5
2A2
331
2A1
  5
2A3
331
2A2
  5
2A4
331
2A3
  5
2A5
331
2A4
  5
2A6
331
2A5
  5
2A7
331
2A6
  5
2B4
331
2A7
  5
2B7
331
2B7
  5
2A1
  0
LAYOUT
  5
1C
102
{ACAD_REACTORS
330
1A
102
}
330
1A
100
AcDbPlotSettings
  1

  2
none_device
  4

  6

 40
0.0
 41
0.0
 42
0.0
 43
0.0
 44
0.0
 45
0.0
 46
0.0
 47
0.0
 48
0.0
 49
0.0
140
0.0
141
0.0
142
1.0
143
1.0
 70
   688
 72
     0
 73
     0
 74
     5
  7

 75
    16
147
1.0
148
0.0
149
0.0
100
AcDbLayout
  1
Layout1
 70
     1
 71
     1
 10
0.0
 20
0.0
 11
12.0
 21
9.0
 12
0.0
 22
0.0
 32
0.0
 14
1.000000000000000E+20
 24
1.000000000000000E+20
 34
1.000000000000000E+20
 15
-1.000000000000000E+20
 25
-1.000000000000000E+20
 35
-1.000000000000000E+20
146
0.0
 13
0.0
 23
0.0
 33
0.0
 16
1.0
 26
0.0
 36
0.0
 17
0.0
 27
1.0
 37
0.0
 76
     0
330
1B
  0
LAYOUT
  5
1E
102
{ACAD_REACTORS
330
1A
102
}
330
1A
100
AcDbPlotSettings
  1

  2
none_device
  4

  6

 40
0.0
 41
0.0
 42
0.0
 43
0.0
 44
0.0
 45
0.0
 46
0.0
 47
0.0
 48
0.0
 49
0.0
140
0.0
141
0.0
142
1.0
143
1.0
 70
  1712
 72
     0
 73
     0
 74
     0
  7

 75
     0
147
1.0
148
0.0
149
0.0
100
AcDbLayout
  1
Model
 70
     1
 71
     0
 10
0.0
 20
0.0
 11
12.0
 21
9.0
 12
0.0
 22
0.0
 32
0.0
 14
-128.5152299284671
 24
-102.759651104104
 34
0.0
 15
140.0652834888344
 25
113.0328996329073
 35
0.0
146
0.0
 13
0.0
 23
0.0
 33
0.0
 16
1.0
 26
0.0
 36
0.0
 17
0.0
 27
1.0
 37
0.0
 76
     0
330
1D
331
179
  0
MLINESTYLE
  5
18
102
{ACAD_REACTORS
330
17
102
}
330
17
100
AcDbMlineStyle
  2
Standard
 70
     0
  3

 62
   256
 51
90.0
 52
90.0
 71
     2
 49
0.5
 62
   256
  6
BYLAYER
 49
-0.5
 62
   256
  6
BYLAYER
  0
ACDBPLACEHOLDER
  5
F
102
{ACAD_REACTORS
330
E
102
}
330
E
  0
SCALE
  5
180
102
{ACAD_REACTORS
330
17F
102
}
330
17F
100
AcDbScale
 70
     0
300
1:1
140
1.0
141
1.0
290
     1
  0
SCALE
  5
181
102
{ACAD_REACTORS
330
17F
102
}
330
17F
100
AcDbScale
 70
     0
300
1:2
140
1.0
141
2.0
290
     0
  0
SCALE
  5
182
102
{ACAD_REACTORS
330
17F
102
}
330
17F
100
AcDbScale
 70
     0
300
1:4
140
1.0
141
4.0
290
     0
  0
SCALE
  5
183
102
{ACAD_REACTORS
330
17F
102
}
330
17F
100
AcDbScale
 70
     0
300
1:5
140
1.0
141
5.0
290
     0
  0
SCALE
  5
184
102
{ACAD_REACTORS
330
17F
102
}
330
17F
100
AcDbScale
 70
     0
300
1:8
140
1.0
141
8.0
290
     0
  0
SCALE
  5
185
102
{ACAD_REACTORS
330
17F
102
}
330
17F
100
AcDbScale
 70
     0
300
1:10
140
1.0
141
10.0
290
     0
  0
SCALE
  5
186
102
{ACAD_REACTORS
330
17F
102
}
330
17F
100
AcDbScale
 70
     0
300
1:16
140
1.0
141
16.0
290
     0
  0
SCALE
  5
187
102
{ACAD_REACTORS
330
17F
102
}
330
17F
100
AcDbScale
 70
     0
300
1:20
140
1.0
141
20.0
290
     0
  0
SCALE
  5
188
102
{ACAD_REACTORS
330
17F
102
}
330
17F
100
AcDbScale
 70
     0
300
1:30
140
1.0
141
30.0
290
     0
  0
SCALE
  5
189
102
{ACAD_REACTORS
330
17F
102
}
330
17F
100
AcDbScale
 70
     0
300
1:40
140
1.0
141
40.0
290
     0
  0
SCALE
  5
18A
102
{ACAD_REACTORS
330
17F
102
}
330
17F
100
AcDbScale
 70
     0
300
1:50
140
1.0
141
50.0
290
     0
  0
SCALE
  5
18B
102
{ACAD_REACTORS
330
17F
102
}
330
17F
100
AcDbScale
 70
     0
300
1:100
140
1.0
141
100.0
290
     0
  0
SCALE
  5
18C
102
{ACAD_REACTORS
330
17F
102
}
330
17F
100
AcDbScale
 70
     0
300
2:1
140
2.0
141
1.0
290
     0
  0
SCALE
  5
18D
102
{ACAD_REACTORS
330
17F
102
}
330
17F
100
AcDbScale
 70
     0
300
4:1
140
4.0
141
1.0
290
     0
  0
SCALE
  5
18E
102
{ACAD_REACTORS
330
17F
102
}
330
17F
100
AcDbScale
 70
     0
300
8:1
140
8.0
141
1.0
290
     0
  0
SCALE
  5
18F
102
{ACAD_REACTORS
330
17F
102
}
330
17F
100
AcDbScale
 70
     0
300
10:1
140
10.0
141
1.0
290
     0
  0
SCALE
  5
190
102
{ACAD_REACTORS
330
17F
102
}
330
17F
100
AcDbScale
 70
     0
300
100:1
140
100.0
141
1.0
290
     0
  0
SCALE
  5
191
102
{ACAD_REACTORS
330
17F
102
}
330
17F
100
AcDbScale
 70
     0
300
1/128" = 1'-0"
140
0.0078125
141
12.0
290
     0
  0
SCALE
  5
192
102
{ACAD_REACTORS
330
17F
102
}
330
17F
100
AcDbScale
 70
     0
300
1/64" = 1'-0"
140
0.015625
141
12.0
290
     0
  0
SCALE
  5
193
102
{ACAD_REACTORS
330
17F
102
}
330
17F
100
AcDbScale
 70
     0
300
1/32" = 1'-0"
140
0.03125
141
12.0
290
     0
  0
SCALE
  5
194
102
{ACAD_REACTORS
330
17F
102
}
330
17F
100
AcDbScale
 70
     0
300
1/16" = 1'-0"
140
0.0625
141
12.0
290
     0
  0
SCALE
  5
195
102
{ACAD_REACTORS
330
17F
102
}
330
17F
100
AcDbScale
 70
     0
300
3/32" = 1'-0"
140
0.09375
141
12.0
290
     0
  0
SCALE
  5
196
102
{ACAD_REACTORS
330
17F
102
}
330
17F
100
AcDbScale
 70
     0
300
1/8" = 1'-0"
140
0.125
141
12.0
290
     0
  0
SCALE
  5
197
102
{ACAD_REACTORS
330
17F
102
}
330
17F
100
AcDbScale
 70
     0
300
3/16" = 1'-0"
140
0.1875
141
12.0
290
     0
  0
SCALE
  5
198
102
{ACAD_REACTORS
330
17F
102
}
330
17F
100
AcDbScale
 70
     0
300
1/4" = 1'-0"
140
0.25
141
12.0
290
     0
  0
SCALE
  5
199
102
{ACAD_REACTORS
330
17F
102
}
330
17F
100
AcDbScale
 70
     0
300
3/8" = 1'-0"
140
0.375
141
12.0
290
     0
  0
SCALE
  5
19A
102
{ACAD_REACTORS
330
17F
102
}
330
17F
100
AcDbScale
 70
     0
300
1/2" = 1'-0"
140
0.5
141
12.0
290
     0
  0
SCALE
  5
19B
102
{ACAD_REACTORS
330
17F
102
}
330
17F
100
AcDbScale
 70
     0
300
3/4" = 1'-0"
140
0.75
141
12.0
290
     0
  0
SCALE
  5
19C
102
{ACAD_REACTORS
330
17F
102
}
330
17F
100
AcDbScale
 70
     0
300
1" = 1'-0"
140
1.0
141
12.0
290
     0
  0
SCALE
  5
19D
102
{ACAD_REACTORS
330
17F
102
}
330
17F
100
AcDbScale
 70
     0
300
1-1/2" = 1'-0"
140
1.5
141
12.0
290
     0
  0
SCALE
  5
19E
102
{ACAD_REACTORS
330
17F
102
}
330
17F
100
AcDbScale
 70
     0
300
3" = 1'-0"
140
3.0
141
12.0
290
     0
  0
SCALE
  5
19F
102
{ACAD_REACTORS
330
17F
102
}
330
17F
100
AcDbScale
 70
     0
300
6" = 1'-0"
140
6.0
141
12.0
290
     0
  0
SCALE
  5
1A0
102
{ACAD_REACTORS
330
17F
102
}
330
17F
100
AcDbScale
 70
     0
300
1'-0" = 1'-0"
140
12.0
141
12.0
290
     0
  0
DICTIONARYVAR
  5
1C5
102
{ACAD_REACTORS
330
1C1
102
}
330
1C1
100
DictionaryVariables
280
     0
  1
2
  0
DICTIONARYVAR
  5
1C6
102
{ACAD_REACTORS
330
1C1
102
}
330
1C1
100
DictionaryVariables
280
     0
  1
1
  0
ENDSEC
  0
EOF
