999
NT  : 16.0 - 919
  0
SECTION
  2
HEADER
  9
$ACADVER
  1
AC1006
  9
$INSBASE
 10
0.000000000
 20
0.000000000
  9
$EXTMIN
 10
-91.776506956
 20
-55.351458129
  9
$EXTMAX
 10
114.922054275
 20
71.270788615
  9
$LIMMIN
 10
-91.776506956
 20
-55.351458129
  9
$LIMMAX
 10
114.922054275
 20
71.270788615
  9
$AUNITS
 70
     2
  9
$ANGBASE
 50
0.000
  9
$ANGDIR
 70
     0
  0
ENDSEC
  0
SECTION
  2
TABLES
  0
TABLE
  2
LTYPE
 70
     8
  0
LTYPE
  2
PUNKT
 70
    64
  3
..............
 72
    65
 73
     2
 40
1.500
 49
0.700
 49
-0.800
  0
LTYPE
  2
GESTRICHELT
 70
    64
  3
-- -- -- -- --
 72
    65
 73
     7
 40
2.800
 49
0.900
 49
0.000
 49
0.900
 49
0.000
 49
0.200
 49
0.000
 49
-0.800
  0
LTYPE
  2
STRICHPUNKT
 70
    64
  3
--.--.--.--.--
 72
    65
 73
     4
 40
8.800
 49
5.500
 49
-1.300
 49
0.700
 49
-1.300
  0
LTYPE
  2
STRICHPUNKT
 70
    64
  3
--.--.--.--.--
 72
    65
 73
     4
 40
8.800
 49
5.500
 49
-1.300
 49
0.700
 49
-1.300
  0
LTYPE
  2
STRICHPUNKT
 70
    64
  3
--.--.--.--.--
 72
    65
 73
     4
 40
8.800
 49
5.500
 49
-1.300
 49
0.700
 49
-1.300
  0
LTYPE
  2
PHANTOM
 70
    64
  3
--..--..--..--
 72
    65
 73
     6
 40
14.200
 49
7.000
 49
-1.800
 49
0.900
 49
-1.800
 49
0.900
 49
-1.800
  0
LTYPE
  2
PHANTOM
 70
    64
  3
--..--..--..--
 72
    65
 73
     6
 40
14.200
 49
7.000
 49
-1.800
 49
0.900
 49
-1.800
 49
0.900
 49
-1.800
  0
LTYPE
  2
PHANTOM
 70
    64
  3
--..--..--..--
 72
    65
 73
     6
 40
14.200
 49
7.000
 49
-1.800
 49
0.900
 49
-1.800
 49
0.900
 49
-1.800
  0
ENDTAB
  0
ENDSEC
  0
SECTION
  2
BLOCKS
  0
ENDSEC
  0
SECTION
  2
ENTITIES
  0
LINE
  8
AUFNAHME
  6
CONTINUOUS
 62
     7
 10
76.050000000
 20
31.350050556
 11
76.050000000
 21
47.505000000
  0
LINE
  8
AUFNAHME
  6
CONTINUOUS
 62
     7
 10
76.050000000
 20
47.505000000
 11
67.400000000
 21
47.505000000
  0
LINE
  8
AUFNAHME
  6
CONTINUOUS
 62
     7
 10
67.400000000
 20
47.505000000
 11
66.799512926
 21
48.105487074
  0
LINE
  8
AUFNAHME
  6
CONTINUOUS
 62
     7
 10
66.799512926
 20
48.105487074
 11
66.548580521
 21
49.605000000
  0
LINE
  8
AUFNAHME
  6
CONTINUOUS
 62
     7
 10
66.548580521
 20
49.605000000
 11
61.451419479
 21
49.605000000
  0
LINE
  8
AUFNAHME
  6
CONTINUOUS
 62
     7
 10
61.451419479
 20
49.605000000
 11
61.182523803
 21
47.998142801
  0
LINE
  8
AUFNAHME
  6
CONTINUOUS
 62
     7
 10
61.182523803
 20
47.998142801
 11
60.491163094
 21
47.505000000
  0
LINE
  8
AUFNAHME
  6
CONTINUOUS
 62
     7
 10
60.491163094
 20
47.505000000
 11
42.062781413
 21
47.505000000
  0
LINE
  8
AUFNAHME
  6
CONTINUOUS
 62
     7
 10
42.062781413
 20
47.505000000
 11
41.452897657
 21
59.142275306
  0
ARC
  8
AUFNAHME
  6
CONTINUOUS
 62
     7
 10
41.952212424
 20
59.168443284
 40
0.500000000
 50
80.000000000
 51
-176.999999999
  0
LINE
  8
AUFNAHME
  6
CONTINUOUS
 62
     7
 10
42.039036513
 20
59.660847161
 11
51.781057016
 21
57.943066099
  0
LINE
  8
AUFNAHME
  6
CONTINUOUS
 62
     7
 10
51.781057016
 20
57.943066099
 11
52.900000000
 21
56.005000000
  0
LINE
  8
AUFNAHME
  6
CONTINUOUS
 62
     7
 10
51.950000000
 20
37.807626094
 11
51.950000000
 21
47.505000000
  0
LINE
  8
AUFNAHME
  6
CONTINUOUS
 62
     7
 10
58.503783091
 20
56.005000000
 11
52.932119558
 21
56.005000000
  0
LINE
  8
AUFNAHME
  6
CONTINUOUS
 62
     7
 10
75.100000000
 20
56.005000000
 11
69.493282295
 21
56.005000000
  0
LINE
  8
AUFNAHME
  6
CONTINUOUS
 62
     7
 10
68.245289062
 20
55.798120721
 11
67.100000000
 21
56.105000000
  0
LINE
  8
AUFNAHME
  6
CONTINUOUS
 62
     7
 10
60.900000000
 20
56.105000000
 11
59.752907390
 21
55.797637462
  0
LINE
  8
AUFNAHME
  6
CONTINUOUS
 62
     7
 10
48.087320508
 20
-40.400000000
 11
59.246152423
 21
-43.390000000
  0
LINE
  8
AUFNAHME
  6
CONTINUOUS
 62
     7
 10
68.753847577
 20
-43.390000000
 11
79.809272111
 21
-40.400000000
  0
LINE
  8
AUFNAHME
  6
CONTINUOUS
 62
     7
 10
1.000000000
 20
45.000000000
 11
0.000000000
 21
44.000000000
  0
LINE
  8
AUFNAHME
  6
CONTINUOUS
 62
     7
 10
0.000000000
 20
-44.000000000
 11
0.500000000
 21
-44.500000000
  0
LINE
  8
AUFNAHME
  6
CONTINUOUS
 62
     7
 10
15.045299462
 20
45.000000000
 11
1.000000000
 21
45.000000000
  0
LINE
  8
AUFNAHME
  6
CONTINUOUS
 62
     7
 10
82.969059892
 20
-40.400000000
 11
83.200000000
 21
-40.000000000
  0
ARC
  8
ZAPFEN
  6
CONTINUOUS
 62
     4
 10
-0.250000000
 20
-22.900000000
 40
0.500000000
 50
60.000000000
 51
105.000000000
  0
ARC
  8
ZAPFEN
  6
CONTINUOUS
 62
     4
 10
-0.250000000
 20
22.900000000
 40
0.500000000
 50
-105.000000000
 51
-60.000000000
  0
ARC
  8
ZAPFEN
  6
CONTINUOUS
 62
     4
 10
-48.787564435
 20
-21.800000000
 40
1.200000000
 50
-150.000000000
 51
-80.000000000
  0
ARC
  8
ZAPFEN
  6
CONTINUOUS
 62
     4
 10
-48.787564435
 20
21.800000000
 40
1.200000000
 50
80.000000000
 51
150.000000000
  0
LINE
  8
ZAPFEN
  6
CONTINUOUS
 62
     4
 10
-44.000000000
 20
-23.000000000
 11
-2.555056733
 21
-23.000000000
  0
LINE
  8
ZAPFEN
  6
CONTINUOUS
 62
     4
 10
-2.555056733
 20
23.000000000
 11
-44.000000000
 21
23.000000000
  0
LINE
  8
ZAPFEN
  6
CONTINUOUS
 62
     4
 10
-2.555056733
 20
-23.000000000
 11
-0.379409522
 21
-22.417037087
  0
LINE
  8
ZAPFEN
  6
CONTINUOUS
 62
     4
 10
-0.379409522
 20
22.417037087
 11
-2.555056733
 21
23.000000000
  0
LINE
  8
ZAPFEN
  6
CONTINUOUS
 62
     4
 10
-44.000000000
 20
23.000000000
 11
-46.605707514
 21
22.633791691
  0
LINE
  8
ZAPFEN
  6
CONTINUOUS
 62
     4
 10
-46.605707514
 20
-22.633791691
 11
-44.000000000
 21
-23.000000000
  0
LINE
  8
ZAPFEN
  6
CONTINUOUS
 62
     4
 10
-48.579186622
 20
-22.981769304
 11
-46.605707514
 21
-22.633791691
  0
LINE
  8
ZAPFEN
  6
CONTINUOUS
 62
     4
 10
-46.605707514
 20
22.633791691
 11
-48.579186622
 21
22.981769304
  0
LINE
  8
ZAPFEN
  6
CONTINUOUS
 62
     4
 10
-49.826794919
 20
22.400000000
 11
-50.000000000
 21
22.100000000
  0
LINE
  8
ZAPFEN
  6
CONTINUOUS
 62
     4
 10
-50.000000000
 20
-22.100000000
 11
-49.826794919
 21
-22.400000000
  0
ARC
  8
AUFNAHME
  6
CONTINUOUS
 62
     7
 10
64.069932508
 20
85.731143782
 40
30.243471143
 50
-100.605439200
 51
-90.132486152
  0
ARC
  8
AUFNAHME
  6
CONTINUOUS
 62
     7
 10
63.950421247
 20
85.514017609
 40
30.026305048
 50
-89.905394467
 51
-79.362177601
  0
ARC
  8
AUFNAHME
  6
CONTINUOUS
 62
     7
 10
75.100000000
 20
55.105000000
 40
0.900000000
 50
0.000000000
 51
90.000000000
  0
LINE
  8
AUFNAHME
  6
CONTINUOUS
 62
     7
 10
76.000000000
 20
47.505000000
 11
76.000000000
 21
55.105000000
  0
LINE
  8
AUFNAHME
  6
CONTINUOUS
 62
     7
 10
86.046258056
 20
49.585597007
 11
86.015674523
 21
49.605458186
  0
LINE
  8
AUFNAHME
  6
CONTINUOUS
 62
     7
 10
41.962887430
 20
49.602627293
 11
41.953741944
 21
49.585597007
  0
LINE
  8
AUFNAHME
  6
CONTINUOUS
 62
     7
 10
41.599757021
 20
59.956565834
 11
42.254807591
 21
59.622800898
  0
ARC
  8
AUFNAHME
  6
CONTINUOUS
 62
     7
 10
41.418160821
 20
59.600163224
 40
0.400000000
 50
63.000000000
 51
-177.000000000
  0
LINE
  8
AUFNAHME
  6
CONTINUOUS
 62
     7
 10
41.521808378
 20
49.979520981
 11
41.018709007
 21
59.579228842
  0
ARC
  8
AUFNAHME
  6
CONTINUOUS
 62
     7
 10
41.921260192
 20
50.000455363
 40
0.400000000
 50
-177.000000000
 51
-84.026521846
  0
LINE
  8
AUFNAHME
  6
CONTINUOUS
 62
     7
 10
67.100000000
 20
56.105000000
 11
60.900000000
 21
56.105000000
  0
LINE
  8
AUFNAHME
  6
CONTINUOUS
 62
     7
 10
49.445000000
 20
-2.502813417
 11
50.888375673
 21
-0.002813417
  0
LINE
  8
AUFNAHME
  6
CONTINUOUS
 62
     7
 10
50.888375673
 20
-0.002813417
 11
49.441751346
 21
2.502813417
  0
LINE
  8
AUFNAHME
  6
CONTINUOUS
 62
     7
 10
49.441751346
 20
2.502813417
 11
46.555000000
 21
2.502813417
  0
LINE
  8
AUFNAHME
  6
CONTINUOUS
 62
     7
 10
46.555000000
 20
2.502813417
 11
45.111624327
 21
0.002813417
  0
LINE
  8
AUFNAHME
  6
CONTINUOUS
 62
     7
 10
45.111624327
 20
0.002813417
 11
46.558248654
 21
-2.502813417
  0
LINE
  8
AUFNAHME
  6
CONTINUOUS
 62
     7
 10
46.558248654
 20
-2.502813417
 11
49.445000000
 21
-2.502813417
  0
LINE
  8
AUFNAHME
  6
CONTINUOUS
 62
     7
 10
68.753847577
 20
-43.390000000
 11
59.246152423
 21
-43.390000000
  0
LINE
  8
AUFNAHME
  6
CONTINUOUS
 62
     7
 10
0.000000000
 20
0.000000000
 11
0.000000000
 21
44.000000000
  0
LINE
  8
AUFNAHME
  6
CONTINUOUS
 62
     7
 10
0.000000000
 20
-44.000000000
 11
0.000000000
 21
0.000000000
  0
LINE
  8
AUFNAHME
  6
CONTINUOUS
 62
     7
 10
1.000000000
 20
45.000000000
 11
1.000000000
 21
-44.500000000
  0
LINE
  8
AUFNAHME
  6
CONTINUOUS
 62
     7
 10
1.000000000
 20
-44.500000000
 11
0.549208714
 21
-44.500000000
  0
LINE
  8
AUFNAHME
  6
CONTINUOUS
 62
     7
 10
16.200000000
 20
43.000000000
 11
15.045299462
 21
45.000000000
  0
LINE
  8
AUFNAHME
  6
CONTINUOUS
 62
     7
 10
16.200000000
 20
43.000000000
 11
46.428203230
 21
43.000000000
  0
LINE
  8
AUFNAHME
  6
CONTINUOUS
 62
     7
 10
47.500000000
 20
39.000000000
 11
46.428203230
 21
43.000000000
  0
LINE
  8
AUFNAHME
  6
CONTINUOUS
 62
     7
 10
64.886346229
 20
34.341342569
 11
47.500000000
 21
39.000000000
  0
LINE
  8
AUFNAHME
  6
CONTINUOUS
 62
     7
 10
64.886346229
 20
34.341342569
 11
61.195572735
 21
33.779493448
  0
LINE
  8
AUFNAHME
  6
CONTINUOUS
 62
     7
 10
61.195572735
 20
33.779493448
 11
57.566349062
 21
33.205313681
  0
LINE
  8
AUFNAHME
  6
CONTINUOUS
 62
     7
 10
57.566349062
 20
33.205313681
 11
54.000000000
 21
32.619012861
  0
LINE
  8
AUFNAHME
  6
CONTINUOUS
 62
     7
 10
54.000000000
 20
32.619012861
 11
23.200000000
 21
32.619012861
  0
LINE
  8
AUFNAHME
  6
CONTINUOUS
 62
     7
 10
23.200000000
 20
-32.619012861
 11
22.268995996
 21
-31.006802931
  0
LINE
  8
AUFNAHME
  6
CONTINUOUS
 62
     7
 10
22.268995996
 20
-31.006802931
 11
21.386338246
 21
-29.314977847
  0
LINE
  8
AUFNAHME
  6
CONTINUOUS
 62
     7
 10
21.386338246
 20
-29.314977847
 11
20.554293121
 21
-27.547881655
  0
LINE
  8
AUFNAHME
  6
CONTINUOUS
 62
     7
 10
20.554293121
 20
-27.547881655
 11
19.774997036
 21
-25.710051669
  0
LINE
  8
AUFNAHME
  6
CONTINUOUS
 62
     7
 10
19.774997036
 20
-25.710051669
 11
19.050450964
 21
-23.806206824
  0
LINE
  8
AUFNAHME
  6
CONTINUOUS
 62
     7
 10
19.050450964
 20
-23.806206824
 11
18.382515299
 21
-21.841235562
  0
LINE
  8
AUFNAHME
  6
CONTINUOUS
 62
     7
 10
18.382515299
 20
-21.841235562
 11
17.772905076
 21
-19.820183273
  0
LINE
  8
AUFNAHME
  6
CONTINUOUS
 62
     7
 10
17.772905076
 20
-19.820183273
 11
17.223185572
 21
-17.748239349
  0
LINE
  8
AUFNAHME
  6
CONTINUOUS
 62
     7
 10
17.223185572
 20
-17.748239349
 11
16.734768285
 21
-15.630723852
  0
LINE
  8
AUFNAHME
  6
CONTINUOUS
 62
     7
 10
16.734768285
 20
-15.630723852
 11
16.308907306
 21
-13.473073856
  0
LINE
  8
AUFNAHME
  6
CONTINUOUS
 62
     7
 10
16.308907306
 20
-13.473073856
 11
15.946696105
 21
-11.280829490
  0
LINE
  8
AUFNAHME
  6
CONTINUOUS
 62
     7
 10
15.946696105
 20
-11.280829490
 11
15.649064721
 21
-9.059619707
  0
LINE
  8
AUFNAHME
  6
CONTINUOUS
 62
     7
 10
15.649064721
 20
-9.059619707
 11
15.416777371
 21
-6.815147835
  0
LINE
  8
AUFNAHME
  6
CONTINUOUS
 62
     7
 10
15.416777371
 20
-6.815147835
 11
15.250430492
 21
-4.553176931
  0
LINE
  8
AUFNAHME
  6
CONTINUOUS
 62
     7
 10
15.250430492
 20
-4.553176931
 11
15.150451208
 21
-2.279514983
  0
LINE
  8
AUFNAHME
  6
CONTINUOUS
 62
     7
 10
15.150451208
 20
-2.279514983
 11
15.117096231
 21
0.000000000
  0
LINE
  8
AUFNAHME
  6
CONTINUOUS
 62
     7
 10
15.117096231
 20
0.000000000
 11
15.150451208
 21
2.279514983
  0
LINE
  8
AUFNAHME
  6
CONTINUOUS
 62
     7
 10
15.150451208
 20
2.279514983
 11
15.250430492
 21
4.553176931
  0
LINE
  8
AUFNAHME
  6
CONTINUOUS
 62
     7
 10
15.250430492
 20
4.553176931
 11
15.416777371
 21
6.815147835
  0
LINE
  8
AUFNAHME
  6
CONTINUOUS
 62
     7
 10
15.416777371
 20
6.815147835
 11
15.649064721
 21
9.059619707
  0
LINE
  8
AUFNAHME
  6
CONTINUOUS
 62
     7
 10
15.649064721
 20
9.059619707
 11
15.946696105
 21
11.280829490
  0
LINE
  8
AUFNAHME
  6
CONTINUOUS
 62
     7
 10
15.946696105
 20
11.280829490
 11
16.308907306
 21
13.473073856
  0
LINE
  8
AUFNAHME
  6
CONTINUOUS
 62
     7
 10
16.308907306
 20
13.473073856
 11
16.734768285
 21
15.630723852
  0
LINE
  8
AUFNAHME
  6
CONTINUOUS
 62
     7
 10
16.734768285
 20
15.630723852
 11
17.223185572
 21
17.748239349
  0
LINE
  8
AUFNAHME
  6
CONTINUOUS
 62
     7
 10
17.223185572
 20
17.748239349
 11
17.772905076
 21
19.820183274
  0
LINE
  8
AUFNAHME
  6
CONTINUOUS
 62
     7
 10
17.772905076
 20
19.820183274
 11
18.382515299
 21
21.841235562
  0
LINE
  8
AUFNAHME
  6
CONTINUOUS
 62
     7
 10
18.382515299
 20
21.841235562
 11
19.050450964
 21
23.806206824
  0
LINE
  8
AUFNAHME
  6
CONTINUOUS
 62
     7
 10
19.050450964
 20
23.806206824
 11
19.774997036
 21
25.710051669
  0
LINE
  8
AUFNAHME
  6
CONTINUOUS
 62
     7
 10
19.774997036
 20
25.710051669
 11
20.554293121
 21
27.547881655
  0
LINE
  8
AUFNAHME
  6
CONTINUOUS
 62
     7
 10
20.554293121
 20
27.547881655
 11
21.386338246
 21
29.314977848
  0
LINE
  8
AUFNAHME
  6
CONTINUOUS
 62
     7
 10
21.386338246
 20
29.314977848
 11
22.268995996
 21
31.006802931
  0
LINE
  8
AUFNAHME
  6
CONTINUOUS
 62
     7
 10
22.268995996
 20
31.006802931
 11
23.200000000
 21
32.619012861
  0
LINE
  8
AUFNAHME
  6
CONTINUOUS
 62
     7
 10
54.000000000
 20
-32.619012861
 11
23.200000000
 21
-32.619012861
  0
LINE
  8
AUFNAHME
  6
CONTINUOUS
 62
     7
 10
79.158548116
 20
-36.323007236
 11
72.619003457
 21
-35.450948107
  0
LINE
  8
AUFNAHME
  6
CONTINUOUS
 62
     7
 10
72.619003457
 20
-35.450948107
 11
66.241704669
 21
-34.542297954
  0
LINE
  8
AUFNAHME
  6
CONTINUOUS
 62
     7
 10
66.241704669
 20
-34.542297954
 11
60.033234140
 21
-33.597994648
  0
LINE
  8
AUFNAHME
  6
CONTINUOUS
 62
     7
 10
60.033234140
 20
-33.597994648
 11
54.000000000
 21
-32.619012861
  0
LINE
  8
AUFNAHME
  6
CONTINUOUS
 62
     7
 10
82.969059892
 20
-40.400000000
 11
47.000000000
 21
-40.400000000
  0
LINE
  8
AUFNAHME
  6
CONTINUOUS
 62
     7
 10
46.303332100
 20
-43.000000000
 11
47.000000000
 21
-40.400000000
  0
LINE
  8
AUFNAHME
  6
CONTINUOUS
 62
     7
 10
46.303332100
 20
-43.000000000
 11
16.200000000
 21
-43.000000000
  0
LINE
  8
AUFNAHME
  6
CONTINUOUS
 62
     7
 10
15.333974596
 20
-44.500000000
 11
16.200000000
 21
-43.000000000
  0
LINE
  8
AUFNAHME
  6
CONTINUOUS
 62
     7
 10
1.000000000
 20
-44.500000000
 11
15.333974596
 21
-44.500000000
  0
LINE
  8
AUFNAHME
  6
CONTINUOUS
 62
     7
 10
23.200000000
 20
-32.619012861
 11
23.200000000
 21
32.619012861
  0
LINE
  8
AUFNAHME
  6
CONTINUOUS
 62
     7
 10
54.000000000
 20
-32.619012861
 11
54.000000000
 21
32.619012861
  0
LINE
  8
AUFNAHME
  6
CONTINUOUS
 62
     7
 10
80.884468640
 20
30.054658588
 11
64.886346229
 21
34.341342569
  0
ARC
  8
AUFNAHME
  6
CONTINUOUS
 62
     7
 10
79.349722619
 20
-34.666801829
 40
1.667202459
 50
-96.584466875
 51
-22.993132760
  0
CIRCLE
  8
AUFNAHME
  6
CONTINUOUS
 62
     7
 10
48.000000000
 20
0.000000000
 40
5.250000000
  0
LINE
  8
AUFNAHME
  6
CONTINUOUS
 62
     7
 10
83.200000000
 20
-32.368966619
 11
80.890598923
 21
-35.310339150
  0
LINE
  8
AUFNAHME
  6
CONTINUOUS
 62
     7
 10
83.200000000
 20
-32.368966619
 11
83.200000000
 21
29.434213830
  0
LINE
  8
AUFNAHME
  6
CONTINUOUS
 62
     7
 10
83.200000000
 20
29.434213830
 11
80.884468640
 21
30.054658588
  0
LINE
  8
AUFNAHME
  6
CONTINUOUS
 62
     7
 10
83.200000000
 20
-40.000000000
 11
83.200000000
 21
-32.368966619
  0
LINE
  8
ZAPFEN
  6
CONTINUOUS
 62
     4
 10
-44.000000000
 20
0.000000000
 11
-44.000000000
 21
23.000000000
  0
LINE
  8
ZAPFEN
  6
CONTINUOUS
 62
     4
 10
-44.000000000
 20
-23.000000000
 11
-44.000000000
 21
0.000000000
  0
LINE
  8
ZAPFEN
  6
CONTINUOUS
 62
     4
 10
-2.555056733
 20
-23.000000000
 11
-2.555056733
 21
23.000000000
  0
LINE
  8
ZAPFEN
  6
CONTINUOUS
 62
     4
 10
-46.605707514
 20
-22.633791691
 11
-46.605707514
 21
22.633791691
  0
LINE
  8
ZAPFEN
  6
CONTINUOUS
 62
     4
 10
-50.000000000
 20
-22.100000000
 11
-50.000000000
 21
22.100000000
  0
LINE
  8
ZAPFEN
  6
CONTINUOUS
 62
     4
 10
-24.896312545
 20
-6.936667654
 11
-26.014981517
 21
-5.797049204
  0
LINE
  8
ZAPFEN
  6
CONTINUOUS
 62
     4
 10
-26.014981517
 20
-5.797049204
 11
-26.929916810
 21
-4.482478241
  0
LINE
  8
ZAPFEN
  6
CONTINUOUS
 62
     4
 10
-26.929916810
 20
-4.482478241
 11
-27.608204916
 21
-3.011316513
  0
LINE
  8
ZAPFEN
  6
CONTINUOUS
 62
     4
 10
-27.608204916
 20
-3.011316513
 11
-28.017491181
 21
-1.433372104
  0
LINE
  8
ZAPFEN
  6
CONTINUOUS
 62
     4
 10
-28.017491181
 20
-1.433372104
 11
-28.132460798
 21
0.044533704
  0
LINE
  8
ZAPFEN
  6
CONTINUOUS
 62
     4
 10
-28.132460798
 20
0.044533704
 11
-28.002733117
 21
1.521045581
  0
LINE
  8
ZAPFEN
  6
CONTINUOUS
 62
     4
 10
-28.002733117
 20
1.521045581
 11
-27.658292876
 21
2.869522996
  0
LINE
  8
ZAPFEN
  6
CONTINUOUS
 62
     4
 10
-27.658292876
 20
2.869522996
 11
-27.115587468
 21
4.142924762
  0
LINE
  8
ZAPFEN
  6
CONTINUOUS
 62
     4
 10
-27.115587468
 20
4.142924762
 11
-26.352326076
 21
5.366311839
  0
LINE
  8
ZAPFEN
  6
CONTINUOUS
 62
     4
 10
-26.352326076
 20
5.366311839
 11
-25.415433926
 21
6.455145802
  0
LINE
  8
ZAPFEN
  6
CONTINUOUS
 62
     4
 10
-25.415433926
 20
6.455145802
 11
-24.206405779
 21
7.478540009
  0
LINE
  8
ZAPFEN
  6
CONTINUOUS
 62
     4
 10
-24.206405779
 20
7.478540009
 11
-22.845263426
 21
8.299086383
  0
LINE
  8
ZAPFEN
  6
CONTINUOUS
 62
     4
 10
-22.845263426
 20
8.299086383
 11
-21.264576032
 21
8.928742983
  0
LINE
  8
ZAPFEN
  6
CONTINUOUS
 62
     4
 10
-21.264576032
 20
8.928742983
 11
-19.591004446
 21
9.294444583
  0
LINE
  8
ZAPFEN
  6
CONTINUOUS
 62
     4
 10
-19.591004446
 20
9.294444583
 11
-17.921113760
 21
9.381981695
  0
LINE
  8
ZAPFEN
  6
CONTINUOUS
 62
     4
 10
-17.921113760
 20
9.381981695
 11
-16.259529329
 21
9.206274326
  0
LINE
  8
ZAPFEN
  6
CONTINUOUS
 62
     4
 10
-16.259529329
 20
9.206274326
 11
-14.706113934
 21
8.787329983
  0
LINE
  8
ZAPFEN
  6
CONTINUOUS
 62
     4
 10
-14.706113934
 20
8.787329983
 11
-13.245707075
 21
8.138111844
  0
LINE
  8
ZAPFEN
  6
CONTINUOUS
 62
     4
 10
-13.245707075
 20
8.138111844
 11
-11.867544684
 21
7.234362414
  0
LINE
  8
ZAPFEN
  6
CONTINUOUS
 62
     4
 10
-11.867544684
 20
7.234362414
 11
-10.661793731
 21
6.116845304
  0
LINE
  8
ZAPFEN
  6
CONTINUOUS
 62
     4
 10
-10.661793731
 20
6.116845304
 11
-9.644238658
 21
4.770947288
  0
LINE
  8
ZAPFEN
  6
CONTINUOUS
 62
     4
 10
-9.644238658
 20
4.770947288
 11
-8.881594242
 21
3.255227311
  0
LINE
  8
ZAPFEN
  6
CONTINUOUS
 62
     4
 10
-8.881594242
 20
3.255227311
 11
-8.438984416
 21
1.737212441
  0
LINE
  8
ZAPFEN
  6
CONTINUOUS
 62
     4
 10
-8.438984416
 20
1.737212441
 11
-8.267643066
 21
0.158405605
  0
LINE
  8
ZAPFEN
  6
CONTINUOUS
 62
     4
 10
-8.267643066
 20
0.158405605
 11
-8.357973664
 21
-1.267097352
  0
LINE
  8
ZAPFEN
  6
CONTINUOUS
 62
     4
 10
-8.357973664
 20
-1.267097352
 11
-8.671497055
 21
-2.656184506
  0
LINE
  8
ZAPFEN
  6
CONTINUOUS
 62
     4
 10
-8.671497055
 20
-2.656184506
 11
-9.189457222
 21
-3.953552805
  0
LINE
  8
ZAPFEN
  6
CONTINUOUS
 62
     4
 10
-9.189457222
 20
-3.953552805
 11
-9.893146526
 21
-5.151168371
  0
LINE
  8
ZAPFEN
  6
CONTINUOUS
 62
     4
 10
-9.893146526
 20
-5.151168371
 11
-10.840722450
 21
-6.307672945
  0
LINE
  8
ZAPFEN
  6
CONTINUOUS
 62
     4
 10
-10.840722450
 20
-6.307672945
 11
-11.954509166
 21
-7.302434221
  0
LINE
  8
ZAPFEN
  6
CONTINUOUS
 62
     4
 10
-11.954509166
 20
-7.302434221
 11
-13.341177010
 21
-8.188445999
  0
LINE
  8
ZAPFEN
  6
CONTINUOUS
 62
     4
 10
-13.341177010
 20
-8.188445999
 11
-14.862246368
 21
-8.842056166
  0
LINE
  8
ZAPFEN
  6
CONTINUOUS
 62
     4
 10
-14.862246368
 20
-8.842056166
 11
-16.519839635
 21
-9.250652718
  0
LINE
  8
ZAPFEN
  6
CONTINUOUS
 62
     4
 10
-16.519839635
 20
-9.250652718
 11
-18.229419178
 21
-9.386691954
  0
LINE
  8
ZAPFEN
  6
CONTINUOUS
 62
     4
 10
-18.229419178
 20
-9.386691954
 11
-19.860919059
 21
-9.253937611
  0
LINE
  8
ZAPFEN
  6
CONTINUOUS
 62
     4
 10
-19.860919059
 20
-9.253937611
 11
-21.445504148
 21
-8.872617061
  0
LINE
  8
ZAPFEN
  6
CONTINUOUS
 62
     4
 10
-21.445504148
 20
-8.872617061
 11
-22.935724782
 21
-8.252594816
  0
LINE
  8
ZAPFEN
  6
CONTINUOUS
 62
     4
 10
-22.935724782
 20
-8.252594816
 11
-24.301201105
 21
-7.410503910
  0
LINE
  8
ZAPFEN
  6
CONTINUOUS
 62
     4
 10
-24.301201105
 20
-7.410503910
 11
-24.896312545
 21
-6.936667654
  0
CIRCLE
  8
ZAPFEN
  6
CONTINUOUS
 62
     4
 10
-18.200000000
 20
0.000000000
 40
7.750000000
  0
LINE
  8
AUFNAHME
  6
CONTINUOUS
 62
     7
 10
76.000000000
 20
55.105000000
 11
75.974816873
 21
55.095967229
  0
LINE
  8
ZAPFEN
  6
STRICHPUNKT
 62
     4
 10
64.000000000
 20
-45.389405719
 11
64.000000000
 21
59.235819661
  0
LINE
  8
UNSICHT
  6
GESTRICHELT
 62
     1
 10
51.501000000
 20
-35.750000000
 11
51.501000000
 21
37.927935281
  0
LINE
  8
UNSICHT
  6
GESTRICHELT
 62
     1
 10
79.000000000
 20
-35.750000000
 11
49.000000000
 21
-35.750000000
  0
LINE
  8
UNSICHT
  6
GESTRICHELT
 62
     1
 10
49.000000000
 20
-35.750000000
 11
49.000000000
 21
-40.400000000
  0
LINE
  8
UNSICHT
  6
GESTRICHELT
 62
     1
 10
79.000000000
 20
-40.400000000
 11
79.000000000
 21
-35.750000000
  0
LINE
  8
UNSICHT
  6
GESTRICHELT
 62
     1
 10
76.501000000
 20
31.229205470
 11
76.501000000
 21
-35.750000000
  0
TEXT
  8
TEXT
  6
GESTRICHELT
 62
     4
 10
22.559534043
 20
-41.459005531
 40
3.500000000
  1
310.705
 50
0.000000000
 41
1.000
 51
0.000000000
  7
STANDARD
  0
LINE
  8
ZAPFEN
  6
STRICHPUNKT
 62
     4
 10
-2.214253224
 20
8.199299972
 11
63.647389528
 21
35.597957596
  0
LINE
  8
UNSICHT
  6
GESTRICHELT
 62
     1
 10
-1.999462249
 20
10.999068609
 11
58.322105008
 21
36.100225703
  0
LINE
  8
UNSICHT
  6
GESTRICHELT
 62
     1
 10
0.520879021
 20
6.633810545
 11
66.240794069
 21
33.978419364
  0
LINE
  8
ZAPFEN
  6
STRICHPUNKT
 62
     4
 10
-52.773880459
 20
0.000000000
 11
85.484804297
 21
0.000000000
  0
LINE
  8
ZAPFEN
  6
STRICHPUNKT
 62
     4
 10
48.000000000
 20
-6.931158984
 11
48.000000000
 21
8.113582031
  0
LINE
  8
UNSICHT
  6
GESTRICHELT
 62
     1
 10
-2.000000000
 20
-11.000000000
 11
-50.000000000
 21
-11.000000000
  0
LINE
  8
UNSICHT
  6
GESTRICHELT
 62
     1
 10
-2.000000000
 20
0.000000000
 11
-2.000000000
 21
-11.000000000
  0
LINE
  8
UNSICHT
  6
GESTRICHELT
 62
     1
 10
-2.000000000
 20
-11.000000000
 11
4.351000000
 21
0.000000000
  0
LINE
  8
UNSICHT
  6
GESTRICHELT
 62
     1
 10
-2.000000000
 20
11.000000000
 11
4.351000000
 21
0.000000000
  0
LINE
  8
UNSICHT
  6
GESTRICHELT
 62
     1
 10
-2.000000000
 20
0.000000000
 11
-2.000000000
 21
11.000000000
  0
LINE
  8
UNSICHT
  6
GESTRICHELT
 62
     1
 10
-2.000000000
 20
11.000000000
 11
-50.000000000
 21
11.000000000
  0
LINE
  8
MASS
  6
CONTINUOUS
 62
     4
 10
-61.655325890
 20
-23.000000000
 11
-44.000000000
 21
-23.000000000
  0
LINE
  8
MASS
  6
CONTINUOUS
 62
     4
 10
-59.655325890
 20
-23.000000000
 11
-60.105325890
 21
-19.500000000
  0
LINE
  8
MASS
  6
CONTINUOUS
 62
     4
 10
-60.105325890
 20
-19.500000000
 11
-59.205325890
 21
-19.500000000
  0
LINE
  8
MASS
  6
CONTINUOUS
 62
     4
 10
-59.205325890
 20
-19.500000000
 11
-59.655325890
 21
-23.000000000
  0
LINE
  8
MASS
  6
CONTINUOUS
 62
     4
 10
-59.655325890
 20
-19.600000000
 11
-59.655325890
 21
-22.900000000
  0
LINE
  8
MASS
  6
CONTINUOUS
 62
     4
 10
-59.455325890
 20
-19.600000000
 11
-59.455325890
 21
-21.344444444
  0
LINE
  8
MASS
  6
CONTINUOUS
 62
     4
 10
-59.855325890
 20
-19.600000000
 11
-59.855325890
 21
-21.344444444
  0
LINE
  8
MASS
  6
CONTINUOUS
 62
     4
 10
-59.255325890
 20
-19.600000000
 11
-59.255325890
 21
-19.788888889
  0
LINE
  8
MASS
  6
CONTINUOUS
 62
     4
 10
-60.055325890
 20
-19.600000000
 11
-60.055325890
 21
-19.788888889
  0
LINE
  8
MASS
  6
CONTINUOUS
 62
     4
 10
-61.655325890
 20
23.000000000
 11
-44.000000000
 21
23.000000000
  0
LINE
  8
MASS
  6
CONTINUOUS
 62
     4
 10
-59.655325890
 20
23.000000000
 11
-59.205325890
 21
19.500000000
  0
LINE
  8
MASS
  6
CONTINUOUS
 62
     4
 10
-59.205325890
 20
19.500000000
 11
-60.105325890
 21
19.500000000
  0
LINE
  8
MASS
  6
CONTINUOUS
 62
     4
 10
-60.105325890
 20
19.500000000
 11
-59.655325890
 21
23.000000000
  0
LINE
  8
MASS
  6
CONTINUOUS
 62
     4
 10
-59.655325890
 20
19.600000000
 11
-59.655325890
 21
22.900000000
  0
LINE
  8
MASS
  6
CONTINUOUS
 62
     4
 10
-59.855325890
 20
19.600000000
 11
-59.855325890
 21
21.344444444
  0
LINE
  8
MASS
  6
CONTINUOUS
 62
     4
 10
-59.455325890
 20
19.600000000
 11
-59.455325890
 21
21.344444444
  0
LINE
  8
MASS
  6
CONTINUOUS
 62
     4
 10
-60.055325890
 20
19.600000000
 11
-60.055325890
 21
19.788888889
  0
LINE
  8
MASS
  6
CONTINUOUS
 62
     4
 10
-59.255325890
 20
19.600000000
 11
-59.255325890
 21
19.788888889
  0
LINE
  8
MASS
  6
CONTINUOUS
 62
     4
 10
-59.655325890
 20
-19.500000000
 11
-59.655325890
 21
19.500000000
  0
TEXT
  8
MASS
  6
CONTINUOUS
 62
     4
 10
-61.155325890
 20
0.139999486
 40
3.500000000
  1
46
 50
90.000000000
 41
1.000
 51
0.000000000
  7
STANDARD
  0
CIRCLE
  8
MASS
  6
CONTINUOUS
 62
     4
 10
-62.405325890
 20
-2.110000514
 40
1.250000000
  0
LINE
  8
MASS
  6
CONTINUOUS
 62
     4
 10
-61.155325890
 20
-3.360000514
 11
-63.655325890
 21
-0.860000514
  0
LINE
  8
MASS
  6
CONTINUOUS
 62
     4
 10
-68.956146240
 20
-44.500000000
 11
1.000000000
 21
-44.500000000
  0
LINE
  8
MASS
  6
CONTINUOUS
 62
     4
 10
-66.956146240
 20
-44.500000000
 11
-67.406146240
 21
-41.000000000
  0
LINE
  8
MASS
  6
CONTINUOUS
 62
     4
 10
-67.406146240
 20
-41.000000000
 11
-66.506146240
 21
-41.000000000
  0
LINE
  8
MASS
  6
CONTINUOUS
 62
     4
 10
-66.506146240
 20
-41.000000000
 11
-66.956146240
 21
-44.500000000
  0
LINE
  8
MASS
  6
CONTINUOUS
 62
     4
 10
-66.956146240
 20
-41.100000000
 11
-66.956146240
 21
-44.400000000
  0
LINE
  8
MASS
  6
CONTINUOUS
 62
     4
 10
-66.756146240
 20
-41.100000000
 11
-66.756146240
 21
-42.844444444
  0
LINE
  8
MASS
  6
CONTINUOUS
 62
     4
 10
-67.156146240
 20
-41.100000000
 11
-67.156146240
 21
-42.844444444
  0
LINE
  8
MASS
  6
CONTINUOUS
 62
     4
 10
-66.556146240
 20
-41.100000000
 11
-66.556146240
 21
-41.288888889
  0
LINE
  8
MASS
  6
CONTINUOUS
 62
     4
 10
-67.356146240
 20
-41.100000000
 11
-67.356146240
 21
-41.288888889
  0
LINE
  8
MASS
  6
CONTINUOUS
 62
     4
 10
-68.956146240
 20
45.000000000
 11
1.000000000
 21
45.000000000
  0
LINE
  8
MASS
  6
CONTINUOUS
 62
     4
 10
-66.956146240
 20
45.000000000
 11
-66.506146240
 21
41.500000000
  0
LINE
  8
MASS
  6
CONTINUOUS
 62
     4
 10
-66.506146240
 20
41.500000000
 11
-67.406146240
 21
41.500000000
  0
LINE
  8
MASS
  6
CONTINUOUS
 62
     4
 10
-67.406146240
 20
41.500000000
 11
-66.956146240
 21
45.000000000
  0
LINE
  8
MASS
  6
CONTINUOUS
 62
     4
 10
-66.956146240
 20
41.600000000
 11
-66.956146240
 21
44.900000000
  0
LINE
  8
MASS
  6
CONTINUOUS
 62
     4
 10
-67.156146240
 20
41.600000000
 11
-67.156146240
 21
43.344444444
  0
LINE
  8
MASS
  6
CONTINUOUS
 62
     4
 10
-66.756146240
 20
41.600000000
 11
-66.756146240
 21
43.344444444
  0
LINE
  8
MASS
  6
CONTINUOUS
 62
     4
 10
-67.356146240
 20
41.600000000
 11
-67.356146240
 21
41.788888889
  0
LINE
  8
MASS
  6
CONTINUOUS
 62
     4
 10
-66.556146240
 20
41.600000000
 11
-66.556146240
 21
41.788888889
  0
LINE
  8
MASS
  6
CONTINUOUS
 62
     4
 10
-66.956146240
 20
-41.000000000
 11
-66.956146240
 21
41.500000000
  0
TEXT
  8
MASS
  6
CONTINUOUS
 62
     4
 10
-68.456146240
 20
0.389999000
 40
3.500000000
  1
90
 50
90.000000000
 41
1.000
 51
0.000000000
  7
STANDARD
  0
CIRCLE
  8
MASS
  6
CONTINUOUS
 62
     4
 10
-69.706146240
 20
-1.860001000
 40
1.250000000
  0
LINE
  8
MASS
  6
CONTINUOUS
 62
     4
 10
-68.456146240
 20
-3.110001000
 11
-70.956146240
 21
-0.610001000
  0
LINE
  8
MASS
  6
CONTINUOUS
 62
     4
 10
0.000000000
 20
-56.110063553
 11
0.000000000
 21
-44.000000000
  0
LINE
  8
MASS
  6
CONTINUOUS
 62
     4
 10
0.000000000
 20
-54.110063553
 11
3.500000000
 21
-53.660063553
  0
LINE
  8
MASS
  6
CONTINUOUS
 62
     4
 10
3.500000000
 20
-53.660063553
 11
3.500000000
 21
-54.560063553
  0
LINE
  8
MASS
  6
CONTINUOUS
 62
     4
 10
3.500000000
 20
-54.560063553
 11
0.000000000
 21
-54.110063553
  0
LINE
  8
MASS
  6
CONTINUOUS
 62
     4
 10
3.400000000
 20
-54.110063553
 11
0.100000000
 21
-54.110063553
  0
LINE
  8
MASS
  6
CONTINUOUS
 62
     4
 10
3.400000000
 20
-54.310063553
 11
1.655555556
 21
-54.310063553
  0
LINE
  8
MASS
  6
CONTINUOUS
 62
     4
 10
3.400000000
 20
-53.910063553
 11
1.655555556
 21
-53.910063553
  0
LINE
  8
MASS
  6
CONTINUOUS
 62
     4
 10
3.400000000
 20
-54.510063553
 11
3.211111111
 21
-54.510063553
  0
LINE
  8
MASS
  6
CONTINUOUS
 62
     4
 10
3.400000000
 20
-53.710063553
 11
3.211111111
 21
-53.710063553
  0
LINE
  8
MASS
  6
CONTINUOUS
 62
     4
 10
83.200000000
 20
-56.110063553
 11
83.200000000
 21
-40.000000000
  0
LINE
  8
MASS
  6
CONTINUOUS
 62
     4
 10
83.200000000
 20
-54.110063553
 11
79.700000000
 21
-54.560063553
  0
LINE
  8
MASS
  6
CONTINUOUS
 62
     4
 10
79.700000000
 20
-54.560063553
 11
79.700000000
 21
-53.660063553
  0
LINE
  8
MASS
  6
CONTINUOUS
 62
     4
 10
79.700000000
 20
-53.660063553
 11
83.200000000
 21
-54.110063553
  0
LINE
  8
MASS
  6
CONTINUOUS
 62
     4
 10
79.800000000
 20
-54.110063553
 11
83.100000000
 21
-54.110063553
  0
LINE
  8
MASS
  6
CONTINUOUS
 62
     4
 10
79.800000000
 20
-53.910063553
 11
81.544444444
 21
-53.910063553
  0
LINE
  8
MASS
  6
CONTINUOUS
 62
     4
 10
79.800000000
 20
-54.310063553
 11
81.544444444
 21
-54.310063553
  0
LINE
  8
MASS
  6
CONTINUOUS
 62
     4
 10
79.800000000
 20
-53.710063553
 11
79.988888889
 21
-53.710063553
  0
LINE
  8
MASS
  6
CONTINUOUS
 62
     4
 10
79.800000000
 20
-54.510063553
 11
79.988888889
 21
-54.510063553
  0
LINE
  8
MASS
  6
CONTINUOUS
 62
     4
 10
3.500000000
 20
-54.110063553
 11
79.700000000
 21
-54.110063553
  0
TEXT
  8
MASS
  6
CONTINUOUS
 62
     4
 10
38.513436570
 20
-52.610063553
 40
3.500000000
  1
83.2
 50
0.000000000
 41
1.000
 51
0.000000000
  7
STANDARD
  0
LINE
  8
MASS
  6
CONTINUOUS
 62
     4
 10
0.000000000
 20
67.029394150
 11
0.000000000
 21
44.000000000
  0
LINE
  8
MASS
  6
CONTINUOUS
 62
     4
 10
0.000000000
 20
65.029394150
 11
3.500000003
 21
65.479394130
  0
LINE
  8
MASS
  6
CONTINUOUS
 62
     4
 10
3.500000003
 20
65.479394130
 11
3.499999997
 21
64.579394130
  0
LINE
  8
MASS
  6
CONTINUOUS
 62
     4
 10
3.499999997
 20
64.579394130
 11
0.000000000
 21
65.029394150
  0
LINE
  8
MASS
  6
CONTINUOUS
 62
     4
 10
3.400000000
 20
65.029394130
 11
0.100000000
 21
65.029394149
  0
LINE
  8
MASS
  6
CONTINUOUS
 62
     4
 10
3.399999999
 20
64.829394130
 11
1.655555554
 21
64.829394140
  0
LINE
  8
MASS
  6
CONTINUOUS
 62
     4
 10
3.400000001
 20
65.229394130
 11
1.655555557
 21
65.229394140
  0
LINE
  8
MASS
  6
CONTINUOUS
 62
     4
 10
3.399999998
 20
64.629394130
 11
3.211111109
 21
64.629394131
  0
LINE
  8
MASS
  6
CONTINUOUS
 62
     4
 10
3.400000002
 20
65.429394130
 11
3.211111113
 21
65.429394131
  0
LINE
  8
MASS
  6
CONTINUOUS
 62
     4
 10
40.981839179
 20
67.029393914
 11
40.981839179
 21
59.600163224
  0
LINE
  8
MASS
  6
CONTINUOUS
 62
     4
 10
40.981839179
 20
65.029393914
 11
37.481839176
 21
64.579393935
  0
LINE
  8
MASS
  6
CONTINUOUS
 62
     4
 10
37.481839176
 20
64.579393935
 11
37.481839182
 21
65.479393935
  0
LINE
  8
MASS
  6
CONTINUOUS
 62
     4
 10
37.481839182
 20
65.479393935
 11
40.981839179
 21
65.029393914
  0
LINE
  8
MASS
  6
CONTINUOUS
 62
     4
 10
37.581839179
 20
65.029393934
 11
40.881839179
 21
65.029393915
  0
LINE
  8
MASS
  6
CONTINUOUS
 62
     4
 10
37.581839180
 20
65.229393934
 11
39.326283625
 21
65.229393924
  0
LINE
  8
MASS
  6
CONTINUOUS
 62
     4
 10
37.581839178
 20
64.829393934
 11
39.326283622
 21
64.829393924
  0
LINE
  8
MASS
  6
CONTINUOUS
 62
     4
 10
37.581839181
 20
65.429393934
 11
37.770728070
 21
65.429393933
  0
LINE
  8
MASS
  6
CONTINUOUS
 62
     4
 10
37.581839177
 20
64.629393934
 11
37.770728066
 21
64.629393933
  0
LINE
  8
MASS
  6
CONTINUOUS
 62
     4
 10
3.500000000
 20
65.029394130
 11
37.481839179
 21
65.029393935
  0
TEXT
  8
MASS
  6
CONTINUOUS
 62
     4
 10
19.209044140
 20
66.529394039
 40
3.500000000
  1
41
 50
359.999999671
 41
1.000
 51
0.000000000
  7
STANDARD
  0
LINE
  8
MASS
  6
CONTINUOUS
 62
     4
 10
97.101690674
 20
60.000165695
 11
40.581839179
 21
60.000163224
  0
LINE
  8
MASS
  6
CONTINUOUS
 62
     4
 10
95.101690674
 20
60.000165608
 11
95.551690827
 21
56.500165627
  0
LINE
  8
MASS
  6
CONTINUOUS
 62
     4
 10
95.551690827
 20
56.500165627
 11
94.651690827
 21
56.500165588
  0
LINE
  8
MASS
  6
CONTINUOUS
 62
     4
 10
94.651690827
 20
56.500165588
 11
95.101690674
 21
60.000165608
  0
LINE
  8
MASS
  6
CONTINUOUS
 62
     4
 10
95.101690823
 20
56.600165608
 11
95.101690678
 21
59.900165608
  0
LINE
  8
MASS
  6
CONTINUOUS
 62
     4
 10
94.901690823
 20
56.600165599
 11
94.901690746
 21
58.344610043
  0
LINE
  8
MASS
  6
CONTINUOUS
 62
     4
 10
95.301690823
 20
56.600165616
 11
95.301690746
 21
58.344610061
  0
LINE
  8
MASS
  6
CONTINUOUS
 62
     4
 10
94.701690823
 20
56.600165590
 11
94.701690814
 21
56.789054479
  0
LINE
  8
MASS
  6
CONTINUOUS
 62
     4
 10
95.501690823
 20
56.600165625
 11
95.501690814
 21
56.789054514
  0
LINE
  8
MASS
  6
CONTINUOUS
 62
     4
 10
95.101693559
 20
-6.000016098
 11
95.101690827
 21
56.500165608
  0
TEXT
  8
MASS
  6
CONTINUOUS
 62
     4
 10
93.654860691
 20
-3.896397403
 40
3.500000000
  1
112
 50
90.000002504
 41
1.000
 51
0.000000000
  7
STANDARD
  0
CIRCLE
  8
MASS
  6
CONTINUOUS
 62
     4
 10
92.404860789
 20
-6.146397458
 40
1.250000000
  0
LINE
  8
MASS
  6
CONTINUOUS
 62
     4
 10
93.654860844
 20
-7.396397403
 11
91.154860735
 21
-4.896397512
  0
TEXT
  8
MASS
  6
CONTINUOUS
 62
     4
 10
93.654860449
 20
1.643915097
 40
3.500000000
  1
-153
 50
90.000002504
 41
1.000
 51
0.000000000
  7
STANDARD
  0
LINE
  8
ZAPFEN
  6
STRICHPUNKT
 62
     4
 10
-18.200000000
 20
-12.014293895
 11
-18.200000000
 21
11.882934178
  0
ENDSEC
  0
EOF
