  0
SECTION
  2
HEADER
  9
$ACADVER
  1
AC1015
  9
$ACADMAINTVER
 70
     6
  9
$DWGCODEPAGE
  3
ANSI_1252
  9
$INSBASE
 10
0.0
 20
0.0
 30
0.0
  9
$EXTMIN
 10
-162.6712645567923
 20
-93.74447508657262
 30
0.0
  9
$EXTMAX
 10
185.9613241339165
 20
118.5675506385515
 30
0.0
  9
$LIMMIN
 10
-115.803002577
 20
-74.051838864
  9
$LIMMAX
 10
137.674944697
 20
87.429455921
  9
$ORTHOMODE
 70
     0
  9
$REGENMODE
 70
     1
  9
$FILLMODE
 70
     1
  9
$QTEXTMODE
 70
     0
  9
$MIRRTEXT
 70
     1
  9
$LTSCALE
 40
1.0
  9
$ATTMODE
 70
     1
  9
$TEXTSIZE
 40
0.2
  9
$TRACEWID
 40
0.05
  9
$TEXTSTYLE
  7
Standard
  9
$CLAYER
  8
1
  9
$CELTYPE
  6
ByLayer
  9
$CECOLOR
 62
   256
  9
$CELTSCALE
 40
1.0
  9
$DISPSILH
 70
     0
  9
$DIMSCALE
 40
1.0
  9
$DIMASZ
 40
0.18
  9
$DIMEXO
 40
0.0625
  9
$DIMDLI
 40
0.38
  9
$DIMRND
 40
0.0
  9
$DIMDLE
 40
0.0
  9
$DIMEXE
 40
0.18
  9
$DIMTP
 40
0.0
  9
$DIMTM
 40
0.0
  9
$DIMTXT
 40
0.18
  9
$DIMCEN
 40
0.09
  9
$DIMTSZ
 40
0.0
  9
$DIMTOL
 70
     0
  9
$DIMLIM
 70
     0
  9
$DIMTIH
 70
     1
  9
$DIMTOH
 70
     1
  9
$DIMSE1
 70
     0
  9
$DIMSE2
 70
     0
  9
$DIMTAD
 70
     0
  9
$DIMZIN
 70
     0
  9
$DIMBLK
  1

  9
$DIMASO
 70
     1
  9
$DIMSHO
 70
     1
  9
$DIMPOST
  1

  9
$DIMAPOST
  1

  9
$DIMALT
 70
     0
  9
$DIMALTD
 70
     2
  9
$DIMALTF
 40
25.4
  9
$DIMLFAC
 40
1.0
  9
$DIMTOFL
 70
     0
  9
$DIMTVP
 40
0.0
  9
$DIMTIX
 70
     0
  9
$DIMSOXD
 70
     0
  9
$DIMSAH
 70
     0
  9
$DIMBLK1
  1

  9
$DIMBLK2
  1

  9
$DIMSTYLE
  2
Standard
  9
$DIMCLRD
 70
     0
  9
$DIMCLRE
 70
     0
  9
$DIMCLRT
 70
     0
  9
$DIMTFAC
 40
1.0
  9
$DIMGAP
 40
0.09
  9
$DIMJUST
 70
     0
  9
$DIMSD1
 70
     0
  9
$DIMSD2
 70
     0
  9
$DIMTOLJ
 70
     1
  9
$DIMTZIN
 70
     0
  9
$DIMALTZ
 70
     0
  9
$DIMALTTZ
 70
     0
  9
$DIMUPT
 70
     0
  9
$DIMDEC
 70
     4
  9
$DIMTDEC
 70
     4
  9
$DIMALTU
 70
     2
  9
$DIMALTTD
 70
     2
  9
$DIMTXSTY
  7
Standard
  9
$DIMAUNIT
 70
     0
  9
$DIMADEC
 70
     0
  9
$DIMALTRND
 40
0.0
  9
$DIMAZIN
 70
     0
  9
$DIMDSEP
 70
    46
  9
$DIMATFIT
 70
     3
  9
$DIMFRAC
 70
     0
  9
$DIMLDRBLK
  1

  9
$DIMLUNIT
 70
     2
  9
$DIMLWD
 70
    -2
  9
$DIMLWE
 70
    -2
  9
$DIMTMOVE
 70
     2
  9
$LUNITS
 70
     2
  9
$LUPREC
 70
     4
  9
$SKETCHINC
 40
0.1
  9
$FILLETRAD
 40
0.5
  9
$AUNITS
 70
     2
  9
$AUPREC
 70
     0
  9
$MENU
  1
.
  9
$ELEVATION
 40
0.0
  9
$PELEVATION
 40
0.0
  9
$THICKNESS
 40
0.0
  9
$LIMCHECK
 70
     0
  9
$CHAMFERA
 40
0.5
  9
$CHAMFERB
 40
0.5
  9
$CHAMFERC
 40
1.0
  9
$CHAMFERD
 40
0.0
  9
$SKPOLY
 70
     0
  9
$TDCREATE
 40
2458327.549315486
  9
$TDUCREATE
 40
2458327.465982153
  9
$TDUPDATE
 40
2458589.59159228
  9
$TDUUPDATE
 40
2458589.508258947
  9
$TDINDWG
 40
0.0097690856
  9
$TDUSRTIMER
 40
0.0000845139
  9
$USRTIMER
 70
     1
  9
$ANGBASE
 50
0.0
  9
$ANGDIR
 70
     0
  9
$PDMODE
 70
     0
  9
$PDSIZE
 40
0.0
  9
$PLINEWID
 40
0.0
  9
$SPLFRAME
 70
     0
  9
$SPLINETYPE
 70
     6
  9
$SPLINESEGS
 70
     8
  9
$HANDSEED
  5
29D
  9
$SURFTAB1
 70
     6
  9
$SURFTAB2
 70
     6
  9
$SURFTYPE
 70
     6
  9
$SURFU
 70
     6
  9
$SURFV
 70
     6
  9
$UCSBASE
  2

  9
$UCSNAME
  2

  9
$UCSORG
 10
0.0
 20
0.0
 30
0.0
  9
$UCSXDIR
 10
1.0
 20
0.0
 30
0.0
  9
$UCSYDIR
 10
0.0
 20
1.0
 30
0.0
  9
$UCSORTHOREF
  2

  9
$UCSORTHOVIEW
 70
     0
  9
$UCSORGTOP
 10
0.0
 20
0.0
 30
0.0
  9
$UCSORGBOTTOM
 10
0.0
 20
0.0
 30
0.0
  9
$UCSORGLEFT
 10
0.0
 20
0.0
 30
0.0
  9
$UCSORGRIGHT
 10
0.0
 20
0.0
 30
0.0
  9
$UCSORGFRONT
 10
0.0
 20
0.0
 30
0.0
  9
$UCSORGBACK
 10
0.0
 20
0.0
 30
0.0
  9
$PUCSBASE
  2

  9
$PUCSNAME
  2

  9
$PUCSORG
 10
0.0
 20
0.0
 30
0.0
  9
$PUCSXDIR
 10
1.0
 20
0.0
 30
0.0
  9
$PUCSYDIR
 10
0.0
 20
1.0
 30
0.0
  9
$PUCSORTHOREF
  2

  9
$PUCSORTHOVIEW
 70
     0
  9
$PUCSORGTOP
 10
0.0
 20
0.0
 30
0.0
  9
$PUCSORGBOTTOM
 10
0.0
 20
0.0
 30
0.0
  9
$PUCSORGLEFT
 10
0.0
 20
0.0
 30
0.0
  9
$PUCSORGRIGHT
 10
0.0
 20
0.0
 30
0.0
  9
$PUCSORGFRONT
 10
0.0
 20
0.0
 30
0.0
  9
$PUCSORGBACK
 10
0.0
 20
0.0
 30
0.0
  9
$USERI1
 70
     0
  9
$USERI2
 70
     0
  9
$USERI3
 70
     0
  9
$USERI4
 70
     0
  9
$USERI5
 70
     0
  9
$USERR1
 40
0.0
  9
$USERR2
 40
0.0
  9
$USERR3
 40
0.0
  9
$USERR4
 40
0.0
  9
$USERR5
 40
0.0
  9
$WORLDVIEW
 70
     1
  9
$SHADEDGE
 70
     3
  9
$SHADEDIF
 70
    70
  9
$TILEMODE
 70
     1
  9
$MAXACTVP
 70
    64
  9
$PINSBASE
 10
0.0
 20
0.0
 30
0.0
  9
$PLIMCHECK
 70
     0
  9
$PEXTMIN
 10
1.000000000000000E+20
 20
1.000000000000000E+20
 30
1.000000000000000E+20
  9
$PEXTMAX
 10
-1.000000000000000E+20
 20
-1.000000000000000E+20
 30
-1.000000000000000E+20
  9
$PLIMMIN
 10
0.0
 20
0.0
  9
$PLIMMAX
 10
0.0
 20
0.0
  9
$UNITMODE
 70
     0
  9
$VISRETAIN
 70
     1
  9
$PLINEGEN
 70
     0
  9
$PSLTSCALE
 70
     1
  9
$TREEDEPTH
 70
  3020
  9
$CMLSTYLE
  2
Standard
  9
$CMLJUST
 70
     0
  9
$CMLSCALE
 40
1.0
  9
$PROXYGRAPHICS
 70
     1
  9
$MEASUREMENT
 70
     0
  9
$CELWEIGHT
370
    -1
  9
$ENDCAPS
280
     0
  9
$JOINSTYLE
280
     0
  9
$LWDISPLAY
290
     0
  9
$INSUNITS
 70
     0
  9
$HYPERLINKBASE
  1

  9
$STYLESHEET
  1

  9
$XEDIT
290
     1
  9
$CEPSNTYPE
380
     0
  9
$PSTYLEMODE
290
     1
  9
$FINGERPRINTGUID
  2
{F7F1247D-46CA-42E5-9E44-49569B8B4D82}
  9
$VERSIONGUID
  2
{FAEB1C32-E019-11D5-929B-00C0DF256EC4}
  9
$EXTNAMES
290
     1
  9
$PSVPSCALE
 40
0.0
  9
$OLESTARTUP
290
     0
  0
ENDSEC
  0
SECTION
  2
CLASSES
  0
CLASS
  1
ACDBDICTIONARYWDFLT
  2
AcDbDictionaryWithDefault
  3
ObjectDBX Classes
 90
        0
280
     0
281
     0
  0
CLASS
  1
SCALE
  2
AcDbScale
  3
ObjectDBX Classes
 90
     1153
280
     0
281
     0
  0
CLASS
  1
VISUALSTYLE
  2
AcDbVisualStyle
  3
ObjectDBX Classes
 90
     4095
280
     0
281
     0
  0
CLASS
  1
MATERIAL
  2
AcDbMaterial
  3
ObjectDBX Classes
 90
     1153
280
     0
281
     0
  0
CLASS
  1
DICTIONARYVAR
  2
AcDbDictionaryVar
  3
ObjectDBX Classes
 90
        0
280
     0
281
     0
  0
CLASS
  1
ACDBPLACEHOLDER
  2
AcDbPlaceHolder
  3
ObjectDBX Classes
 90
        0
280
     0
281
     0
  0
CLASS
  1
LAYOUT
  2
AcDbLayout
  3
ObjectDBX Classes
 90
        0
280
     0
281
     0
  0
CLASS
  1
TABLESTYLE
  2
AcDbTableStyle
  3
ObjectDBX Classes
 90
     4095
280
     0
281
     0
  0
CLASS
  1
MLEADERSTYLE
  2
AcDbMLeaderStyle
  3
ACDB_MLEADERSTYLE_CLASS
 90
     4095
280
     0
281
     0
  0
CLASS
  1
CELLSTYLEMAP
  2
AcDbCellStyleMap
  3
ObjectDBX Classes
 90
     1152
280
     0
281
     0
  0
CLASS
  1
SUN
  2
AcDbSun
  3
SCENEOE
 90
     1153
280
     0
281
     0
  0
CLASS
  1
SORTENTSTABLE
  2
AcDbSortentsTable
  3
ObjectDBX Classes
 90
        0
280
     0
281
     0
  0
ENDSEC
  0
SECTION
  2
TABLES
  0
TABLE
  2
VPORT
  5
8
330
0
100
AcDbSymbolTable
 70
     1
  0
VPORT
  5
F3
330
8
100
AcDbSymbolTableRecord
100
AcDbViewportTableRecord
  2
*Active
 70
     0
 10
0.0
 20
0.0
 11
1.0
 21
1.0
 12
83.75194675940247
 22
-7.426860151073782
 13
0.0
 23
0.0
 14
0.5
 24
0.5
 15
0.5
 25
0.5
 16
0.0
 26
0.0
 36
1.0
 17
0.0
 27
0.0
 37
0.0
 40
428.8006814645091
 41
1.70021645021645
 42
50.0
 43
0.0
 44
0.0
 50
0.0
 51
0.0
 71
    16
 72
   100
 73
     1
 74
     3
 75
     0
 76
     0
 77
     0
 78
     0
281
     0
 65
     1
110
0.0
120
0.0
130
0.0
111
1.0
121
0.0
131
0.0
112
0.0
122
1.0
132
0.0
 79
     0
146
0.0
  0
ENDTAB
  0
TABLE
  2
LTYPE
  5
5
330
0
100
AcDbSymbolTable
 70
     8
  0
LTYPE
  5
14
330
5
100
AcDbSymbolTableRecord
100
AcDbLinetypeTableRecord
  2
ByBlock
 70
     0
  3

 72
    65
 73
     0
 40
0.0
  0
LTYPE
  5
15
330
5
100
AcDbSymbolTableRecord
100
AcDbLinetypeTableRecord
  2
ByLayer
 70
     0
  3

 72
    65
 73
     0
 40
0.0
  0
LTYPE
  5
16
330
5
100
AcDbSymbolTableRecord
100
AcDbLinetypeTableRecord
  2
Continuous
 70
     0
  3
Solid line
 72
    65
 73
     0
 40
0.0
  0
LTYPE
  5
20
330
5
100
AcDbSymbolTableRecord
100
AcDbLinetypeTableRecord
  2
PUNKT
 70
     0
  3
..............
 72
    65
 73
     2
 40
1.5
 49
0.7
 74
     0
 49
-0.8
 74
     0
  0
LTYPE
  5
21
330
5
100
AcDbSymbolTableRecord
100
AcDbLinetypeTableRecord
  2
GESTRICHELT
 70
     0
  3
-- -- -- -- --
 72
    65
 73
     7
 40
2.8
 49
0.9
 74
     0
 49
0.0
 74
     0
 49
0.9
 74
     0
 49
0.0
 74
     0
 49
0.2
 74
     0
 49
0.0
 74
     0
 49
-0.8
 74
     0
  0
LTYPE
  5
22
330
5
100
AcDbSymbolTableRecord
100
AcDbLinetypeTableRecord
  2
STRICHPUNKT
 70
     0
  3
--.--.--.--.--
 72
    65
 73
     4
 40
8.8
 49
5.5
 74
     0
 49
-1.3
 74
     0
 49
0.7
 74
     0
 49
-1.3
 74
     0
  0
LTYPE
  5
25
330
5
100
AcDbSymbolTableRecord
100
AcDbLinetypeTableRecord
  2
PHANTOM
 70
     0
  3
--..--..--..--
 72
    65
 73
     6
 40
14.2
 49
7.0
 74
     0
 49
-1.8
 74
     0
 49
0.9
 74
     0
 49
-1.8
 74
     0
 49
0.9
 74
     0
 49
-1.8
 74
     0
  0
LTYPE
  5
16B
330
5
100
AcDbSymbolTableRecord
100
AcDbLinetypeTableRecord
  2
DASH
 70
     0
  3
DASH _ _ _ _ _
 72
    65
 73
     2
 40
0.75
 49
0.4
 74
     0
 49
-0.35
 74
     0
  0
LTYPE
  5
16C
330
5
100
AcDbSymbolTableRecord
100
AcDbLinetypeTableRecord
  2
LONGDASH_DASH
 70
     0
  3
LONGDASH_DASH __ . __ . __
 72
    65
 73
     4
 40
0.85
 49
0.4
 74
     0
 49
-0.2
 74
     0
 49
0.05
 74
     0
 49
-0.2
 74
     0
  0
LTYPE
  5
16D
330
5
100
AcDbSymbolTableRecord
100
AcDbLinetypeTableRecord
  2
LONGDASH_DASH_DASH
 70
     0
  3
LONGDASH_DASH_DASH __ . . __ . . __
 72
    65
 73
     6
 40
1.1
 49
0.4
 74
     0
 49
-0.2
 74
     0
 49
0.05
 74
     0
 49
-0.2
 74
     0
 49
0.05
 74
     0
 49
-0.2
 74
     0
  0
ENDTAB
  0
TABLE
  2
LAYER
  5
2
102
{ACAD_XDICTIONARY
360
18F
102
}
330
0
100
AcDbSymbolTable
 70
    16
  0
LAYER
  5
135
330
2
100
AcDbSymbolTableRecord
100
AcDbLayerTableRecord
  2
200
 70
     0
 62
     2
  6
Continuous
370
    50
390
F
  0
LAYER
  5
16E
330
2
100
AcDbSymbolTableRecord
100
AcDbLayerTableRecord
  2
0
 70
     0
 62
     1
  6
Continuous
370
    -3
390
F
  0
LAYER
  5
16F
330
2
100
AcDbSymbolTableRecord
100
AcDbLayerTableRecord
  2
1
 70
     0
 62
     4
  6
Continuous
370
    50
390
F
  0
LAYER
  5
170
330
2
100
AcDbSymbolTableRecord
100
AcDbLayerTableRecord
  2
2
 70
     0
 62
     7
  6
Continuous
370
    25
390
F
  0
LAYER
  5
171
330
2
100
AcDbSymbolTableRecord
100
AcDbLayerTableRecord
  2
3
 70
     0
 62
     1
  6
DASH
370
    35
390
F
  0
LAYER
  5
172
330
2
100
AcDbSymbolTableRecord
100
AcDbLayerTableRecord
  2
4
 70
     0
 62
     2
  6
LONGDASH_DASH
370
    25
390
F
  0
LAYER
  5
173
330
2
100
AcDbSymbolTableRecord
100
AcDbLayerTableRecord
  2
6
 70
     0
 62
     5
  6
Continuous
370
    -3
390
F
  0
LAYER
  5
174
330
2
100
AcDbSymbolTableRecord
100
AcDbLayerTableRecord
  2
CUT
 70
     0
 62
     1
  6
Continuous
370
    25
390
F
  0
LAYER
  5
175
330
2
100
AcDbSymbolTableRecord
100
AcDbLayerTableRecord
  2
NOCUT
 70
     0
 62
     7
  6
Continuous
370
    25
390
F
  0
LAYER
  5
176
330
2
100
AcDbSymbolTableRecord
100
AcDbLayerTableRecord
  2
SK1
 70
     0
 62
     4
  6
Continuous
370
    50
390
F
  0
LAYER
  5
177
330
2
100
AcDbSymbolTableRecord
100
AcDbLayerTableRecord
  2
SK2
 70
     0
 62
     7
  6
Continuous
370
    25
390
F
  0
LAYER
  5
178
330
2
100
AcDbSymbolTableRecord
100
AcDbLayerTableRecord
  2
SK3
 70
     0
 62
     1
  6
DASH
370
    35
390
F
  0
LAYER
  5
179
330
2
100
AcDbSymbolTableRecord
100
AcDbLayerTableRecord
  2
SK4
 70
     0
 62
     2
  6
LONGDASH_DASH
370
    25
390
F
  0
LAYER
  5
17A
330
2
100
AcDbSymbolTableRecord
100
AcDbLayerTableRecord
  2
SK6
 70
     0
 62
     5
  6
Continuous
370
    -3
390
F
  0
LAYER
  5
17B
330
2
100
AcDbSymbolTableRecord
100
AcDbLayerTableRecord
  2
INFTOTAL
 70
     0
 62
     9
  6
Continuous
370
    18
390
F
  0
LAYER
  5
289
330
2
100
AcDbSymbolTableRecord
100
AcDbLayerTableRecord
  2
7
 70
     0
 62
     5
  6
Continuous
370
    -3
390
F
1001
AcAecLayerStandard
1000

1000

  0
ENDTAB
  0
TABLE
  2
STYLE
  5
3
330
0
100
AcDbSymbolTable
 70
     2
  0
STYLE
  5
11
330
3
100
AcDbSymbolTableRecord
100
AcDbTextStyleTableRecord
  2
Standard
 70
     0
 40
0.0
 41
1.0
 50
0.0
 71
     0
 42
0.2
  3
txt
  4

  0
STYLE
  5
134
330
3
100
AcDbSymbolTableRecord
100
AcDbTextStyleTableRecord
  2
BMG_Text
 70
     0
 40
3.5
 41
1.0
 50
0.0
 71
     0
 42
0.2
  3
monos.ttf
  4

1001
ACAD
1000
Monospac821 BT
1071
       49
  0
ENDTAB
  0
TABLE
  2
VIEW
  5
6
330
0
100
AcDbSymbolTable
 70
     0
  0
ENDTAB
  0
TABLE
  2
UCS
  5
7
330
0
100
AcDbSymbolTable
 70
     0
  0
ENDTAB
  0
TABLE
  2
APPID
  5
9
330
0
100
AcDbSymbolTable
 70
     2
  0
APPID
  5
12
330
9
100
AcDbSymbolTableRecord
100
AcDbRegAppTableRecord
  2
ACAD
 70
     0
  0
APPID
  5
28A
330
9
100
AcDbSymbolTableRecord
100
AcDbRegAppTableRecord
  2
AcAecLayerStandard
 70
     0
  0
ENDTAB
  0
TABLE
  2
DIMSTYLE
  5
A
330
0
100
AcDbSymbolTable
 70
     1
100
AcDbDimStyleTable
  0
DIMSTYLE
105
28
330
A
100
AcDbSymbolTableRecord
100
AcDbDimStyleTableRecord
  2
Standard
 70
     0
178
     0
340
11
  0
ENDTAB
  0
TABLE
  2
BLOCK_RECORD
  5
1
330
0
100
AcDbSymbolTable
 70
     0
  0
BLOCK_RECORD
  5
1D
102
{ACAD_XDICTIONARY
360
28E
102
}
330
1
100
AcDbSymbolTableRecord
100
AcDbBlockTableRecord
  2
*Model_Space
340
1E
  0
BLOCK_RECORD
  5
1B
330
1
100
AcDbSymbolTableRecord
100
AcDbBlockTableRecord
  2
*Paper_Space
340
1C
  0
ENDTAB
  0
ENDSEC
  0
SECTION
  2
BLOCKS
  0
BLOCK
  5
11D
330
1D
100
AcDbEntity
  8
0
100
AcDbBlockBegin
  2
*Model_Space
 70
     0
 10
0.0
 20
0.0
 30
0.0
  3
*Model_Space
  1

  0
ENDBLK
  5
11E
330
1D
100
AcDbEntity
  8
0
100
AcDbBlockEnd
  0
BLOCK
  5
11B
330
1B
100
AcDbEntity
 67
     1
  8
0
100
AcDbBlockBegin
  2
*Paper_Space
 70
     0
 10
0.0
 20
0.0
 30
0.0
  3
*Paper_Space
  1

  0
ENDBLK
  5
11C
330
1B
100
AcDbEntity
 67
     1
  8
0
100
AcDbBlockEnd
  0
ENDSEC
  0
SECTION
  2
ENTITIES
  0
LINE
  5
29
330
1D
100
AcDbEntity
  8
1
100
AcDbLine
 10
30.3033321
 20
-61.5
 30
0.0
 11
29.901408311
 21
-63.0
 31
0.0
  0
LINE
  5
2A
330
1D
100
AcDbEntity
  8
1
100
AcDbLine
 10
30.42820323
 20
61.5
 30
0.0
 11
30.026279442
 21
63.0
 31
0.0
  0
ARC
  5
2B
330
1D
100
AcDbEntity
  8
1
100
AcDbCircle
 10
36.912365873
 20
70.093858387
 30
0.0
 40
0.894960314
100
AcDbArc
 50
88.552265387
 51
180.159300762
  0
LINE
  5
2C
330
1D
100
AcDbEntity
  8
1
100
AcDbLine
 10
42.518611496
 20
71.005
 30
0.0
 11
36.93134481
 21
71.005
 31
0.0
  0
LINE
  5
2D
330
1D
100
AcDbEntity
  8
1
100
AcDbLine
 10
59.1
 20
71.005
 30
0.0
 11
53.493309641
 21
71.005
 31
0.0
  0
LINE
  5
2E
330
1D
100
AcDbEntity
  8
1
100
AcDbLine
 10
36.0
 20
70.093869397
 30
0.0
 11
36.0
 21
62.505
 31
0.0
  0
LINE
  5
2F
330
1D
100
AcDbEntity
  8
1
100
AcDbLine
 10
52.245302747
 20
70.798117054
 30
0.0
 11
51.1
 21
71.105
 31
0.0
  0
LINE
  5
30
330
1D
100
AcDbEntity
  8
1
100
AcDbLine
 10
44.9
 20
71.105
 30
0.0
 11
43.754855412
 21
70.798159433
 31
0.0
  0
LINE
  5
31
330
1D
100
AcDbEntity
  8
1
100
AcDbLine
 10
32.087320508
 20
-58.9
 30
0.0
 11
43.246152423
 21
-61.89
 31
0.0
  0
LINE
  5
32
330
1D
100
AcDbEntity
  8
1
100
AcDbLine
 10
52.753847577
 20
-61.89
 30
0.0
 11
63.809323187
 21
-58.9
 31
0.0
  0
LINE
  5
33
330
1D
100
AcDbEntity
  8
1
100
AcDbLine
 10
35.95
 20
62.505
 30
0.0
 11
35.95
 21
56.307626094
 31
0.0
  0
LINE
  5
34
330
1D
100
AcDbEntity
  8
1
100
AcDbLine
 10
60.05
 20
49.850050556
 30
0.0
 11
60.05
 21
62.505
 31
0.0
  0
LINE
  5
35
330
1D
100
AcDbEntity
  8
1
100
AcDbLine
 10
0.0
 20
-31.0
 30
0.0
 11
0.2
 21
-31.0
 31
0.0
  0
LINE
  5
36
330
1D
100
AcDbEntity
  8
1
100
AcDbLine
 10
0.2
 20
31.0
 30
0.0
 11
0.0
 21
31.0
 31
0.0
  0
LINE
  5
37
330
1D
100
AcDbEntity
  8
1
100
AcDbLine
 10
66.680384758
 20
-58.9
 30
0.0
 11
67.2
 21
-58.0
 31
0.0
  0
CIRCLE
  5
38
330
1D
100
AcDbEntity
  8
SK1
100
AcDbCircle
 10
-15.5
 20
0.0
 30
0.0
 40
5.541287953
  0
CIRCLE
  5
39
330
1D
100
AcDbEntity
  8
SK1
100
AcDbCircle
 10
-15.5
 20
0.0
 30
0.0
 40
4.5
  0
LINE
  5
3A
330
1D
100
AcDbEntity
  8
1
100
AcDbLine
 10
36.93134481
 20
70.992230019
 30
0.0
 11
36.935144694
 21
70.990733995
 31
0.0
  0
ARC
  5
3B
330
1D
100
AcDbEntity
  8
1
100
AcDbCircle
 10
59.1
 20
70.105
 30
0.0
 40
0.9
100
AcDbArc
 50
0.0
 51
90.0
  0
LINE
  5
3C
330
1D
100
AcDbEntity
  8
1
100
AcDbLine
 10
48.0
 20
70.487753492
 30
0.0
 11
47.098740591
 21
70.50176307
 31
0.0
  0
LINE
  5
3D
330
1D
100
AcDbEntity
  8
1
100
AcDbLine
 10
47.098740591
 20
70.50176307
 30
0.0
 11
46.197481183
 21
70.543751249
 31
0.0
  0
LINE
  5
3E
330
1D
100
AcDbEntity
  8
1
100
AcDbLine
 10
46.197481183
 20
70.543751249
 30
0.0
 11
45.37226711
 21
70.606631915
 31
0.0
  0
LINE
  5
3F
330
1D
100
AcDbEntity
  8
1
100
AcDbLine
 10
45.37226711
 20
70.606631915
 30
0.0
 11
44.598457679
 21
70.686680729
 31
0.0
  0
LINE
  5
40
330
1D
100
AcDbEntity
  8
1
100
AcDbLine
 10
44.598457679
 20
70.686680729
 30
0.0
 11
43.932189698
 21
70.771825599
 31
0.0
  0
LINE
  5
41
330
1D
100
AcDbEntity
  8
1
100
AcDbLine
 10
43.932189698
 20
70.771825599
 30
0.0
 11
43.363115751
 21
70.856332091
 31
0.0
  0
LINE
  5
42
330
1D
100
AcDbEntity
  8
1
100
AcDbLine
 10
43.363115751
 20
70.856332091
 30
0.0
 11
42.935751945
 21
70.926872958
 31
0.0
  0
LINE
  5
43
330
1D
100
AcDbEntity
  8
1
100
AcDbLine
 10
42.935751945
 20
70.926872958
 30
0.0
 11
42.642880519
 21
70.978695546
 31
0.0
  0
LINE
  5
44
330
1D
100
AcDbEntity
  8
1
100
AcDbLine
 10
42.642880519
 20
70.978695546
 30
0.0
 11
42.510863938
 21
71.002976451
 31
0.0
  0
LINE
  5
45
330
1D
100
AcDbEntity
  8
1
100
AcDbLine
 10
42.510863938
 20
71.002976451
 30
0.0
 11
42.518611496
 21
71.001537409
 31
0.0
  0
ARC
  5
46
330
1D
100
AcDbEntity
  8
1
100
AcDbCircle
 10
47.943184277
 20
100.591067714
 30
0.0
 40
30.103367837
100
AcDbArc
 50
270.108137504
 51
280.624341188
  0
LINE
  5
47
330
1D
100
AcDbEntity
  8
1
100
AcDbLine
 10
50.799512926
 20
63.105487074
 30
0.0
 11
51.4
 21
62.505
 31
0.0
  0
LINE
  5
48
330
1D
100
AcDbEntity
  8
1
100
AcDbLine
 10
50.799512926
 20
63.105487074
 30
0.0
 11
50.548580521
 21
64.605
 31
0.0
  0
LINE
  5
49
330
1D
100
AcDbEntity
  8
1
100
AcDbLine
 10
50.548580521
 20
64.605
 30
0.0
 11
45.451419479
 21
64.605
 31
0.0
  0
LINE
  5
4A
330
1D
100
AcDbEntity
  8
1
100
AcDbLine
 10
45.451419479
 20
64.605
 30
0.0
 11
45.182523803
 21
62.998142801
 31
0.0
  0
LINE
  5
4B
330
1D
100
AcDbEntity
  8
1
100
AcDbLine
 10
44.491163094
 20
62.505
 30
0.0
 11
45.182523803
 21
62.998142801
 31
0.0
  0
LINE
  5
4C
330
1D
100
AcDbEntity
  8
1
100
AcDbLine
 10
60.0
 20
62.505
 30
0.0
 11
60.0
 21
70.105
 31
0.0
  0
ARC
  5
4D
330
1D
100
AcDbEntity
  8
1
100
AcDbCircle
 10
62.585193217
 20
70.20621259
 30
0.0
 40
1.6
100
AcDbArc
 50
87.0
 51
266.9999999999999
  0
LINE
  5
4E
330
1D
100
AcDbEntity
  8
1
100
AcDbLine
 10
62.501455687
 20
68.608405334
 30
0.0
 11
63.901540806
 21
68.535029982
 31
0.0
  0
LINE
  5
50
330
1D
100
AcDbEntity
  8
1
100
AcDbLine
 10
69.937218587
 20
62.505
 30
0.0
 11
70.046258056
 21
64.585597007
 31
0.0
  0
LINE
  5
51
330
1D
100
AcDbEntity
  8
1
100
AcDbLine
 10
60.218942984
 20
72.943066099
 30
0.0
 11
59.1
 21
71.005
 31
0.0
  0
LINE
  5
52
330
1D
100
AcDbEntity
  8
1
100
AcDbLine
 10
68.555660938
 20
74.413054405
 30
0.0
 11
60.218942984
 21
72.943066099
 31
0.0
  0
LINE
  5
53
330
1D
100
AcDbEntity
  8
1
100
AcDbLine
 10
68.555660938
 20
74.413054405
 30
0.0
 11
68.715987907
 21
74.098395011
 31
0.0
  0
LINE
  5
54
330
1D
100
AcDbEntity
  8
1
100
AcDbLine
 10
64.069015866
 20
71.730644494
 30
0.0
 11
62.668930747
 21
71.804019846
 31
0.0
  0
LINE
  5
55
330
1D
100
AcDbEntity
  8
1
100
AcDbLine
 10
60.05
 20
62.505
 30
0.0
 11
69.937218587
 21
62.505
 31
0.0
  0
LINE
  5
57
330
1D
100
AcDbEntity
  8
1
100
AcDbLine
 10
70.037112571
 20
64.602627293
 30
0.0
 11
70.046258056
 21
64.585597007
 31
0.0
  0
LINE
  5
58
330
1D
100
AcDbEntity
  8
1
100
AcDbLine
 10
61.798843003
 20
69.900537902
 30
0.0
 11
69.860884194
 21
64.664987136
 31
0.0
  0
ARC
  5
59
330
1D
100
AcDbEntity
  8
1
100
AcDbCircle
 10
62.016698617
 20
70.236006129
 30
0.0
 40
0.4
100
AcDbArc
 50
117.0
 51
237.0
  0
LINE
  5
5A
330
1D
100
AcDbEntity
  8
1
100
AcDbLine
 10
70.400242979
 20
74.956565834
 30
0.0
 11
61.835102417
 21
70.592408739
 31
0.0
  0
ARC
  5
5B
330
1D
100
AcDbEntity
  8
1
100
AcDbCircle
 10
70.581839179
 20
74.600163224
 30
0.0
 40
0.4
100
AcDbArc
 50
356.9999999999999
 51
117.0
  0
LINE
  5
5C
330
1D
100
AcDbEntity
  8
1
100
AcDbLine
 10
70.478191622
 20
64.979520981
 30
0.0
 11
70.981290993
 21
74.579228842
 31
0.0
  0
ARC
  5
5D
330
1D
100
AcDbEntity
  8
1
100
AcDbCircle
 10
70.078739808
 20
65.000455363
 30
0.0
 40
0.4
100
AcDbArc
 50
237.0
 51
356.9999999999999
  0
LINE
  5
5F
330
1D
100
AcDbEntity
  8
1
100
AcDbLine
 10
48.0
 20
71.105
 30
0.0
 11
44.9
 21
71.105
 31
0.0
  0
LINE
  5
60
330
1D
100
AcDbEntity
  8
1
100
AcDbLine
 10
51.1
 20
71.105
 30
0.0
 11
48.0
 21
71.105
 31
0.0
  0
LINE
  5
61
330
1D
100
AcDbEntity
  8
1
100
AcDbLine
 10
30.555
 20
-2.502813417
 30
0.0
 11
33.441751346
 21
-2.502813417
 31
0.0
  0
LINE
  5
62
330
1D
100
AcDbEntity
  8
1
100
AcDbLine
 10
33.441751346
 20
-2.502813417
 30
0.0
 11
34.888375673
 21
0.002813417
 31
0.0
  0
LINE
  5
63
330
1D
100
AcDbEntity
  8
1
100
AcDbLine
 10
34.888375673
 20
0.002813417
 30
0.0
 11
33.445
 21
2.502813417
 31
0.0
  0
LINE
  5
64
330
1D
100
AcDbEntity
  8
1
100
AcDbLine
 10
33.445
 20
2.502813417
 30
0.0
 11
30.558248654
 21
2.502813417
 31
0.0
  0
LINE
  5
65
330
1D
100
AcDbEntity
  8
1
100
AcDbLine
 10
30.558248654
 20
2.502813417
 30
0.0
 11
29.111624327
 21
-0.002813417
 31
0.0
  0
LINE
  5
66
330
1D
100
AcDbEntity
  8
1
100
AcDbLine
 10
29.111624327
 20
-0.002813417
 30
0.0
 11
30.555
 21
-2.502813417
 31
0.0
  0
LINE
  5
67
330
1D
100
AcDbEntity
  8
1
100
AcDbLine
 10
52.753847577
 20
-61.89
 30
0.0
 11
43.246152423
 21
-61.89
 31
0.0
  0
LINE
  5
68
330
1D
100
AcDbEntity
  8
1
100
AcDbLine
 10
60.05
 20
62.505
 30
0.0
 11
51.4
 21
62.505
 31
0.0
  0
LINE
  5
69
330
1D
100
AcDbEntity
  8
1
100
AcDbLine
 10
44.491163094
 20
62.505
 30
0.0
 11
35.95
 21
62.505
 31
0.0
  0
LINE
  5
6A
330
1D
100
AcDbEntity
  8
1
100
AcDbLine
 10
31.5
 20
57.5
 30
0.0
 11
30.42820323
 21
61.5
 31
0.0
  0
LINE
  5
6B
330
1D
100
AcDbEntity
  8
1
100
AcDbLine
 10
40.490118083
 20
55.09110512
 30
0.0
 11
31.5
 21
57.5
 31
0.0
  0
LINE
  5
6C
330
1D
100
AcDbEntity
  8
1
100
AcDbLine
 10
40.490118083
 20
55.09110512
 30
0.0
 11
38.0
 21
54.845236803
 31
0.0
  0
LINE
  5
6D
330
1D
100
AcDbEntity
  8
1
100
AcDbLine
 10
38.0
 20
54.845236803
 30
0.0
 11
17.2
 21
54.845236803
 31
0.0
  0
LINE
  5
6E
330
1D
100
AcDbEntity
  8
1
100
AcDbLine
 10
17.2
 20
54.845236803
 30
0.0
 11
16.45
 21
54.414497149
 31
0.0
  0
LINE
  5
6F
330
1D
100
AcDbEntity
  8
1
100
AcDbLine
 10
16.45
 20
54.414497149
 30
0.0
 11
0.7
 21
54.414497149
 31
0.0
  0
LINE
  5
70
330
1D
100
AcDbEntity
  8
1
100
AcDbLine
 10
0.7
 20
61.5
 30
0.0
 11
0.7
 21
54.414497149
 31
0.0
  0
LINE
  5
71
330
1D
100
AcDbEntity
  8
1
100
AcDbLine
 10
0.7
 20
61.5
 30
0.0
 11
30.42820323
 21
61.5
 31
0.0
  0
LINE
  5
72
330
1D
100
AcDbEntity
  8
1
100
AcDbLine
 10
0.2
 20
54.126587736
 30
0.0
 11
0.2
 21
61.0
 31
0.0
  0
LINE
  5
73
330
1D
100
AcDbEntity
  8
1
100
AcDbLine
 10
0.7
 20
61.5
 30
0.0
 11
0.2
 21
61.0
 31
0.0
  0
LINE
  5
74
330
1D
100
AcDbEntity
  8
1
100
AcDbLine
 10
0.2
 20
54.126587736
 30
0.0
 11
0.7
 21
54.414497149
 31
0.0
  0
LINE
  5
75
330
1D
100
AcDbEntity
  8
1
100
AcDbLine
 10
0.2
 20
-54.126587737
 30
0.0
 11
0.2
 21
54.126587736
 31
0.0
  0
LINE
  5
76
330
1D
100
AcDbEntity
  8
1
100
AcDbLine
 10
0.7
 20
54.414497149
 30
0.0
 11
0.7
 21
-54.414497149
 31
0.0
  0
LINE
  5
77
330
1D
100
AcDbEntity
  8
1
100
AcDbLine
 10
0.2
 20
-54.126587737
 30
0.0
 11
0.7
 21
-54.414497149
 31
0.0
  0
LINE
  5
78
330
1D
100
AcDbEntity
  8
1
100
AcDbLine
 10
16.45
 20
-54.414497149
 30
0.0
 11
16.45
 21
54.414497149
 31
0.0
  0
LINE
  5
79
330
1D
100
AcDbEntity
  8
1
100
AcDbLine
 10
16.45
 20
-54.414497149
 30
0.0
 11
0.7
 21
-54.414497149
 31
0.0
  0
LINE
  5
7A
330
1D
100
AcDbEntity
  8
1
100
AcDbLine
 10
17.2
 20
-54.845236803
 30
0.0
 11
16.45
 21
-54.414497149
 31
0.0
  0
LINE
  5
7B
330
1D
100
AcDbEntity
  8
1
100
AcDbLine
 10
17.2
 20
-54.845236803
 30
0.0
 11
17.2
 21
54.845236803
 31
0.0
  0
LINE
  5
7C
330
1D
100
AcDbEntity
  8
1
100
AcDbLine
 10
0.2
 20
-61.0
 30
0.0
 11
0.2
 21
-54.126587737
 31
0.0
  0
LINE
  5
7D
330
1D
100
AcDbEntity
  8
1
100
AcDbLine
 10
0.7
 20
-54.414497149
 30
0.0
 11
0.7
 21
-61.5
 31
0.0
  0
LINE
  5
7E
330
1D
100
AcDbEntity
  8
1
100
AcDbLine
 10
0.2
 20
-61.0
 30
0.0
 11
0.7
 21
-61.5
 31
0.0
  0
LINE
  5
7F
330
1D
100
AcDbEntity
  8
1
100
AcDbLine
 10
38.0
 20
-54.845236803
 30
0.0
 11
17.2
 21
-54.845236803
 31
0.0
  0
LINE
  5
80
330
1D
100
AcDbEntity
  8
1
100
AcDbLine
 10
63.158548116
 20
-57.125833514
 30
0.0
 11
54.659514235
 21
-56.404763272
 31
0.0
  0
LINE
  5
81
330
1D
100
AcDbEntity
  8
1
100
AcDbLine
 10
54.659514235
 20
-56.404763272
 30
0.0
 11
46.271383126
 21
-55.644387748
 31
0.0
  0
LINE
  5
82
330
1D
100
AcDbEntity
  8
1
100
AcDbLine
 10
46.271383126
 20
-55.644387748
 30
0.0
 11
38.0
 21
-54.845236803
 31
0.0
  0
LINE
  5
83
330
1D
100
AcDbEntity
  8
1
100
AcDbLine
 10
66.680384758
 20
-58.9
 30
0.0
 11
31.0
 21
-58.9
 31
0.0
  0
LINE
  5
84
330
1D
100
AcDbEntity
  8
1
100
AcDbLine
 10
30.3033321
 20
-61.5
 30
0.0
 11
31.0
 21
-58.9
 31
0.0
  0
LINE
  5
85
330
1D
100
AcDbEntity
  8
1
100
AcDbLine
 10
30.3033321
 20
-61.5
 30
0.0
 11
0.7
 21
-61.5
 31
0.0
  0
LINE
  5
86
330
1D
100
AcDbEntity
  8
1
100
AcDbLine
 10
38.0
 20
-54.845236803
 30
0.0
 11
38.0
 21
54.845236803
 31
0.0
  0
LINE
  5
87
330
1D
100
AcDbEntity
  8
1
100
AcDbLine
 10
64.88446864
 20
48.554658588
 30
0.0
 11
40.490118083
 21
55.09110512
 31
0.0
  0
LINE
  5
88
330
1D
100
AcDbEntity
  8
1
100
AcDbLine
 10
64.88446864
 20
-56.176008465
 30
0.0
 11
64.88446864
 21
48.554658588
 31
0.0
  0
ARC
  5
89
330
1D
100
AcDbEntity
  8
1
100
AcDbCircle
 10
63.303510106
 20
-55.346251296
 30
0.0
 40
1.785476644
100
AcDbArc
 50
265.3430573950001
 51
332.3075183719999
  0
CIRCLE
  5
8A
330
1D
100
AcDbEntity
  8
1
100
AcDbCircle
 10
32.0
 20
0.0
 30
0.0
 40
5.25
  0
LINE
  5
8B
330
1D
100
AcDbEntity
  8
1
100
AcDbLine
 10
0.0
 20
-31.0
 30
0.0
 11
0.0
 21
31.0
 31
0.0
  0
LINE
  5
8C
330
1D
100
AcDbEntity
  8
1
100
AcDbLine
 10
64.890598923
 20
-56.167784814
 30
0.0
 11
64.88446864
 21
-56.176008465
 31
0.0
  0
LINE
  5
8D
330
1D
100
AcDbEntity
  8
1
100
AcDbLine
 10
67.2
 20
-53.02593705
 30
0.0
 11
67.2
 21
47.93421383
 31
0.0
  0
LINE
  5
8E
330
1D
100
AcDbEntity
  8
1
100
AcDbLine
 10
67.2
 20
-53.02593705
 30
0.0
 11
64.890598923
 21
-56.167784814
 31
0.0
  0
LINE
  5
8F
330
1D
100
AcDbEntity
  8
1
100
AcDbLine
 10
67.2
 20
47.93421383
 30
0.0
 11
64.88446864
 21
48.554658588
 31
0.0
  0
LINE
  5
90
330
1D
100
AcDbEntity
  8
1
100
AcDbLine
 10
67.2
 20
-58.0
 30
0.0
 11
67.2
 21
-53.02593705
 31
0.0
  0
ARC
  5
91
330
1D
100
AcDbEntity
  8
1
100
AcDbCircle
 10
48.00119895
 20
101.095841779
 30
0.0
 40
33.23256687
100
AcDbArc
 50
248.890731123
 51
291.165032048
  0
ARC
  5
92
330
1D
100
AcDbEntity
  8
1
100
AcDbCircle
 10
48.001114336
 20
96.568405356
 30
0.0
 40
27.868852799
100
AcDbArc
 50
246.604673903
 51
293.4690808559999
  0
LINE
  5
95
330
1D
100
AcDbEntity
  8
2
100
AcDbLine
 10
0.0
 20
82.846305847
 30
0.0
 11
0.0
 21
31.0
 31
0.0
  0
LINE
  5
96
330
1D
100
AcDbEntity
  8
2
100
AcDbLine
 10
0.0
 20
80.846305847
 30
0.0
 11
3.499999998
 21
81.296305859
 31
0.0
  0
LINE
  5
97
330
1D
100
AcDbEntity
  8
2
100
AcDbLine
 10
3.499999998
 20
81.296305859
 30
0.0
 11
3.500000002
 21
80.396305859
 31
0.0
  0
LINE
  5
98
330
1D
100
AcDbEntity
  8
2
100
AcDbLine
 10
3.500000002
 20
80.396305859
 30
0.0
 11
0.0
 21
80.846305847
 31
0.0
  0
LINE
  5
99
330
1D
100
AcDbEntity
  8
2
100
AcDbLine
 10
70.981839179
 20
82.846306089
 30
0.0
 11
70.981839179
 21
74.600163224
 31
0.0
  0
LINE
  5
9A
330
1D
100
AcDbEntity
  8
2
100
AcDbLine
 10
70.981839179
 20
80.846306089
 30
0.0
 11
67.48183918
 21
80.396306077
 31
0.0
  0
LINE
  5
9B
330
1D
100
AcDbEntity
  8
2
100
AcDbLine
 10
67.48183918
 20
80.396306077
 30
0.0
 11
67.481839177
 21
81.296306077
 31
0.0
  0
LINE
  5
9C
330
1D
100
AcDbEntity
  8
2
100
AcDbLine
 10
67.481839177
 20
81.296306077
 30
0.0
 11
70.981839179
 21
80.846306089
 31
0.0
  0
LINE
  5
9D
330
1D
100
AcDbEntity
  8
2
100
AcDbLine
 10
3.5
 20
80.846305859
 30
0.0
 11
67.481839179
 21
80.846306077
 31
0.0
  0
TEXT
  5
9E
330
1D
100
AcDbEntity
  8
2
100
AcDbText
 10
34.209043791
 20
82.346305964
 30
0.0
 40
3.5
  1
71
 50
0.000000195
  7
BMG_Text
100
AcDbText
  0
LINE
  5
9F
330
1D
100
AcDbEntity
  8
2
100
AcDbLine
 10
0.0
 20
-74.468688965
 30
0.0
 11
0.0
 21
-31.0
 31
0.0
  0
LINE
  5
A0
330
1D
100
AcDbEntity
  8
2
100
AcDbLine
 10
0.0
 20
-72.468688965
 30
0.0
 11
3.499999994
 21
-72.018688915
 31
0.0
  0
LINE
  5
A1
330
1D
100
AcDbEntity
  8
2
100
AcDbLine
 10
3.499999994
 20
-72.018688915
 30
0.0
 11
3.500000006
 21
-72.918688915
 31
0.0
  0
LINE
  5
A2
330
1D
100
AcDbEntity
  8
2
100
AcDbLine
 10
3.500000006
 20
-72.918688915
 30
0.0
 11
0.0
 21
-72.468688965
 31
0.0
  0
LINE
  5
A3
330
1D
100
AcDbEntity
  8
2
100
AcDbLine
 10
67.2
 20
-74.468688011
 30
0.0
 11
67.2
 21
-58.0
 31
0.0
  0
LINE
  5
A4
330
1D
100
AcDbEntity
  8
2
100
AcDbLine
 10
67.2
 20
-72.468688011
 30
0.0
 11
63.700000006
 21
-72.918688061
 31
0.0
  0
LINE
  5
A5
330
1D
100
AcDbEntity
  8
2
100
AcDbLine
 10
63.700000006
 20
-72.918688061
 30
0.0
 11
63.699999994
 21
-72.018688061
 31
0.0
  0
LINE
  5
A6
330
1D
100
AcDbEntity
  8
2
100
AcDbLine
 10
63.699999994
 20
-72.018688061
 30
0.0
 11
67.2
 21
-72.468688011
 31
0.0
  0
LINE
  5
A7
330
1D
100
AcDbEntity
  8
2
100
AcDbLine
 10
3.5
 20
-72.468688915
 30
0.0
 11
63.7
 21
-72.468688061
 31
0.0
  0
TEXT
  5
A8
330
1D
100
AcDbEntity
  8
2
100
AcDbText
 10
30.376717978
 20
-70.968688534
 30
0.0
 40
3.5
  1
67.2
 50
0.000000813
  7
BMG_Text
100
AcDbText
  0
LINE
  5
A9
330
1D
100
AcDbEntity
  8
1
100
AcDbLine
 10
0.2
 20
-63.0
 30
0.0
 11
29.901408311
 21
-63.0
 31
0.0
  0
LINE
  5
AA
330
1D
100
AcDbEntity
  8
1
100
AcDbLine
 10
0.2
 20
-61.0
 30
0.0
 11
0.2
 21
-63.0
 31
0.0
  0
ARC
  5
AB
330
1D
100
AcDbEntity
  8
SK1
100
AcDbCircle
 10
-0.3
 20
-18.2
 30
0.0
 40
0.5
100
AcDbArc
 50
53.130102354
 51
105.0
  0
ARC
  5
AC
330
1D
100
AcDbEntity
  8
SK1
100
AcDbCircle
 10
-0.3
 20
18.2
 30
0.0
 40
0.5
100
AcDbArc
 50
255.0
 51
306.8698976460001
  0
ARC
  5
AD
330
1D
100
AcDbEntity
  8
SK1
100
AcDbCircle
 10
-39.018504542
 20
-17.0
 30
0.0
 40
1.0
100
AcDbArc
 50
210.0
 51
280.0
  0
ARC
  5
AE
330
1D
100
AcDbEntity
  8
SK1
100
AcDbCircle
 10
-39.018504542
 20
17.0
 30
0.0
 40
1.0
100
AcDbArc
 50
80.0
 51
150.0
  0
LINE
  5
AF
330
1D
100
AcDbEntity
  8
SK1
100
AcDbLine
 10
-35.0
 20
-18.0
 30
0.0
 11
-1.485441491
 21
-18.0
 31
0.0
  0
LINE
  5
B0
330
1D
100
AcDbEntity
  8
SK1
100
AcDbLine
 10
-1.485441491
 20
18.0
 30
0.0
 11
-35.0
 21
18.0
 31
0.0
  0
LINE
  5
B1
330
1D
100
AcDbEntity
  8
SK1
100
AcDbLine
 10
-35.0
 20
18.0
 30
0.0
 11
-37.187486792
 21
17.69256878
 31
0.0
  0
LINE
  5
B2
330
1D
100
AcDbEntity
  8
SK1
100
AcDbLine
 10
-37.187486792
 20
-17.69256878
 30
0.0
 11
-35.0
 21
-18.0
 31
0.0
  0
LINE
  5
B3
330
1D
100
AcDbEntity
  8
SK1
100
AcDbLine
 10
-1.485441491
 20
-18.0
 30
0.0
 11
-0.429409523
 21
-17.717037087
 31
0.0
  0
LINE
  5
B4
330
1D
100
AcDbEntity
  8
SK1
100
AcDbLine
 10
-0.429409523
 20
17.717037087
 30
0.0
 11
-1.485441491
 21
18.0
 31
0.0
  0
LINE
  5
B5
330
1D
100
AcDbEntity
  8
SK1
100
AcDbLine
 10
-38.844856365
 20
-17.984807753
 30
0.0
 11
-37.187486792
 21
-17.69256878
 31
0.0
  0
LINE
  5
B6
330
1D
100
AcDbEntity
  8
SK1
100
AcDbLine
 10
-37.187486792
 20
17.69256878
 30
0.0
 11
-38.844856365
 21
17.984807753
 31
0.0
  0
LINE
  5
B7
330
1D
100
AcDbEntity
  8
SK1
100
AcDbLine
 10
-39.884529946
 20
17.5
 30
0.0
 11
-40.0
 21
17.3
 31
0.0
  0
LINE
  5
B8
330
1D
100
AcDbEntity
  8
SK1
100
AcDbLine
 10
-40.0
 20
-17.3
 30
0.0
 11
-39.884529946
 21
-17.5
 31
0.0
  0
LINE
  5
B9
330
1D
100
AcDbEntity
  8
SK1
100
AcDbLine
 10
-35.0
 20
0.0
 30
0.0
 11
-35.0
 21
18.0
 31
0.0
  0
LINE
  5
BA
330
1D
100
AcDbEntity
  8
SK1
100
AcDbLine
 10
-35.0
 20
-18.0
 30
0.0
 11
-35.0
 21
0.0
 31
0.0
  0
LINE
  5
BB
330
1D
100
AcDbEntity
  8
SK1
100
AcDbLine
 10
-1.485441491
 20
-18.0
 30
0.0
 11
-1.485441491
 21
18.0
 31
0.0
  0
LINE
  5
BC
330
1D
100
AcDbEntity
  8
SK1
100
AcDbLine
 10
-37.187486792
 20
-17.69256878
 30
0.0
 11
-37.187486792
 21
17.69256878
 31
0.0
  0
LINE
  5
BD
330
1D
100
AcDbEntity
  8
SK1
100
AcDbLine
 10
-40.0
 20
-17.3
 30
0.0
 11
-40.0
 21
17.3
 31
0.0
  0
LINE
  5
BE
330
1D
100
AcDbEntity
  8
4
100
AcDbLine
 10
48.0
 20
-63.889405719
 30
0.0
 11
48.0
 21
72.358970273
 31
0.0
  0
LINE
  5
BF
330
1D
100
AcDbEntity
  8
3
100
AcDbLine
 10
35.501
 20
-54.25
 30
0.0
 11
35.501
 21
56.317873208
 31
0.0
  0
LINE
  5
C0
330
1D
100
AcDbEntity
  8
3
100
AcDbLine
 10
63.0
 20
-54.25
 30
0.0
 11
33.0
 21
-54.25
 31
0.0
  0
LINE
  5
C1
330
1D
100
AcDbEntity
  8
3
100
AcDbLine
 10
33.0
 20
-54.25
 30
0.0
 11
33.0
 21
-58.9
 31
0.0
  0
LINE
  5
C2
330
1D
100
AcDbEntity
  8
3
100
AcDbLine
 10
63.0
 20
-58.9
 30
0.0
 11
63.0
 21
-54.25
 31
0.0
  0
LINE
  5
C3
330
1D
100
AcDbEntity
  8
3
100
AcDbLine
 10
60.501
 20
49.619143397
 30
0.0
 11
60.501
 21
-54.25
 31
0.0
  0
TEXT
  5
C4
330
1D
100
AcDbEntity
  8
SK6
100
AcDbText
 10
158.6559636237566
 20
-89.25205854074322
 30
0.0
 40
3.5
  1
310.608
  7
BMG_Text
100
AcDbText
  0
LINE
  5
C5
330
1D
100
AcDbEntity
  8
4
100
AcDbLine
 10
-0.0000000000000004
 20
6.954519448947034
 30
0.0
 11
57.920970156
 21
51.539494877
 31
0.0
  0
LINE
  5
C6
330
1D
100
AcDbEntity
  8
3
100
AcDbLine
 10
0.0
 20
10.11580775134453
 30
0.0
 11
53.78784417
 21
51.527990154
 31
0.0
  0
LINE
  5
C7
330
1D
100
AcDbEntity
  8
3
100
AcDbLine
 10
0.0
 20
3.806414960872635
 30
0.0
 11
59.870522174
 21
49.898141495
 31
0.0
  0
LINE
  5
C8
330
1D
100
AcDbEntity
  8
3
100
AcDbLine
 10
0.0
 20
3.229173819347193
 30
0.0
 11
1.8664859
 21
0.0
 31
0.0
  0
LINE
  5
C9
330
1D
100
AcDbEntity
  8
3
100
AcDbLine
 10
0.0
 20
-3.240439427218694
 30
0.0
 11
1.8664859
 21
0.0
 31
0.0
  0
LINE
  5
CA
330
1D
100
AcDbEntity
  8
SK3
100
AcDbLine
 10
-2.754276418
 20
7.99429811
 30
0.0
 11
-2.754276418
 21
-8.022187791
 31
0.0
  0
LINE
  5
CB
330
1D
100
AcDbEntity
  8
SK3
100
AcDbLine
 10
-39.747149055
 20
7.99429811
 30
0.0
 11
-2.754276418
 21
7.99429811
 31
0.0
  0
LINE
  5
CC
330
1D
100
AcDbEntity
  8
SK3
100
AcDbLine
 10
-39.747149055
 20
-8.022187791
 30
0.0
 11
-2.754276418
 21
-8.022187791
 31
0.0
  0
LINE
  5
CD
330
1D
100
AcDbEntity
  8
4
100
AcDbLine
 10
-0.0000000000000071
 20
0.0
 30
0.0
 11
69.484804297
 21
0.0
 31
0.0
  0
LINE
  5
CF
330
1D
100
AcDbEntity
  8
SK2
100
AcDbLine
 10
-50.731946945
 20
-18.0
 30
0.0
 11
-35.0
 21
-18.0
 31
0.0
  0
LINE
  5
D0
330
1D
100
AcDbEntity
  8
SK2
100
AcDbLine
 10
-48.731946945
 20
-18.0
 30
0.0
 11
-49.181946945
 21
-14.5
 31
0.0
  0
LINE
  5
D1
330
1D
100
AcDbEntity
  8
SK2
100
AcDbLine
 10
-49.181946945
 20
-14.5
 30
0.0
 11
-48.281946945
 21
-14.5
 31
0.0
  0
LINE
  5
D2
330
1D
100
AcDbEntity
  8
SK2
100
AcDbLine
 10
-48.281946945
 20
-14.5
 30
0.0
 11
-48.731946945
 21
-18.0
 31
0.0
  0
LINE
  5
D3
330
1D
100
AcDbEntity
  8
SK2
100
AcDbLine
 10
-50.731946945
 20
18.0
 30
0.0
 11
-35.0
 21
18.0
 31
0.0
  0
LINE
  5
D4
330
1D
100
AcDbEntity
  8
SK2
100
AcDbLine
 10
-48.731946945
 20
18.0
 30
0.0
 11
-48.281946945
 21
14.5
 31
0.0
  0
LINE
  5
D5
330
1D
100
AcDbEntity
  8
SK2
100
AcDbLine
 10
-48.281946945
 20
14.5
 30
0.0
 11
-49.181946945
 21
14.5
 31
0.0
  0
LINE
  5
D6
330
1D
100
AcDbEntity
  8
SK2
100
AcDbLine
 10
-49.181946945
 20
14.5
 30
0.0
 11
-48.731946945
 21
18.0
 31
0.0
  0
LINE
  5
D7
330
1D
100
AcDbEntity
  8
SK2
100
AcDbLine
 10
-48.731946945
 20
-14.5
 30
0.0
 11
-48.731946945
 21
14.5
 31
0.0
  0
TEXT
  5
D8
330
1D
100
AcDbEntity
  8
SK2
100
AcDbText
 10
-50.231946945
 20
0.331405848
 30
0.0
 40
3.5
  1
36
 50
90.0
  7
BMG_Text
100
AcDbText
  0
CIRCLE
  5
D9
330
1D
100
AcDbEntity
  8
SK2
100
AcDbCircle
 10
-51.481946945
 20
-1.918594152
 30
0.0
 40
1.25
  0
LINE
  5
DA
330
1D
100
AcDbEntity
  8
SK2
100
AcDbLine
 10
-50.231946945
 20
-3.168594152
 30
0.0
 11
-52.731946945
 21
-0.668594152
 31
0.0
  0
LINE
  5
DB
330
1D
100
AcDbEntity
  8
1
100
AcDbLine
 10
0.2
 20
63.0
 30
0.0
 11
30.026279442
 21
63.0
 31
0.0
  0
LINE
  5
DC
330
1D
100
AcDbEntity
  8
1
100
AcDbLine
 10
0.2
 20
61.0
 30
0.0
 11
0.2
 21
63.0
 31
0.0
  0
LINE
  5
DE
330
1D
100
AcDbEntity
  8
2
100
AcDbLine
 10
-59.380978394
 20
-63.0
 30
0.0
 11
0.2
 21
-63.0
 31
0.0
  0
LINE
  5
DF
330
1D
100
AcDbEntity
  8
2
100
AcDbLine
 10
-57.380978394
 20
-63.0
 30
0.0
 11
-57.830978394
 21
-59.5
 31
0.0
  0
LINE
  5
E0
330
1D
100
AcDbEntity
  8
2
100
AcDbLine
 10
-57.830978394
 20
-59.5
 30
0.0
 11
-56.930978394
 21
-59.5
 31
0.0
  0
LINE
  5
E1
330
1D
100
AcDbEntity
  8
2
100
AcDbLine
 10
-56.930978394
 20
-59.5
 30
0.0
 11
-57.380978394
 21
-63.0
 31
0.0
  0
LINE
  5
E2
330
1D
100
AcDbEntity
  8
2
100
AcDbLine
 10
-59.380978394
 20
63.0
 30
0.0
 11
0.2
 21
63.0
 31
0.0
  0
LINE
  5
E3
330
1D
100
AcDbEntity
  8
2
100
AcDbLine
 10
-57.380978394
 20
63.0
 30
0.0
 11
-56.930978394
 21
59.5
 31
0.0
  0
LINE
  5
E4
330
1D
100
AcDbEntity
  8
2
100
AcDbLine
 10
-56.930978394
 20
59.5
 30
0.0
 11
-57.830978394
 21
59.5
 31
0.0
  0
LINE
  5
E5
330
1D
100
AcDbEntity
  8
2
100
AcDbLine
 10
-57.830978394
 20
59.5
 30
0.0
 11
-57.380978394
 21
63.0
 31
0.0
  0
LINE
  5
E6
330
1D
100
AcDbEntity
  8
2
100
AcDbLine
 10
-57.380978394
 20
-59.5
 30
0.0
 11
-57.380978394
 21
59.5
 31
0.0
  0
TEXT
  5
E7
330
1D
100
AcDbEntity
  8
2
100
AcDbText
 10
-58.880978394
 20
-0.598282658
 30
0.0
 40
3.5
  1
126
 50
90.0
  7
BMG_Text
100
AcDbText
  0
CIRCLE
  5
E8
330
1D
100
AcDbEntity
  8
2
100
AcDbCircle
 10
-60.130978394
 20
-2.848282658
 30
0.0
 40
1.25
  0
LINE
  5
E9
330
1D
100
AcDbEntity
  8
2
100
AcDbLine
 10
-58.880978394
 20
-4.098282658
 30
0.0
 11
-61.380978394
 21
-1.598282658
 31
0.0
  0
LINE
  5
EA
330
1D
100
AcDbEntity
  8
2
100
AcDbLine
 10
86.252916907
 20
75.00016391
 30
0.0
 11
70.581839179
 21
75.000163224
 31
0.0
  0
LINE
  5
EB
330
1D
100
AcDbEntity
  8
2
100
AcDbLine
 10
84.252916907
 20
75.000163822
 30
0.0
 11
84.70291706
 21
71.500163842
 31
0.0
  0
LINE
  5
EC
330
1D
100
AcDbEntity
  8
2
100
AcDbLine
 10
84.70291706
 20
71.500163842
 30
0.0
 11
83.80291706
 21
71.500163802
 31
0.0
  0
LINE
  5
ED
330
1D
100
AcDbEntity
  8
2
100
AcDbLine
 10
83.80291706
 20
71.500163802
 30
0.0
 11
84.252916907
 21
75.000163822
 31
0.0
  0
LINE
  5
EE
330
1D
100
AcDbEntity
  8
2
100
AcDbLine
 10
84.252920513
 20
-7.500015672
 30
0.0
 11
84.25291706
 21
71.500163822
 31
0.0
  0
TEXT
  5
EF
330
1D
100
AcDbEntity
  8
2
100
AcDbText
 10
82.704325206
 20
-4.825069261
 30
0.0
 40
3.5
  1
150
 50
90.00000250400001
  7
BMG_Text
100
AcDbText
  0
CIRCLE
  5
F0
330
1D
100
AcDbEntity
  8
2
100
AcDbCircle
 10
81.454325305
 20
-7.075069316
 30
0.0
 40
1.25
  0
LINE
  5
F1
330
1D
100
AcDbEntity
  8
2
100
AcDbLine
 10
82.704325359
 20
-8.325069261
 30
0.0
 11
80.20432525
 21
-5.82506937
 31
0.0
  0
TEXT
  5
F2
330
1D
100
AcDbEntity
  8
2
100
AcDbText
 10
82.70432494
 20
1.262118239
 30
0.0
 40
3.5
  1
-203
 50
90.00000250400001
  7
BMG_Text
100
AcDbText
  0
LINE
  5
199
330
1D
100
AcDbEntity
  8
NOCUT
100
AcDbLine
 10
63.809323187
 20
58.9
 30
0.0
 11
66.680384758
 21
58.9
 31
0.0
  0
LINE
  5
19A
330
1D
100
AcDbEntity
  8
NOCUT
100
AcDbLine
 10
66.680384758
 20
58.9
 30
0.0
 11
67.2
 21
58.0
 31
0.0
  0
LINE
  5
19B
330
1D
100
AcDbEntity
  8
NOCUT
100
AcDbLine
 10
67.2
 20
58.0
 30
0.0
 11
67.2
 21
0.0
 31
0.0
  0
LINE
  5
19C
330
1D
100
AcDbEntity
  8
NOCUT
100
AcDbLine
 10
36.93134481
 20
71.005
 30
0.0
 11
42.518611496
 21
71.005
 31
0.0
  0
LINE
  5
19D
330
1D
100
AcDbEntity
  8
NOCUT
100
AcDbLine
 10
42.518611496
 20
71.005
 30
0.0
 11
43.754855412
 21
70.798159433
 31
0.0
  0
LINE
  5
19E
330
1D
100
AcDbEntity
  8
NOCUT
100
AcDbLine
 10
43.754855412
 20
70.798159433
 30
0.0
 11
44.9
 21
71.105
 31
0.0
  0
LINE
  5
19F
330
1D
100
AcDbEntity
  8
NOCUT
100
AcDbLine
 10
44.9
 20
71.105
 30
0.0
 11
51.1
 21
71.105
 31
0.0
  0
LINE
  5
1A0
330
1D
100
AcDbEntity
  8
NOCUT
100
AcDbLine
 10
51.1
 20
71.105
 30
0.0
 11
52.245302747
 21
70.798117054
 31
0.0
  0
LINE
  5
1A1
330
1D
100
AcDbEntity
  8
NOCUT
100
AcDbLine
 10
52.245302747
 20
70.798117054
 30
0.0
 11
53.4933096402702
 21
71.0037585497365
 31
0.0
  0
LINE
  5
1A2
330
1D
100
AcDbEntity
  8
NOCUT
100
AcDbLine
 10
53.4933096402702
 20
71.0037585497365
 30
0.0
 11
59.09714020129663
 21
71.0037585497365
 31
0.0
  0
LINE
  5
1A3
330
1D
100
AcDbEntity
  8
NOCUT
100
AcDbLine
 10
59.09714020129663
 20
71.0037585497365
 30
0.0
 11
60.218942984
 21
72.943066099
 31
0.0
  0
LINE
  5
1A4
330
1D
100
AcDbEntity
  8
NOCUT
100
AcDbLine
 10
60.218942984
 20
72.943066099
 30
0.0
 11
68.555660938
 21
74.413054405
 31
0.0
  0
LINE
  5
1A5
330
1D
100
AcDbEntity
  8
NOCUT
100
AcDbLine
 10
68.555660938
 20
74.413054405
 30
0.0
 11
68.715987907
 21
74.098395011
 31
0.0
  0
LINE
  5
1A6
330
1D
100
AcDbEntity
  8
NOCUT
100
AcDbLine
 10
68.715987907
 20
74.098395011
 30
0.0
 11
70.56159132993747
 21
74.48140021742157
 31
0.0
  0
LINE
  5
1A7
330
1D
100
AcDbEntity
  8
NOCUT
100
AcDbLine
 10
70.56159132993747
 20
74.48140021742157
 30
0.0
 11
70.16104479510439
 21
65.34084697137885
 31
0.0
  0
LINE
  5
1A8
330
1D
100
AcDbEntity
  8
NOCUT
100
AcDbLine
 10
70.16104479510439
 20
65.34084697137885
 30
0.0
 11
70.037112571
 21
64.602627293
 31
0.0
  0
LINE
  5
1A9
330
1D
100
AcDbEntity
  8
NOCUT
100
AcDbLine
 10
70.037112571
 20
64.602627293
 30
0.0
 11
70.046258056
 21
64.585597007
 31
0.0
  0
LINE
  5
1AA
330
1D
100
AcDbEntity
  8
NOCUT
100
AcDbLine
 10
70.046258056
 20
64.585597007
 30
0.0
 11
69.937218587
 21
62.505
 31
0.0
  0
LINE
  5
1AB
330
1D
100
AcDbEntity
  8
NOCUT
100
AcDbLine
 10
69.937218587
 20
62.505
 30
0.0
 11
60.05
 21
62.505
 31
0.0
  0
LINE
  5
1AC
330
1D
100
AcDbEntity
  8
NOCUT
100
AcDbLine
 10
60.05
 20
62.505
 30
0.0
 11
60.05
 21
59.91672480910389
 31
0.0
  0
LINE
  5
1AD
330
1D
100
AcDbEntity
  8
NOCUT
100
AcDbLine
 10
60.05
 20
59.91672480910389
 30
0.0
 11
63.809323187
 21
58.9
 31
0.0
  0
LINE
  5
1AE
330
1D
100
AcDbEntity
  8
NOCUT
100
AcDbLine
 10
67.2
 20
0.0
 30
0.0
 11
0.0
 21
0.0
 31
0.0
  0
LINE
  5
1AF
330
1D
100
AcDbEntity
  8
NOCUT
100
AcDbLine
 10
0.0
 20
0.0
 30
0.0
 11
0.0000000000000039
 21
63.0
 31
0.0
  0
LINE
  5
1B0
330
1D
100
AcDbEntity
  8
NOCUT
100
AcDbLine
 10
0.0000000000000039
 20
63.0
 30
0.0
 11
30.026279442
 21
63.0
 31
0.0
  0
LINE
  5
1B1
330
1D
100
AcDbEntity
  8
NOCUT
100
AcDbLine
 10
30.026279442
 20
63.0
 30
0.0
 11
31.5
 21
57.5
 31
0.0
  0
LINE
  5
1B2
330
1D
100
AcDbEntity
  8
NOCUT
100
AcDbLine
 10
31.5
 20
57.5
 30
0.0
 11
35.95
 21
56.307626094
 31
0.0
  0
LINE
  5
1B3
330
1D
100
AcDbEntity
  8
NOCUT
100
AcDbLine
 10
35.95
 20
56.307626094
 30
0.0
 11
36.0
 21
70.093869397
 31
0.0
  0
ARC
  5
1B4
330
1D
100
AcDbEntity
  8
NOCUT
100
AcDbCircle
 10
36.95338687351072
 20
70.05089986988841
 30
0.0
 40
0.9543547091321705
100
AcDbArc
 50
91.32343824300604
 51
177.4194027490877
  0
LINE
  5
1B7
330
1D
100
AcDbEntity
  8
3
100
AcDbLine
 10
68.715987907
 20
74.098395011
 30
0.0
 11
70.56159132993747
 21
74.48140021742157
 31
0.0
  0
LINE
  5
1B8
330
1D
100
AcDbEntity
  8
3
100
AcDbLine
 10
70.56159132993747
 20
74.48140021742157
 30
0.0
 11
70.16104479510439
 21
65.34084697137885
 31
0.0
  0
LINE
  5
1B9
330
1D
100
AcDbEntity
  8
3
100
AcDbLine
 10
70.16104479510439
 20
65.34084697137885
 30
0.0
 11
70.037112571
 21
64.602627293
 31
0.0
  0
LINE
  5
1BA
330
1D
100
AcDbEntity
  8
1
100
AcDbLine
 10
70.037112571
 20
64.602627293
 30
0.0
 11
70.046258056
 21
64.585597007
 31
0.0
  0
LINE
  5
1BB
330
1D
100
AcDbEntity
  8
1
100
AcDbLine
 10
68.715987907
 20
74.098395011
 30
0.0
 11
64.069015866
 21
71.730644494
 31
0.0
  0
LINE
  5
1BC
330
1D
100
AcDbEntity
  8
1
100
AcDbLine
 10
63.901540806
 20
68.535029982
 30
0.0
 11
70.0300076088267
 21
64.55092476341706
 31
0.0
  0
LINE
  5
1BD
330
1D
100
AcDbEntity
  8
1
100
AcDbLine
 10
70.0300076088267
 20
64.55092476341706
 30
0.0
 11
70.04444096070638
 21
64.55092476341706
 31
0.0
  0
LWPOLYLINE
  5
1DA
330
1D
100
AcDbEntity
  8
INFTOTAL
100
AcDbPolyline
 90
        4
 70
     1
 43
0.0
 10
-162.6712645567923
 20
118.5675506385515
 10
-162.6712645567923
 20
-93.74447508657262
 10
185.9613241339165
 20
-93.74447508657262
 10
185.9613241339165
 20
118.5675506385515
  0
LINE
  5
20B
330
1D
100
AcDbEntity
  8
SK3
100
AcDbLine
 10
-2.754276418
 20
-8.022187791
 30
0.0
 11
0.0
 21
-3.240439427218693
 31
0.0
  0
LINE
  5
20C
330
1D
100
AcDbEntity
  8
SK3
100
AcDbLine
 10
0.0
 20
3.22917381934721
 30
0.0
 11
-2.754276418
 21
7.99429811
 31
0.0
  0
LINE
  5
20D
330
1D
100
AcDbEntity
  8
SK3
100
AcDbLine
 10
-0.230902104
 20
3.628653414
 30
0.0
 11
0.0
 21
3.806414960872637
 31
0.0
  0
LINE
  5
20E
330
1D
100
AcDbEntity
  8
SK3
100
AcDbLine
 10
-2.755503897
 20
7.99429811
 30
0.0
 11
0.0
 21
10.11580775134453
 31
0.0
  0
LINE
  5
243
330
1D
100
AcDbEntity
  8
SK4
100
AcDbLine
 10
69.484804297
 20
0.0
 30
0.0
 11
-43.8367375
 21
0.0
 31
0.0
  0
LINE
  5
244
330
1D
100
AcDbEntity
  8
SK4
100
AcDbLine
 10
-3.061496027
 20
4.597916568
 30
0.0
 11
57.920970156
 21
51.539494877
 31
0.0
  0
LINE
  5
26C
330
1D
100
AcDbEntity
  8
SK4
100
AcDbLine
 10
48.0
 20
72.358970273
 30
0.0
 11
48.0
 21
-63.889405719
 31
0.0
  0
LINE
  5
275
102
{ACAD_REACTORS
330
291
102
}
330
1D
100
AcDbEntity
  8
CUT
100
AcDbLine
 10
61.798843003
 20
69.900537902
 30
0.0
 11
69.860884194
 21
64.664987136
 31
0.0
  0
ARC
  5
276
102
{ACAD_REACTORS
330
291
102
}
330
1D
100
AcDbEntity
  8
CUT
100
AcDbCircle
 10
62.016698617
 20
70.236006129
 30
0.0
 40
0.4
100
AcDbArc
 50
117.0000000000007
 51
236.9999999999997
  0
LINE
  5
277
102
{ACAD_REACTORS
330
291
102
}
330
1D
100
AcDbEntity
  8
CUT
100
AcDbLine
 10
70.400242979
 20
74.956565834
 30
0.0
 11
61.835102417
 21
70.592408739
 31
0.0
  0
ARC
  5
278
102
{ACAD_REACTORS
330
291
102
}
330
1D
100
AcDbEntity
  8
CUT
100
AcDbCircle
 10
70.581839179
 20
74.600163224
 30
0.0
 40
0.4
100
AcDbArc
 50
357.0000000000005
 51
117.0000000000007
  0
LINE
  5
279
102
{ACAD_REACTORS
330
291
102
}
330
1D
100
AcDbEntity
  8
CUT
100
AcDbLine
 10
70.478191622
 20
64.979520981
 30
0.0
 11
70.981290993
 21
74.579228842
 31
0.0
  0
ARC
  5
27A
102
{ACAD_REACTORS
330
291
102
}
330
1D
100
AcDbEntity
  8
CUT
100
AcDbCircle
 10
70.078739808
 20
65.000455363
 30
0.0
 40
0.4
100
AcDbArc
 50
236.9999999999997
 51
357.0000000000005
  0
CIRCLE
  5
27B
102
{ACAD_REACTORS
330
291
102
}
330
1D
100
AcDbEntity
  8
1
100
AcDbCircle
 10
67.559092535
 20
69.945541572
 30
0.0
 40
1.8999736
  0
CIRCLE
  5
27C
330
1D
100
AcDbEntity
  8
1
100
AcDbCircle
 10
67.559092535
 20
69.94554157249999
 30
0.0
 40
1.899973599500001
  0
HATCH
  5
291
330
1D
100
AcDbEntity
  8
7
100
AcDbHatch
 10
0.0
 20
0.0
 30
0.0
210
0.0
220
0.0
230
1.0
  2
ANSI31
 70
     0
 71
     1
 91
        2
 92
        7
 72
     1
 73
     1
 93
        6
 10
70.47819162192637
 20
64.97952098062711
 42
0.0
 10
70.98129099292636
 20
74.57922884162713
 42
0.5773502689264167
 10
70.40024297907813
 20
74.95656583375651
 42
0.0
 10
61.83510241707814
 20
70.59240873875652
 42
0.5773502691154704
 10
61.7988430029955
 20
69.90053790186636
 42
0.0
 10
69.86088419399549
 20
64.66498713586637
 42
0.577350269342371
 97
        6
330
279
330
278
330
277
330
276
330
275
330
27A
 92
       22
 72
     1
 73
     1
 93
        2
 10
65.65911893500001
 20
69.945541572
 42
1.0
 10
69.459066135
 20
69.945541572
 42
1.0
 97
        1
330
27B
 75
     0
 76
     1
 52
0.0
 41
1.0
 77
     0
 78
     1
 53
45.0
 43
-18.72393556104845
 44
-12.01012251678146
 45
-0.0883883476483184
 46
0.0883883476483184
 79
     0
 47
0.0
 98
        2
 10
69.85670120336013
 20
67.56718773255982
 10
69.85670120336013
 20
67.56718773255982
1001
ACAD
1010
0.0
1020
0.0
1030
0.0
  0
ENDSEC
  0
SECTION
  2
OBJECTS
  0
DICTIONARY
  5
C
330
0
100
AcDbDictionary
281
     1
  3
ACAD_DETAILVIEWSTYLE
350
18D
  3
ACAD_GROUP
350
D
  3
ACAD_LAYOUT
350
1A
  3
ACAD_MLINESTYLE
350
17
  3
ACAD_PLOTSETTINGS
350
19
  3
ACAD_PLOTSTYLENAME
350
E
  3
ACAD_SCALELIST
350
F9
  3
ACAD_SECTIONVIEWSTYLE
350
18E
  3
AcDbVariableDictionary
350
13B
  3
APPDATA
350
189
  3
DWGPROPS
350
29C
  0
DICTIONARY
  5
18F
330
2
100
AcDbDictionary
280
     1
281
     1
  3
ACAD_LAYERSTATES
360
190
  3
ACLYDICTIONARY
360
28B
  0
DICTIONARY
  5
28E
330
1D
100
AcDbDictionary
280
     1
281
     1
  3
ACAD_SORTENTS
360
28F
  0
DICTIONARY
  5
18D
102
{ACAD_REACTORS
330
C
102
}
330
C
100
AcDbDictionary
281
     1
  0
DICTIONARY
  5
D
102
{ACAD_REACTORS
330
C
102
}
330
C
100
AcDbDictionary
281
     1
  0
DICTIONARY
  5
1A
102
{ACAD_REACTORS
330
C
102
}
330
C
100
AcDbDictionary
281
     1
  3
Layout1
350
1C
  3
Model
350
1E
  0
DICTIONARY
  5
17
102
{ACAD_REACTORS
330
C
102
}
330
C
100
AcDbDictionary
281
     1
  3
Standard
350
18
  0
DICTIONARY
  5
19
102
{ACAD_REACTORS
330
C
102
}
330
C
100
AcDbDictionary
281
     1
  0
ACDBDICTIONARYWDFLT
  5
E
102
{ACAD_REACTORS
330
C
102
}
330
C
100
AcDbDictionary
281
     1
  3
Normal
350
F
100
AcDbDictionaryWithDefault
340
F
  0
DICTIONARY
  5
F9
102
{ACAD_REACTORS
330
C
102
}
330
C
100
AcDbDictionary
281
     1
  3
A0
350
FA
  3
A1
350
FB
  3
A2
350
FC
  3
A3
350
FD
  3
A4
350
FE
  3
A5
350
FF
  3
A6
350
100
  3
A7
350
101
  3
A8
350
102
  3
A9
350
103
  3
B0
350
104
  3
B1
350
105
  3
B2
350
106
  3
B3
350
107
  3
B4
350
108
  3
B5
350
109
  3
B6
350
10A
  3
B7
350
10B
  3
B8
350
10C
  3
B9
350
10D
  3
C0
350
10E
  3
C1
350
10F
  3
C2
350
110
  3
C3
350
111
  3
C4
350
112
  3
C5
350
113
  3
C6
350
114
  3
C7
350
115
  3
C8
350
116
  3
C9
350
117
  3
D0
350
118
  3
D1
350
119
  3
D2
350
11A
  0
DICTIONARY
  5
18E
102
{ACAD_REACTORS
330
C
102
}
330
C
100
AcDbDictionary
281
     1
  0
DICTIONARY
  5
13B
102
{ACAD_REACTORS
330
C
102
}
330
C
100
AcDbDictionary
281
     1
  3
DIMASSOC
350
13F
  3
HIDETEXT
350
140
  0
DICTIONARY
  5
189
102
{ACAD_REACTORS
330
C
102
}
330
C
100
AcDbDictionary
281
     1
  0
XRECORD
  5
29C
102
{ACAD_REACTORS
330
C
102
}
330
C
100
AcDbXrecord
280
     1
  1
DWGPROPS COOKIE
  2

  3

  4

  6

  7

  8
matthias.ochs
  9

300
=
301
=
302
=
303
=
304
=
305
=
306
=
307
=
308
=
309
=
 40
0.0
 41
2458327.465982153
 42
2458589.508258947
  1

 90
        0
  0
DICTIONARY
  5
190
102
{ACAD_REACTORS
330
18F
102
}
330
18F
100
AcDbDictionary
281
     1
  0
DICTIONARY
  5
28B
102
{ACAD_REACTORS
330
18F
102
}
330
18F
100
AcDbDictionary
281
     1
1001
ACAD
1000
<All
  0
SORTENTSTABLE
  5
28F
102
{ACAD_REACTORS
330
28E
102
}
330
28E
100
AcDbSortentsTable
330
1D
331
0
  5
275
331
275
  5
278
331
276
  5
279
331
277
  5
27A
331
278
  5
27B
331
279
  5
27C
331
27A
  5
28D
331
27B
  5
290
331
27C
  5
291
331
291
  5
277
  0
LAYOUT
  5
1C
102
{ACAD_REACTORS
330
1A
102
}
330
1A
100
AcDbPlotSettings
  1

  2
none_device
  4

  6

 40
0.0
 41
0.0
 42
0.0
 43
0.0
 44
0.0
 45
0.0
 46
0.0
 47
0.0
 48
0.0
 49
0.0
140
0.0
141
0.0
142
1.0
143
1.0
 70
   688
 72
     0
 73
     0
 74
     5
  7

 75
    16
147
1.0
148
0.0
149
0.0
100
AcDbLayout
  1
Layout1
 70
     1
 71
     1
 10
0.0
 20
0.0
 11
12.0
 21
9.0
 12
0.0
 22
0.0
 32
0.0
 14
1.000000000000000E+20
 24
1.000000000000000E+20
 34
1.000000000000000E+20
 15
-1.000000000000000E+20
 25
-1.000000000000000E+20
 35
-1.000000000000000E+20
146
0.0
 13
0.0
 23
0.0
 33
0.0
 16
1.0
 26
0.0
 36
0.0
 17
0.0
 27
1.0
 37
0.0
 76
     0
330
1B
  0
LAYOUT
  5
1E
102
{ACAD_REACTORS
330
1A
102
}
330
1A
100
AcDbPlotSettings
  1

  2
none_device
  4

  6

 40
0.0
 41
0.0
 42
0.0
 43
0.0
 44
0.0
 45
0.0
 46
0.0
 47
0.0
 48
0.0
 49
0.0
140
0.0
141
0.0
142
1.0
143
1.0
 70
  1712
 72
     0
 73
     0
 74
     0
  7

 75
     0
147
1.0
148
0.0
149
0.0
100
AcDbLayout
  1
Model
 70
     1
 71
     0
 10
0.0
 20
0.0
 11
12.0
 21
9.0
 12
0.0
 22
0.0
 32
0.0
 14
-162.6712645567923
 24
-93.74447508657262
 34
0.0
 15
185.9613241339165
 25
118.5675506385515
 35
0.0
146
0.0
 13
0.0
 23
0.0
 33
0.0
 16
1.0
 26
0.0
 36
0.0
 17
0.0
 27
1.0
 37
0.0
 76
     0
330
1D
331
F3
  0
MLINESTYLE
  5
18
102
{ACAD_REACTORS
330
17
102
}
330
17
100
AcDbMlineStyle
  2
Standard
 70
     0
  3

 62
   256
 51
90.0
 52
90.0
 71
     2
 49
0.5
 62
   256
  6
BYLAYER
 49
-0.5
 62
   256
  6
BYLAYER
  0
ACDBPLACEHOLDER
  5
F
102
{ACAD_REACTORS
330
E
102
}
330
E
  0
SCALE
  5
FA
102
{ACAD_REACTORS
330
F9
102
}
330
F9
100
AcDbScale
 70
     0
300
1:1
140
1.0
141
1.0
290
     1
  0
SCALE
  5
FB
102
{ACAD_REACTORS
330
F9
102
}
330
F9
100
AcDbScale
 70
     0
300
1:2
140
1.0
141
2.0
290
     0
  0
SCALE
  5
FC
102
{ACAD_REACTORS
330
F9
102
}
330
F9
100
AcDbScale
 70
     0
300
1:4
140
1.0
141
4.0
290
     0
  0
SCALE
  5
FD
102
{ACAD_REACTORS
330
F9
102
}
330
F9
100
AcDbScale
 70
     0
300
1:5
140
1.0
141
5.0
290
     0
  0
SCALE
  5
FE
102
{ACAD_REACTORS
330
F9
102
}
330
F9
100
AcDbScale
 70
     0
300
1:8
140
1.0
141
8.0
290
     0
  0
SCALE
  5
FF
102
{ACAD_REACTORS
330
F9
102
}
330
F9
100
AcDbScale
 70
     0
300
1:10
140
1.0
141
10.0
290
     0
  0
SCALE
  5
100
102
{ACAD_REACTORS
330
F9
102
}
330
F9
100
AcDbScale
 70
     0
300
1:16
140
1.0
141
16.0
290
     0
  0
SCALE
  5
101
102
{ACAD_REACTORS
330
F9
102
}
330
F9
100
AcDbScale
 70
     0
300
1:20
140
1.0
141
20.0
290
     0
  0
SCALE
  5
102
102
{ACAD_REACTORS
330
F9
102
}
330
F9
100
AcDbScale
 70
     0
300
1:30
140
1.0
141
30.0
290
     0
  0
SCALE
  5
103
102
{ACAD_REACTORS
330
F9
102
}
330
F9
100
AcDbScale
 70
     0
300
1:40
140
1.0
141
40.0
290
     0
  0
SCALE
  5
104
102
{ACAD_REACTORS
330
F9
102
}
330
F9
100
AcDbScale
 70
     0
300
1:50
140
1.0
141
50.0
290
     0
  0
SCALE
  5
105
102
{ACAD_REACTORS
330
F9
102
}
330
F9
100
AcDbScale
 70
     0
300
1:100
140
1.0
141
100.0
290
     0
  0
SCALE
  5
106
102
{ACAD_REACTORS
330
F9
102
}
330
F9
100
AcDbScale
 70
     0
300
2:1
140
2.0
141
1.0
290
     0
  0
SCALE
  5
107
102
{ACAD_REACTORS
330
F9
102
}
330
F9
100
AcDbScale
 70
     0
300
4:1
140
4.0
141
1.0
290
     0
  0
SCALE
  5
108
102
{ACAD_REACTORS
330
F9
102
}
330
F9
100
AcDbScale
 70
     0
300
8:1
140
8.0
141
1.0
290
     0
  0
SCALE
  5
109
102
{ACAD_REACTORS
330
F9
102
}
330
F9
100
AcDbScale
 70
     0
300
10:1
140
10.0
141
1.0
290
     0
  0
SCALE
  5
10A
102
{ACAD_REACTORS
330
F9
102
}
330
F9
100
AcDbScale
 70
     0
300
100:1
140
100.0
141
1.0
290
     0
  0
SCALE
  5
10B
102
{ACAD_REACTORS
330
F9
102
}
330
F9
100
AcDbScale
 70
     0
300
1/128" = 1'-0"
140
0.0078125
141
12.0
290
     0
  0
SCALE
  5
10C
102
{ACAD_REACTORS
330
F9
102
}
330
F9
100
AcDbScale
 70
     0
300
1/64" = 1'-0"
140
0.015625
141
12.0
290
     0
  0
SCALE
  5
10D
102
{ACAD_REACTORS
330
F9
102
}
330
F9
100
AcDbScale
 70
     0
300
1/32" = 1'-0"
140
0.03125
141
12.0
290
     0
  0
SCALE
  5
10E
102
{ACAD_REACTORS
330
F9
102
}
330
F9
100
AcDbScale
 70
     0
300
1/16" = 1'-0"
140
0.0625
141
12.0
290
     0
  0
SCALE
  5
10F
102
{ACAD_REACTORS
330
F9
102
}
330
F9
100
AcDbScale
 70
     0
300
3/32" = 1'-0"
140
0.09375
141
12.0
290
     0
  0
SCALE
  5
110
102
{ACAD_REACTORS
330
F9
102
}
330
F9
100
AcDbScale
 70
     0
300
1/8" = 1'-0"
140
0.125
141
12.0
290
     0
  0
SCALE
  5
111
102
{ACAD_REACTORS
330
F9
102
}
330
F9
100
AcDbScale
 70
     0
300
3/16" = 1'-0"
140
0.1875
141
12.0
290
     0
  0
SCALE
  5
112
102
{ACAD_REACTORS
330
F9
102
}
330
F9
100
AcDbScale
 70
     0
300
1/4" = 1'-0"
140
0.25
141
12.0
290
     0
  0
SCALE
  5
113
102
{ACAD_REACTORS
330
F9
102
}
330
F9
100
AcDbScale
 70
     0
300
3/8" = 1'-0"
140
0.375
141
12.0
290
     0
  0
SCALE
  5
114
102
{ACAD_REACTORS
330
F9
102
}
330
F9
100
AcDbScale
 70
     0
300
1/2" = 1'-0"
140
0.5
141
12.0
290
     0
  0
SCALE
  5
115
102
{ACAD_REACTORS
330
F9
102
}
330
F9
100
AcDbScale
 70
     0
300
3/4" = 1'-0"
140
0.75
141
12.0
290
     0
  0
SCALE
  5
116
102
{ACAD_REACTORS
330
F9
102
}
330
F9
100
AcDbScale
 70
     0
300
1" = 1'-0"
140
1.0
141
12.0
290
     0
  0
SCALE
  5
117
102
{ACAD_REACTORS
330
F9
102
}
330
F9
100
AcDbScale
 70
     0
300
1-1/2" = 1'-0"
140
1.5
141
12.0
290
     0
  0
SCALE
  5
118
102
{ACAD_REACTORS
330
F9
102
}
330
F9
100
AcDbScale
 70
     0
300
3" = 1'-0"
140
3.0
141
12.0
290
     0
  0
SCALE
  5
119
102
{ACAD_REACTORS
330
F9
102
}
330
F9
100
AcDbScale
 70
     0
300
6" = 1'-0"
140
6.0
141
12.0
290
     0
  0
SCALE
  5
11A
102
{ACAD_REACTORS
330
F9
102
}
330
F9
100
AcDbScale
 70
     0
300
1'-0" = 1'-0"
140
12.0
141
12.0
290
     0
  0
DICTIONARYVAR
  5
13F
102
{ACAD_REACTORS
330
13B
102
}
330
13B
100
DictionaryVariables
280
     0
  1
2
  0
DICTIONARYVAR
  5
140
102
{ACAD_REACTORS
330
13B
102
}
330
13B
100
DictionaryVariables
280
     0
  1
1
  0
ENDSEC
  0
EOF
